  0
SECTION
  2
HEADER
  9
$ACADVER
  1
AC1015
  9
$ACADMAINTVER
 70
    18
  9
$DWGCODEPAGE
  3
ANSI_1252
  9
$INSBASE
 10
0.0
 20
0.0
 30
0.0
  9
$EXTMIN
 10
-217.2033684155942
 20
-291.5889583881816
 30
-0.0015258207003583
  9
$EXTMAX
 10
269.4406135955833
 20
329.7064368868089
 30
0.0000000349246037
  9
$LIMMIN
 10
0.0
 20
0.0
  9
$LIMMAX
 10
420.0
 20
297.0
  9
$ORTHOMODE
 70
     0
  9
$REGENMODE
 70
     1
  9
$FILLMODE
 70
     1
  9
$QTEXTMODE
 70
     0
  9
$MIRRTEXT
 70
     0
  9
$LTSCALE
 40
1.0
  9
$ATTMODE
 70
     1
  9
$TEXTSIZE
 40
2.5
  9
$TRACEWID
 40
1.0
  9
$TEXTSTYLE
  7
Standard
  9
$CLAYER
  8
0
  9
$CELTYPE
  6
ByLayer
  9
$CECOLOR
 62
   256
  9
$CELTSCALE
 40
1.0
  9
$DISPSILH
 70
     0
  9
$DIMSCALE
 40
1.0
  9
$DIMASZ
 40
2.5
  9
$DIMEXO
 40
0.625
  9
$DIMDLI
 40
3.75
  9
$DIMRND
 40
0.0
  9
$DIMDLE
 40
0.0
  9
$DIMEXE
 40
1.25
  9
$DIMTP
 40
0.0
  9
$DIMTM
 40
0.0
  9
$DIMTXT
 40
2.5
  9
$DIMCEN
 40
2.5
  9
$DIMTSZ
 40
0.0
  9
$DIMTOL
 70
     0
  9
$DIMLIM
 70
     0
  9
$DIMTIH
 70
     0
  9
$DIMTOH
 70
     0
  9
$DIMSE1
 70
     0
  9
$DIMSE2
 70
     0
  9
$DIMTAD
 70
     1
  9
$DIMZIN
 70
     8
  9
$DIMBLK
  1

  9
$DIMASO
 70
     1
  9
$DIMSHO
 70
     1
  9
$DIMPOST
  1

  9
$DIMAPOST
  1

  9
$DIMALT
 70
     0
  9
$DIMALTD
 70
     3
  9
$DIMALTF
 40
0.03937007874016
  9
$DIMLFAC
 40
1.0
  9
$DIMTOFL
 70
     1
  9
$DIMTVP
 40
0.0
  9
$DIMTIX
 70
     0
  9
$DIMSOXD
 70
     0
  9
$DIMSAH
 70
     0
  9
$DIMBLK1
  1

  9
$DIMBLK2
  1

  9
$DIMSTYLE
  2
ISO-25
  9
$DIMCLRD
 70
     0
  9
$DIMCLRE
 70
     0
  9
$DIMCLRT
 70
     0
  9
$DIMTFAC
 40
1.0
  9
$DIMGAP
 40
0.625
  9
$DIMJUST
 70
     0
  9
$DIMSD1
 70
     0
  9
$DIMSD2
 70
     0
  9
$DIMTOLJ
 70
     0
  9
$DIMTZIN
 70
     8
  9
$DIMALTZ
 70
     0
  9
$DIMALTTZ
 70
     0
  9
$DIMUPT
 70
     0
  9
$DIMDEC
 70
     2
  9
$DIMTDEC
 70
     2
  9
$DIMALTU
 70
     2
  9
$DIMALTTD
 70
     3
  9
$DIMTXSTY
  7
Standard
  9
$DIMAUNIT
 70
     0
  9
$DIMADEC
 70
     0
  9
$DIMALTRND
 40
0.0
  9
$DIMAZIN
 70
     0
  9
$DIMDSEP
 70
    44
  9
$DIMATFIT
 70
     3
  9
$DIMFRAC
 70
     0
  9
$DIMLDRBLK
  1

  9
$DIMLUNIT
 70
     2
  9
$DIMLWD
 70
    -2
  9
$DIMLWE
 70
    -2
  9
$DIMTMOVE
 70
     0
  9
$LUNITS
 70
     2
  9
$LUPREC
 70
     4
  9
$SKETCHINC
 40
1.0
  9
$FILLETRAD
 40
0.0
  9
$AUNITS
 70
     0
  9
$AUPREC
 70
     0
  9
$MENU
  1
.
  9
$ELEVATION
 40
0.0
  9
$PELEVATION
 40
0.0
  9
$THICKNESS
 40
0.0
  9
$LIMCHECK
 70
     0
  9
$CHAMFERA
 40
0.0
  9
$CHAMFERB
 40
0.0
  9
$CHAMFERC
 40
0.0
  9
$CHAMFERD
 40
0.0
  9
$SKPOLY
 70
     0
  9
$TDCREATE
 40
2460398.356956019
  9
$TDUCREATE
 40
2460398.065289352
  9
$TDUPDATE
 40
2460398.375497685
  9
$TDUUPDATE
 40
2460398.083831019
  9
$TDINDWG
 40
0.0078703704
  9
$TDUSRTIMER
 40
0.0078703704
  9
$USRTIMER
 70
     1
  9
$ANGBASE
 50
0.0
  9
$ANGDIR
 70
     0
  9
$PDMODE
 70
     0
  9
$PDSIZE
 40
0.0
  9
$PLINEWID
 40
0.0
  9
$SPLFRAME
 70
     0
  9
$SPLINETYPE
 70
     6
  9
$SPLINESEGS
 70
     8
  9
$HANDSEED
  5
A995
  9
$SURFTAB1
 70
     6
  9
$SURFTAB2
 70
     6
  9
$SURFTYPE
 70
     6
  9
$SURFU
 70
     6
  9
$SURFV
 70
     6
  9
$UCSBASE
  2

  9
$UCSNAME
  2

  9
$UCSORG
 10
0.0
 20
0.0
 30
0.0
  9
$UCSXDIR
 10
1.0
 20
0.0
 30
0.0
  9
$UCSYDIR
 10
0.0
 20
1.0
 30
0.0
  9
$UCSORTHOREF
  2

  9
$UCSORTHOVIEW
 70
     0
  9
$UCSORGTOP
 10
0.0
 20
0.0
 30
0.0
  9
$UCSORGBOTTOM
 10
0.0
 20
0.0
 30
0.0
  9
$UCSORGLEFT
 10
0.0
 20
0.0
 30
0.0
  9
$UCSORGRIGHT
 10
0.0
 20
0.0
 30
0.0
  9
$UCSORGFRONT
 10
0.0
 20
0.0
 30
0.0
  9
$UCSORGBACK
 10
0.0
 20
0.0
 30
0.0
  9
$PUCSBASE
  2

  9
$PUCSNAME
  2

  9
$PUCSORG
 10
0.0
 20
0.0
 30
0.0
  9
$PUCSXDIR
 10
1.0
 20
0.0
 30
0.0
  9
$PUCSYDIR
 10
0.0
 20
1.0
 30
0.0
  9
$PUCSORTHOREF
  2

  9
$PUCSORTHOVIEW
 70
     0
  9
$PUCSORGTOP
 10
0.0
 20
0.0
 30
0.0
  9
$PUCSORGBOTTOM
 10
0.0
 20
0.0
 30
0.0
  9
$PUCSORGLEFT
 10
0.0
 20
0.0
 30
0.0
  9
$PUCSORGRIGHT
 10
0.0
 20
0.0
 30
0.0
  9
$PUCSORGFRONT
 10
0.0
 20
0.0
 30
0.0
  9
$PUCSORGBACK
 10
0.0
 20
0.0
 30
0.0
  9
$USERI1
 70
     0
  9
$USERI2
 70
     0
  9
$USERI3
 70
     0
  9
$USERI4
 70
     0
  9
$USERI5
 70
     0
  9
$USERR1
 40
0.0
  9
$USERR2
 40
0.0
  9
$USERR3
 40
0.0
  9
$USERR4
 40
0.0
  9
$USERR5
 40
0.0
  9
$WORLDVIEW
 70
     1
  9
$SHADEDGE
 70
     3
  9
$SHADEDIF
 70
    70
  9
$TILEMODE
 70
     1
  9
$MAXACTVP
 70
    48
  9
$PINSBASE
 10
0.0
 20
0.0
 30
0.0
  9
$PLIMCHECK
 70
     0
  9
$PEXTMIN
 10
0.0
 20
0.0
 30
0.0
  9
$PEXTMAX
 10
0.0
 20
0.0
 30
0.0
  9
$PLIMMIN
 10
0.0
 20
0.0
  9
$PLIMMAX
 10
12.0
 20
9.0
  9
$UNITMODE
 70
     0
  9
$VISRETAIN
 70
     1
  9
$PLINEGEN
 70
     0
  9
$PSLTSCALE
 70
     1
  9
$TREEDEPTH
 70
  3020
  9
$CMLSTYLE
  2
Standard
  9
$CMLJUST
 70
     0
  9
$CMLSCALE
 40
20.0
  9
$PROXYGRAPHICS
 70
     1
  9
$MEASUREMENT
 70
     1
  9
$CELWEIGHT
370
    -1
  9
$ENDCAPS
280
     0
  9
$JOINSTYLE
280
     0
  9
$LWDISPLAY
290
     0
  9
$INSUNITS
 70
     4
  9
$HYPERLINKBASE
  1

  9
$STYLESHEET
  1

  9
$XEDIT
290
     1
  9
$CEPSNTYPE
380
     0
  9
$PSTYLEMODE
290
     1
  9
$FINGERPRINTGUID
  2
{6C1266EE-7BC1-BF4A-B059-A6E7702B10CE}
  9
$VERSIONGUID
  2
{A97E0FB3-CC1E-D340-9772-0C313A2C7C69}
  9
$EXTNAMES
290
     1
  9
$PSVPSCALE
 40
0.0
  9
$OLESTARTUP
290
     0
  0
ENDSEC
  0
SECTION
  2
CLASSES
  0
CLASS
  1
ACDBDICTIONARYWDFLT
  2
AcDbDictionaryWithDefault
  3
ObjectDBX Classes
 90
        0
280
     0
281
     0
  0
CLASS
  1
ACDBPLACEHOLDER
  2
AcDbPlaceHolder
  3
ObjectDBX Classes
 90
        0
280
     0
281
     0
  0
CLASS
  1
LAYOUT
  2
AcDbLayout
  3
ObjectDBX Classes
 90
        0
280
     0
281
     0
  0
CLASS
  1
DICTIONARYVAR
  2
AcDbDictionaryVar
  3
ObjectDBX Classes
 90
        0
280
     0
281
     0
  0
CLASS
  1
TABLESTYLE
  2
AcDbTableStyle
  3
ObjectDBX Classes
 90
     4095
280
     0
281
     0
  0
CLASS
  1
MATERIAL
  2
AcDbMaterial
  3
ObjectDBX Classes
 90
     1153
280
     0
281
     0
  0
CLASS
  1
VISUALSTYLE
  2
AcDbVisualStyle
  3
ObjectDBX Classes
 90
     4095
280
     0
281
     0
  0
CLASS
  1
SCALE
  2
AcDbScale
  3
ObjectDBX Classes
 90
     1153
280
     0
281
     0
  0
CLASS
  1
MLEADERSTYLE
  2
AcDbMLeaderStyle
  3
ACDB_MLEADERSTYLE_CLASS
 90
     4095
280
     0
281
     0
  0
CLASS
  1
CELLSTYLEMAP
  2
AcDbCellStyleMap
  3
ObjectDBX Classes
 90
     1152
280
     0
281
     0
  0
CLASS
  1
EXACXREFPANELOBJECT
  2
ExAcXREFPanelObject
  3
EXAC_ESW
 90
    33793
280
     0
281
     0
  0
CLASS
  1
NPOCOLLECTION
  2
AcDbImpNonPersistentObjectsCollection
  3
ObjectDBX Classes
 90
    33921
280
     0
281
     0
  0
CLASS
  1
LAYER_INDEX
  2
AcDbLayerIndex
  3
ObjectDBX Classes
 90
    32768
280
     0
281
     0
  0
CLASS
  1
SPATIAL_INDEX
  2
AcDbSpatialIndex
  3
ObjectDBX Classes
 90
    32768
280
     0
281
     0
  0
CLASS
  1
IDBUFFER
  2
AcDbIdBuffer
  3
ObjectDBX Classes
 90
    32768
280
     0
281
     0
  0
CLASS
  1
ACDBSECTIONVIEWSTYLE
  2
AcDbSectionViewStyle
  3
ObjectDBX Classes
 90
     1025
280
     0
281
     0
  0
CLASS
  1
ACDBDETAILVIEWSTYLE
  2
AcDbDetailViewStyle
  3
ObjectDBX Classes
 90
     1025
280
     0
281
     0
  0
CLASS
  1
XRECORD
  2
AcDbXrecord
  3
ObjectDBX Classes
 90
        0
280
     0
281
     0
  0
ENDSEC
  0
SECTION
  2
TABLES
  0
TABLE
  2
VPORT
  5
8
102
{ACAD_XDICTIONARY
360
A8A3
102
}
330
0
100
AcDbSymbolTable
 70
     1
  0
VPORT
  5
EA
330
8
100
AcDbSymbolTableRecord
100
AcDbViewportTableRecord
  2
*Active
 70
     0
 10
0.0
 20
0.0
 11
1.0
 21
1.0
 12
26.11862258999451
 22
19.05873924931364
 13
0.0
 23
0.0
 14
10.0
 24
10.0
 15
10.0
 25
10.0
 16
0.0
 26
0.0
 36
1.0
 17
0.0
 27
0.0
 37
0.0
 40
660.6913490260362
 41
0.9846153846153848
 42
50.0
 43
0.0
 44
0.0
 50
0.0
 51
0.0
 71
     0
 72
  1000
 73
     1
 74
     3
 75
     0
 76
     1
 77
     0
 78
     0
281
     0
 65
     1
110
0.0
120
0.0
130
0.0
111
1.0
121
0.0
131
0.0
112
0.0
122
1.0
132
0.0
 79
     0
146
0.0
1001
ACAD_NAV_VCDISPLAY
1070
     3
  0
ENDTAB
  0
TABLE
  2
LTYPE
  5
5
330
0
100
AcDbSymbolTable
 70
     1
  0
LTYPE
  5
14
330
5
100
AcDbSymbolTableRecord
100
AcDbLinetypeTableRecord
  2
ByBlock
 70
     0
  3

 72
    65
 73
     0
 40
0.0
  0
LTYPE
  5
15
330
5
100
AcDbSymbolTableRecord
100
AcDbLinetypeTableRecord
  2
ByLayer
 70
     0
  3

 72
    65
 73
     0
 40
0.0
  0
LTYPE
  5
16
330
5
100
AcDbSymbolTableRecord
100
AcDbLinetypeTableRecord
  2
Continuous
 70
     0
  3
Solid line
 72
    65
 73
     0
 40
0.0
  0
ENDTAB
  0
TABLE
  2
LAYER
  5
2
102
{ACAD_XDICTIONARY
360
1FF
102
}
330
0
100
AcDbSymbolTable
 70
     1
  0
LAYER
  5
10
102
{ACAD_XDICTIONARY
360
13C
102
}
330
2
100
AcDbSymbolTableRecord
100
AcDbLayerTableRecord
  2
0
 70
     0
 62
     7
  6
Continuous
370
    -3
390
F
  0
ENDTAB
  0
TABLE
  2
STYLE
  5
3
330
0
100
AcDbSymbolTable
 70
     1
  0
STYLE
  5
11
330
3
100
AcDbSymbolTableRecord
100
AcDbTextStyleTableRecord
  2
Standard
 70
     0
 40
0.0
 41
1.0
 50
0.0
 71
     0
 42
2.5
  3
arial.ttf
  4

1001
ACAD
1000
Arial
1071
       34
  0
ENDTAB
  0
TABLE
  2
VIEW
  5
6
330
0
100
AcDbSymbolTable
 70
     0
  0
ENDTAB
  0
TABLE
  2
UCS
  5
7
330
0
100
AcDbSymbolTable
 70
     0
  0
ENDTAB
  0
TABLE
  2
APPID
  5
9
330
0
100
AcDbSymbolTable
 70
     8
  0
APPID
  5
12
330
9
100
AcDbSymbolTableRecord
100
AcDbRegAppTableRecord
  2
ACAD
 70
     0
  0
APPID
  5
9E
330
9
100
AcDbSymbolTableRecord
100
AcDbRegAppTableRecord
  2
ACAD_PSEXT
 70
     0
  0
APPID
  5
133
330
9
100
AcDbSymbolTableRecord
100
AcDbRegAppTableRecord
  2
AcadAnnoPO
 70
     0
  0
APPID
  5
134
330
9
100
AcDbSymbolTableRecord
100
AcDbRegAppTableRecord
  2
AcadAnnotative
 70
     0
  0
APPID
  5
135
330
9
100
AcDbSymbolTableRecord
100
AcDbRegAppTableRecord
  2
ACAD_DSTYLE_DIMJAG
 70
     0
  0
APPID
  5
136
330
9
100
AcDbSymbolTableRecord
100
AcDbRegAppTableRecord
  2
ACAD_DSTYLE_DIMTALN
 70
     0
  0
APPID
  5
165
330
9
100
AcDbSymbolTableRecord
100
AcDbRegAppTableRecord
  2
ACAD_MLEADERVER
 70
     0
  0
APPID
  5
217
330
9
100
AcDbSymbolTableRecord
100
AcDbRegAppTableRecord
  2
ACAD_NAV_VCDISPLAY
 70
     0
  0
ENDTAB
  0
TABLE
  2
DIMSTYLE
  5
A
330
0
100
AcDbSymbolTable
 70
     1
100
AcDbDimStyleTable
 71
     0
  0
DIMSTYLE
105
27
330
A
100
AcDbSymbolTableRecord
100
AcDbDimStyleTableRecord
  2
ISO-25
 70
     0
 41
2.5
 42
0.625
 43
3.75
 44
1.25
 73
     0
 74
     0
 77
     1
 78
     8
140
2.5
141
2.5
143
0.03937007874016
147
0.625
171
     3
172
     1
271
     2
272
     2
274
     3
278
    44
283
     0
284
     8
340
11
  0
ENDTAB
  0
TABLE
  2
BLOCK_RECORD
  5
1
330
0
100
AcDbSymbolTable
 70
     7
  0
BLOCK_RECORD
  5
1F
102
{ACAD_XDICTIONARY
360
1CE
102
}
330
1
100
AcDbSymbolTableRecord
100
AcDbBlockTableRecord
  2
*Model_Space
340
22
  0
BLOCK_RECORD
  5
D2
102
{ACAD_XDICTIONARY
360
A856
102
}
330
1
100
AcDbSymbolTableRecord
100
AcDbBlockTableRecord
  2
*Paper_Space
340
D3
  0
BLOCK_RECORD
  5
D6
102
{ACAD_XDICTIONARY
360
A858
102
}
330
1
100
AcDbSymbolTableRecord
100
AcDbBlockTableRecord
  2
*Paper_Space0
340
D7
  0
BLOCK_RECORD
  5
A6BC
330
1
100
AcDbSymbolTableRecord
100
AcDbBlockTableRecord
  2
SAE440_66_2-Front
340
0
102
{BLKREFS
331
A84C
102
}
  0
BLOCK_RECORD
  5
A714
330
1
100
AcDbSymbolTableRecord
100
AcDbBlockTableRecord
  2
SAE440_66_2-Left
340
0
102
{BLKREFS
331
A84D
102
}
  0
BLOCK_RECORD
  5
A735
330
1
100
AcDbSymbolTableRecord
100
AcDbBlockTableRecord
  2
SAE440_66_2-Right
340
0
102
{BLKREFS
331
A84E
102
}
  0
BLOCK_RECORD
  5
A754
330
1
100
AcDbSymbolTableRecord
100
AcDbBlockTableRecord
  2
SAE440_66_2-Top
340
0
102
{BLKREFS
331
A84F
102
}
  0
BLOCK_RECORD
  5
A784
330
1
100
AcDbSymbolTableRecord
100
AcDbBlockTableRecord
  2
SAE440_66_2-Bottom
340
0
102
{BLKREFS
331
A850
102
}
  0
BLOCK_RECORD
  5
A7AF
330
1
100
AcDbSymbolTableRecord
100
AcDbBlockTableRecord
  2
SAE440_66_2-ISO
340
0
102
{BLKREFS
331
A851
102
}
  0
ENDTAB
  0
ENDSEC
  0
SECTION
  2
BLOCKS
  0
BLOCK
  5
20
330
1F
100
AcDbEntity
  8
0
100
AcDbBlockBegin
  2
*Model_Space
 70
     0
 10
0.0
 20
0.0
 30
0.0
  3
*Model_Space
  1

  0
ENDBLK
  5
21
330
1F
100
AcDbEntity
  8
0
100
AcDbBlockEnd
  0
BLOCK
  5
D4
330
D2
100
AcDbEntity
 67
     1
  8
0
100
AcDbBlockBegin
  2
*Paper_Space
 70
     0
 10
0.0
 20
0.0
 30
0.0
  3
*Paper_Space
  1

  0
ENDBLK
  5
D5
330
D2
100
AcDbEntity
 67
     1
  8
0
100
AcDbBlockEnd
  0
BLOCK
  5
D8
330
D6
100
AcDbEntity
 67
     1
  8
0
100
AcDbBlockBegin
  2
*Paper_Space0
 70
     0
 10
0.0
 20
0.0
 30
0.0
  3
*Paper_Space0
  1

  0
ENDBLK
  5
D9
330
D6
100
AcDbEntity
 67
     1
  8
0
100
AcDbBlockEnd
  0
BLOCK
  5
A6BD
330
A6BC
100
AcDbEntity
  8
0
100
AcDbBlockBegin
  2
SAE440_66_2-Front
 70
     0
 10
0.0
 20
0.0
 30
0.0
  3
SAE440_66_2-Front
  1

  0
SPLINE
  5
A6BF
330
A6BC
100
AcDbEntity
  8
0
100
AcDbSpline
210
0.0
220
0.0
230
1.0
 70
     8
 71
     3
 72
    14
 73
    10
 74
     0
 42
0.000000001
 43
0.0000000001
 40
0.0
 40
0.0
 40
0.0
 40
0.0
 40
0.3435149368906571
 40
0.3435149368906571
 40
0.3435149368906571
 40
0.7569946176686826
 40
0.7569946176686826
 40
0.7569946176686826
 40
0.9986524929258209
 40
0.9986524929258209
 40
0.9986524929258209
 40
0.9986524929258209
 10
37.60606060606057
 20
29.56250000000001
 30
0.0
 10
37.28490796719828
 20
29.30249636930687
 30
0.0
 10
36.8724655581601
 20
29.07529402125368
 30
0.0
 10
36.47647444982522
 20
28.84408179461001
 30
0.0
 10
35.99983061434229
 20
28.56577786253083
 30
0.0
 10
35.53729794768412
 20
28.27139780313327
 30
0.0
 10
35.26242807118501
 20
27.85792704012759
 30
0.0
 10
35.10178058736674
 20
27.61627437685551
 30
0.0
 10
35.00111652656551
 20
27.3610736894003
 30
0.0
 10
35.0000092293052
 20
27.00594994759845
 30
0.0
  0
LINE
  5
A6C0
330
A6BC
100
AcDbEntity
  8
0
100
AcDbLine
 10
35.00000000000001
 20
29.56249999999998
 30
0.0
 11
37.0
 21
29.56249999999998
 31
0.0
  0
SPLINE
  5
A6C1
330
A6BC
100
AcDbEntity
  8
0
100
AcDbSpline
210
0.0
220
0.0
230
1.0
 70
     8
 71
     3
 72
    20
 73
    16
 74
     0
 42
0.000000001
 43
0.0000000001
 40
0.0120726182897413
 40
0.0120726182897413
 40
0.0120726182897413
 40
0.0120726182897413
 40
0.0124288000528497
 40
0.0124288000528497
 40
0.0135301208563145
 40
0.0135301208563145
 40
0.0142260307013282
 40
0.0142260307013282
 40
0.0153092757700548
 40
0.0153092757700548
 40
0.0162523844457423
 40
0.0162523844457423
 40
0.0174014487805596
 40
0.0174014487805596
 40
0.0202443893189857
 40
0.0202443893189857
 40
0.0202443893189857
 40
0.0202443893189857
 10
35.0002916470252
 20
27.05864902333236
 30
0.0
 10
35.0002916470249
 20
27.05864902330685
 30
0.0
 10
35.00029123340278
 20
27.05861291689851
 30
0.0
 10
35.00028772327516
 20
27.05830110121647
 30
0.0
 10
35.00028065114432
 20
27.05767548293636
 30
0.0
 10
35.00026145817241
 20
27.05580850311852
 30
0.0
 10
35.00025209444354
 20
27.05486981688043
 30
0.0
 10
35.00022446789113
 20
27.05189790680579
 30
0.0
 10
35.00020362269232
 20
27.0494742691565
 30
0.0
 10
35.00016554585206
 20
27.04422620210062
 30
0.0
 10
35.00014800501064
 20
27.04146090270104
 30
0.0
 10
35.00011446749119
 20
27.0350933641665
 30
0.0
 10
35.00009956505583
 20
27.03145092126774
 30
0.0
 10
35.00006174311076
 20
27.01867950915613
 30
0.0
 10
35.00005914637828
 20
27.00931542499667
 30
0.0
 10
35.00007431550509
 20
26.99999977750852
 30
0.0
  0
SPLINE
  5
A6C2
330
A6BC
100
AcDbEntity
  8
0
100
AcDbSpline
210
0.0
220
0.0
230
1.0
 70
     8
 71
     3
 72
    20
 73
    16
 74
     0
 42
0.000000001
 43
0.0000000001
 40
0.0053330783562312
 40
0.0053330783562312
 40
0.0053330783562312
 40
0.0053330783562312
 40
0.0056477915626126
 40
0.0056477915626126
 40
0.0060465525723671
 40
0.0060465525723671
 40
0.0065309034343914
 40
0.0065309034343914
 40
0.0071941933752613
 40
0.0071941933752613
 40
0.0085675382982501
 40
0.0085675382982501
 40
0.0106391840541828
 40
0.0106391840541828
 40
0.011102734039697
 40
0.011102734039697
 40
0.011102734039697
 40
0.011102734039697
 10
35.00010883933639
 20
27.04546313420895
 30
0.0
 10
35.00010883931782
 20
27.04546313121852
 30
0.0
 10
35.00010796015226
 20
27.04532229441793
 30
0.0
 10
35.00010437321237
 20
27.04473465816213
 30
0.0
 10
35.00010121321822
 20
27.04421100334843
 30
0.0
 10
35.00009286763614
 20
27.04276712721966
 30
0.0
 10
35.00008734573591
 20
27.04177604573152
 30
0.0
 10
35.00007384222271
 20
27.0391809734698
 30
0.0
 10
35.00006571105931
 20
27.03748289978144
 30
0.0
 10
35.00004297944018
 20
27.03216360740559
 30
0.0
 10
35.00002983008004
 20
27.02823211561324
 30
0.0
 10
35.00000644271437
 20
27.01793158957722
 30
0.0
 10
35.0000010751223
 20
27.01126214200787
 30
0.0
 10
35.00000622960448
 20
27.00302690728799
 30
0.0
 10
35.00000763334652
 20
27.00151476309102
 30
0.0
 10
35.00000948540659
 20
26.99999862394988
 30
0.0
  0
SPLINE
  5
A6C3
330
A6BC
100
AcDbEntity
  8
0
100
AcDbSpline
210
0.0
220
0.0
230
1.0
 70
     8
 71
     3
 72
     8
 73
     4
 74
     0
 42
0.000000001
 43
0.0000000001
 40
0.0
 40
0.0
 40
0.0
 40
0.0
 40
0.0009484845489525
 40
0.0009484845489525
 40
0.0009484845489525
 40
0.0009484845489525
 10
32.99956040496368
 20
27.00000098503775
 30
0.0
 10
32.99956427154476
 20
27.00275539288885
 30
0.0
 10
32.99956807790147
 20
27.00547480199017
 30
0.0
 10
32.99957175544648
 20
27.00814870137343
 30
0.0
  0
SPLINE
  5
A6C4
330
A6BC
100
AcDbEntity
  8
0
100
AcDbSpline
210
0.0
220
0.0
230
1.0
 70
     8
 71
     3
 72
    14
 73
    10
 74
     0
 42
0.000000001
 43
0.0000000001
 40
0.0
 40
0.0
 40
0.0
 40
0.0
 40
0.0050538733341996
 40
0.0050538733341996
 40
0.0076267643287504
 40
0.0076267643287504
 40
0.0099758051781389
 40
0.0099758051781389
 40
0.0117460250881066
 40
0.0117460250881066
 40
0.0117460250881066
 40
0.0117460250881066
 10
32.99970086423127
 20
26.99999537288795
 30
0.0
 10
32.99943696361675
 20
27.01668067542203
 30
0.0
 10
32.99916129986229
 20
27.03394686651237
 30
0.0
 10
32.998761929612
 20
27.0589609032105
 30
0.0
 10
32.99862825754531
 20
27.06733867630352
 30
0.0
 10
32.99840269992748
 20
27.08149000761177
 30
0.0
 10
32.99830585206692
 20
27.08757028739733
 30
0.0
 10
32.99816732097253
 20
27.09624054968634
 30
0.0
 10
32.9981164030288
 20
27.09941639113712
 30
0.0
 10
32.99807359159005
 20
27.10207293130768
 30
0.0
  0
SPLINE
  5
A6C5
330
A6BC
100
AcDbEntity
  8
0
100
AcDbSpline
210
0.0
220
0.0
230
1.0
 70
     8
 71
     3
 72
    34
 73
    30
 74
     0
 42
0.000000001
 43
0.0000000001
 40
0.0019537729394079
 40
0.0019537729394079
 40
0.0019537729394079
 40
0.0019537729394079
 40
0.0074296222348363
 40
0.0074296222348363
 40
0.0161449102195258
 40
0.0161449102195258
 40
0.021582802181797
 40
0.021582802181797
 40
0.0244030605171278
 40
0.0244030605171278
 40
0.0264866770827219
 40
0.0264866770827219
 40
0.0292232846266702
 40
0.0292232846266702
 40
0.0316490157200368
 40
0.0316490157200368
 40
0.0348381455247786
 40
0.0348381455247786
 40
0.039936851141422
 40
0.039936851141422
 40
0.0496527598467354
 40
0.0496527598467354
 40
0.0742177314911493
 40
0.0742177314911493
 40
0.1473914568744458
 40
0.1473914568744458
 40
0.2287592318187741
 40
0.2287592318187741
 40
0.2661613857006241
 40
0.2661613857006241
 40
0.2661613857006241
 40
0.2661613857006241
 10
32.99993432436143
 20
27.00380447724953
 30
0.0
 10
32.99985929629318
 20
27.00810752385511
 30
0.0
 10
32.99974846523366
 20
27.01435408031981
 30
0.0
 10
32.99939149886128
 20
27.03388637607206
 30
0.0
 10
32.99909597303333
 20
27.04957511800665
 30
0.0
 10
32.99852099968473
 20
27.07925635026964
 30
0.0
 10
32.99828147753189
 20
27.09145849800748
 30
0.0
 10
32.99788180323663
 20
27.11186455049795
 30
0.0
 10
32.99773464509875
 20
27.11938672718199
 30
0.0
 10
32.99745969364624
 20
27.13358149439628
 30
0.0
 10
32.997335382372
 20
27.14004259407686
 30
0.0
 10
32.99704179523399
 20
27.15551430631955
 30
0.0
 10
32.99686700033164
 20
27.16489294436511
 30
0.0
 10
32.9965566088873
 20
27.18203506547783
 30
0.0
 10
32.99641574855029
 20
27.19002494833657
 30
0.0
 10
32.99611278292662
 20
27.20773884112686
 30
0.0
 10
32.99595498642997
 20
27.21738285956142
 30
0.0
 10
32.99558160741523
 20
27.24124152579074
 30
0.0
 10
32.99538444589149
 20
27.25494412471406
 30
0.0
 10
32.99488006552298
 20
27.29284306642906
 30
0.0
 10
32.99462962319089
 20
27.31561683677779
 30
0.0
 10
32.99390954561947
 20
27.39339918082733
 30
0.0
 10
32.99367749123005
 20
27.44491803593074
 30
0.0
 10
32.99335846713978
 20
27.65942000113226
 30
0.0
 10
32.99487001964823
 20
27.84900316528118
 30
0.0
 10
32.99832344337706
 20
28.28448346358094
 30
0.0
 10
32.9995861540633
 20
28.54089669009496
 30
0.0
 10
32.99998702916786
 20
28.92753100424076
 30
0.0
 10
32.99998283405024
 20
29.05162147602161
 30
0.0
 10
32.99998937019953
 20
29.17586295998978
 30
0.0
  0
SPLINE
  5
A6C6
330
A6BC
100
AcDbEntity
  8
0
100
AcDbSpline
210
0.0
220
0.0
230
1.0
 70
     8
 71
     3
 72
    12
 73
     8
 74
     0
 42
0.000000001
 43
0.0000000001
 40
0.0
 40
0.0
 40
0.0
 40
0.0
 40
0.0030437044523516
 40
0.0030437044523516
 40
0.0059481043006034
 40
0.0059481043006034
 40
0.0077014659538018
 40
0.0077014659538018
 40
0.0077014659538018
 40
0.0077014659538018
 10
32.99994095223341
 20
26.99999986689705
 30
0.0
 10
32.99992879821966
 20
27.00696126929938
 30
0.0
 10
32.99991751864352
 20
27.01274900556014
 30
0.0
 10
32.99989988571193
 20
27.02086801374787
 30
0.0
 10
32.99989321746667
 20
27.02345476067137
 30
0.0
 10
32.99988738789486
 20
27.02558168335348
 30
0.0
 10
32.99988625762885
 20
27.02594367655983
 30
0.0
 10
32.9998862576289
 20
27.02594367654247
 30
0.0
  0
SPLINE
  5
A6C7
330
A6BC
100
AcDbEntity
  8
0
100
AcDbSpline
210
0.0
220
0.0
230
1.0
 70
     8
 71
     3
 72
     8
 73
     4
 74
     0
 42
0.000000001
 43
0.0000000001
 40
0.0
 40
0.0
 40
0.0
 40
0.0
 40
0.0004175971776946
 40
0.0004175971776946
 40
0.0004175971776946
 40
0.0004175971776946
 10
37.60608753399277
 20
29.56246533477604
 30
0.0
 10
37.60571552414542
 20
29.56217722155107
 30
0.0
 10
37.60533670069706
 20
29.5618838873527
 30
0.0
 10
37.60495522067471
 20
29.56158845908954
 30
0.0
  0
SPLINE
  5
A6C8
330
A6BC
100
AcDbEntity
  8
0
100
AcDbSpline
210
0.0
220
0.0
230
1.0
 70
     8
 71
     3
 72
     8
 73
     4
 74
     0
 42
0.000000001
 43
0.0000000001
 40
0.0
 40
0.0
 40
0.0
 40
0.0
 40
0.0006732100689555
 40
0.0006732100689555
 40
0.0006732100689555
 40
0.0006732100689555
 10
37.60610301841192
 20
29.56244730639215
 30
0.0
 10
37.60468696110282
 20
29.56130722332227
 30
0.0
 10
37.60321000535123
 20
29.56011946138421
 30
0.0
 10
37.60168732652461
 20
29.55889643449868
 30
0.0
  0
LINE
  5
A6C9
330
A6BC
100
AcDbEntity
  8
0
100
AcDbLine
 10
31.0
 20
-2.0
 30
0.0
 11
-30.99999999999998
 21
-2.000000000000003
 31
0.0
  0
LINE
  5
A6CA
330
A6BC
100
AcDbEntity
  8
0
100
AcDbLine
 10
-30.99999999999998
 20
0.0
 30
0.0
 11
31.0
 21
0.0
 31
0.0
  0
LINE
  5
A6CB
330
A6BC
100
AcDbEntity
  8
0
100
AcDbLine
 10
-37.0
 20
29.56249999999998
 30
0.0
 11
-35.00000000000001
 21
29.56249999999998
 31
0.0
  0
SPLINE
  5
A6CC
330
A6BC
100
AcDbEntity
  8
0
100
AcDbSpline
210
0.0
220
0.0
230
1.0
 70
     8
 71
     3
 72
    14
 73
    10
 74
     0
 42
0.000000001
 43
0.0000000001
 40
0.0
 40
0.0
 40
0.0
 40
0.0
 40
0.3435149368906571
 40
0.3435149368906571
 40
0.3435149368906571
 40
0.7569946176686826
 40
0.7569946176686826
 40
0.7569946176686826
 40
0.99865249292571
 40
0.99865249292571
 40
0.99865249292571
 40
0.99865249292571
 10
-37.60606060606057
 20
29.56250000000001
 30
0.0
 10
-37.28490796719828
 20
29.30249636930687
 30
0.0
 10
-36.8724655581601
 20
29.07529402125368
 30
0.0
 10
-36.47647444982522
 20
28.84408179461001
 30
0.0
 10
-35.99983061434229
 20
28.56577786253083
 30
0.0
 10
-35.53729794768412
 20
28.27139780313327
 30
0.0
 10
-35.26242807118501
 20
27.85792704012759
 30
0.0
 10
-35.10178058736681
 20
27.61627437685561
 30
0.0
 10
-35.0011165265656
 20
27.36107368940054
 30
0.0
 10
-35.0000092293052
 20
27.00594994759895
 30
0.0
  0
SPLINE
  5
A6CD
330
A6BC
100
AcDbEntity
  8
0
100
AcDbSpline
210
0.0
220
0.0
230
1.0
 70
     8
 71
     3
 72
    30
 73
    26
 74
     0
 42
0.000000001
 43
0.0000000001
 40
0.0
 40
0.0
 40
0.0
 40
0.0
 40
0.0655513996446587
 40
0.0655513996446587
 40
0.1471085466502305
 40
0.1471085466502305
 40
0.1864914971208565
 40
0.1864914971208565
 40
0.2244274068848865
 40
0.2244274068848865
 40
0.2338970336957018
 40
0.2338970336957018
 40
0.236043779373736
 40
0.236043779373736
 40
0.2376777580708909
 40
0.2376777580708909
 40
0.239314362599762
 40
0.239314362599762
 40
0.2426382975266506
 40
0.2426382975266506
 40
0.2492479863412824
 40
0.2492479863412824
 40
0.2568381484691736
 40
0.2568381484691736
 40
0.2642869831109835
 40
0.2642869831109835
 40
0.2642869831109835
 40
0.2642869831109835
 10
-32.99998937019952
 20
29.17586295999204
 30
0.0
 10
-32.99997791487704
 20
28.95811605713261
 30
0.0
 10
-32.99997499599626
 20
28.73955104593268
 30
0.0
 10
-32.99847087080085
 20
28.27766032237332
 30
0.0
 10
-32.9961838846242
 20
28.0363303695292
 30
0.0
 10
-32.99399786183875
 20
27.72034886694389
 30
0.0
 10
-32.993561548745
 20
27.62409925208159
 30
0.0
 10
-32.99357532430448
 20
27.45119823546394
 30
0.0
 10
-32.99385398028649
 20
27.37644396573528
 30
0.0
 10
-32.99531467369003
 20
27.25914929260341
 30
0.0
 10
-32.99567969005006
 20
27.23366875677788
 30
0.0
 10
-32.99628238045494
 20
27.19776126355786
 30
0.0
 10
-32.99640113199945
 20
27.19088000346555
 30
0.0
 10
-32.9966200360748
 20
27.17852172532148
 30
0.0
 10
-32.9967185787137
 20
27.17306129461303
 30
0.0
 10
-32.9969184780585
 20
27.1621614729761
 30
0.0
 10
-32.99702080499039
 20
27.15666953945235
 30
0.0
 10
-32.99732567162557
 20
27.14049906228466
 30
0.0
 10
-32.99752640851102
 20
27.13011016819414
 30
0.0
 10
-32.99806112950208
 20
27.10263412208084
 30
0.0
 10
-32.9983587225475
 20
27.08757029074107
 30
0.0
 10
-32.99895363796249
 20
27.05697282736618
 30
0.0
 10
-32.99922978989678
 20
27.04247719259829
 30
0.0
 10
-32.99966440475568
 20
27.01906536652521
 30
0.0
 10
-32.99983235953509
 20
27.00964964272164
 30
0.0
 10
-32.99993446556508
 20
27.00379360756036
 30
0.0
  0
SPLINE
  5
A6CE
330
A6BC
100
AcDbEntity
  8
0
100
AcDbSpline
210
0.0
220
0.0
230
1.0
 70
     8
 71
     3
 72
     8
 73
     4
 74
     0
 42
0.000000001
 43
0.0000000001
 40
0.0207867187872089
 40
0.0207867187872089
 40
0.0207867187872089
 40
0.0207867187872089
 40
0.0217360470000185
 40
0.0217360470000185
 40
0.0217360470000185
 40
0.0217360470000185
 10
-32.99957173053932
 20
27.00814873952744
 30
0.0
 10
-32.99956805572005
 20
27.00547682200087
 30
0.0
 10
-32.99956427498402
 20
27.00275784289644
 30
0.0
 10
-32.99956040496367
 20
27.00000098503775
 30
0.0
  0
SPLINE
  5
A6CF
330
A6BC
100
AcDbEntity
  8
0
100
AcDbSpline
210
0.0
220
0.0
230
1.0
 70
     8
 71
     3
 72
    18
 73
    14
 74
     0
 42
0.000000001
 43
0.0000000001
 40
0.0359684599418892
 40
0.0359684599418892
 40
0.0359684599418892
 40
0.0359684599418892
 40
0.0373929838871531
 40
0.0373929838871531
 40
0.0388269935381907
 40
0.0388269935381907
 40
0.0410736039094291
 40
0.0410736039094291
 40
0.0431426664303808
 40
0.0431426664303808
 40
0.0457467521982286
 40
0.0457467521982286
 40
0.0477385609574024
 40
0.0477385609574024
 40
0.0477385609574024
 40
0.0477385609574024
 10
-32.99807360885008
 20
27.10207149758586
 30
0.0
 10
-32.99810813523884
 20
27.09992906226068
 30
0.0
 10
-32.99814774201754
 20
27.09746141457206
 30
0.0
 10
-32.99823833679202
 20
27.09179802778296
 30
0.0
 10
-32.99828987694816
 20
27.08856810403599
 30
0.0
 10
-32.99843588963556
 20
27.07940951622568
 30
0.0
 10
-32.99854061020464
 20
27.07283557727264
 30
0.0
 10
-32.99875345112165
 20
27.05949166759638
 30
0.0
 10
-32.99886231648999
 20
27.05267342199522
 30
0.0
 10
-32.99910891240082
 20
27.0372280339225
 30
0.0
 10
-32.9992487456588
 20
27.02846691039408
 30
0.0
 10
-32.99949199068871
 20
27.01317843570359
 30
0.0
 10
-32.99959685696381
 20
27.00657130574958
 30
0.0
 10
-32.99970086423127
 20
26.99999537288797
 30
0.0
  0
SPLINE
  5
A6D0
330
A6BC
100
AcDbEntity
  8
0
100
AcDbSpline
210
0.0
220
0.0
230
1.0
 70
     8
 71
     3
 72
    12
 73
     8
 74
     0
 42
0.000000001
 43
0.0000000001
 40
0.0138055020541839
 40
0.0138055020541839
 40
0.0138055020541839
 40
0.0138055020541839
 40
0.0169840863849614
 40
0.0169840863849614
 40
0.0189304892496476
 40
0.0189304892496476
 40
0.0215081521989112
 40
0.0215081521989112
 40
0.0215081521989112
 40
0.0215081521989112
 10
-32.99988625762889
 20
27.02594367654557
 30
0.0
 10
-32.99988625767141
 20
27.02594366284685
 30
0.0
 10
-32.99989009444497
 20
27.02472369033382
 30
0.0
 10
-32.99990126112962
 20
27.02016532112323
 30
0.0
 10
-32.99990666454807
 20
27.01781780992748
 30
0.0
 10
-32.99992101922136
 20
27.01095229544431
 30
0.0
 10
-32.99993065920023
 20
27.00589536343072
 30
0.0
 10
-32.99994095223342
 20
26.99999986689706
 30
0.0
  0
SPLINE
  5
A6D1
330
A6BC
100
AcDbEntity
  8
0
100
AcDbSpline
210
0.0
220
0.0
230
1.0
 70
     8
 71
     3
 72
    16
 73
    12
 74
     0
 42
0.000000001
 43
0.0000000001
 40
0.0
 40
0.0
 40
0.0
 40
0.0
 40
0.0041150227551534
 40
0.0041150227551534
 40
0.0050669582627385
 40
0.0050669582627385
 40
0.0058959088561408
 40
0.0058959088561408
 40
0.0067236015545924
 40
0.0067236015545924
 40
0.0081601753216855
 40
0.0081601753216855
 40
0.0081601753216855
 40
0.0081601753216855
 10
-35.0000743155051
 20
26.99999977750853
 30
0.0
 10
-35.00005235890729
 20
27.01348373922862
 30
0.0
 10
-35.00007089300639
 20
27.02743771851539
 30
0.0
 10
-35.00015519510116
 20
27.04264458797498
 30
0.0
 10
-35.00017334750757
 20
27.04537458581605
 30
0.0
 10
-35.00020680566849
 20
27.04980935780815
 30
0.0
 10
-35.00022232179114
 20
27.05163032959426
 30
0.0
 10
-35.00024914879949
 20
27.0545771090591
 30
0.0
 10
-35.00026067014918
 20
27.05573340665028
 30
0.0
 10
-35.00028457169729
 20
27.05805401752788
 30
0.0
 10
-35.00029164702524
 20
27.05864902333573
 30
0.0
 10
-35.00029164702514
 20
27.05864902332768
 30
0.0
  0
SPLINE
  5
A6D2
330
A6BC
100
AcDbEntity
  8
0
100
AcDbSpline
210
0.0
220
0.0
230
1.0
 70
     8
 71
     3
 72
    18
 73
    14
 74
     0
 42
0.000000001
 43
0.0000000001
 40
0.0
 40
0.0
 40
0.0
 40
0.0
 40
0.0020458141437155
 40
0.0020458141437155
 40
0.0037105547956048
 40
0.0037105547956048
 40
0.0047888309068681
 40
0.0047888309068681
 40
0.0054060083643213
 40
0.0054060083643213
 40
0.0056715060705214
 40
0.0056715060705214
 40
0.005765999586285
 40
0.005765999586285
 40
0.005765999586285
 40
0.005765999586285
 10
-35.00000948540659
 20
26.99999862394988
 30
0.0
 10
-35.00000131159403
 20
27.00668989564813
 30
0.0
 10
-35.00000211603855
 20
27.01335035431711
 30
0.0
 10
-35.00001995706632
 20
27.02478355810704
 30
0.0
 10
-35.00003405106261
 20
27.02972481879101
 30
0.0
 10
-35.00006334373669
 20
27.03706893674369
 30
0.0
 10
-35.00007727448906
 20
27.03991959308987
 30
0.0
 10
-35.00009604364383
 20
27.04334286085005
 30
0.0
 10
-35.00010217991373
 20
27.04437255802565
 30
0.0
 10
-35.00010716101817
 20
27.04519220007878
 30
0.0
 10
-35.00010818422205
 20
27.04535742724762
 30
0.0
 10
-35.00010876160537
 20
27.04545062624982
 30
0.0
 10
-35.00010883935306
 20
27.04546313689512
 30
0.0
 10
-35.00010883933638
 20
27.04546313420839
 30
0.0
  0
SPLINE
  5
A6D3
330
A6BC
100
AcDbEntity
  8
0
100
AcDbSpline
210
0.0
220
0.0
230
1.0
 70
     8
 71
     3
 72
     8
 73
     4
 74
     0
 42
0.000000001
 43
0.0000000001
 40
0.0
 40
0.0
 40
0.0
 40
0.0
 40
0.0007553752423843
 40
0.0007553752423843
 40
0.0007553752423843
 40
0.0007553752423843
 10
-35.00001229124123
 20
27.00000002202358
 30
0.0
 10
-35.00000829358318
 20
27.00152214598011
 30
0.0
 10
-35.00000415901097
 20
27.0031570883088
 30
0.0
 10
-34.99999997669874
 20
27.00485867901797
 30
0.0
  0
SPLINE
  5
A6D4
330
A6BC
100
AcDbEntity
  8
0
100
AcDbSpline
210
0.0
220
0.0
230
1.0
 70
     8
 71
     3
 72
     8
 73
     4
 74
     0
 42
0.000000001
 43
0.0000000001
 40
0.2816852255586724
 40
0.2816852255586724
 40
0.2816852255586724
 40
0.2816852255586724
 40
0.2823584862366351
 40
0.2823584862366351
 40
0.2823584862366351
 40
0.2823584862366351
 10
-37.60168789896858
 20
29.5588969571345
 30
0.0
 10
-37.60321084262681
 20
29.56012019673475
 30
0.0
 10
-37.60468685464977
 20
29.56130713761576
 30
0.0
 10
-37.60610301841192
 20
29.56244730639215
 30
0.0
  0
SPLINE
  5
A6D5
330
A6BC
100
AcDbEntity
  8
0
100
AcDbSpline
210
0.0
220
0.0
230
1.0
 70
     8
 71
     3
 72
     8
 73
     4
 74
     0
 42
0.000000001
 43
0.0000000001
 40
0.0184886249245812
 40
0.0184886249245812
 40
0.0184886249245812
 40
0.0184886249245812
 40
0.0189064975925793
 40
0.0189064975925793
 40
0.0189064975925793
 40
0.0189064975925793
 10
-37.60495654408172
 20
29.56158945167505
 30
0.0
 10
-37.60533778645301
 20
29.5618846958949
 30
0.0
 10
-37.60571527872924
 20
29.56217703148178
 30
0.0
 10
-37.60608753399277
 20
29.56246533477605
 30
0.0
  0
ARC
  5
A6D6
330
A6BC
100
AcDbEntity
  8
0
100
AcDbCircle
 10
-30.99999999999998
 20
2.0
 30
0.0
 40
4.000000000000003
100
AcDbArc
 50
180.0
 51
270.0
  0
ARC
  5
A6D7
330
A6BC
100
AcDbEntity
  8
0
100
AcDbCircle
 10
-30.99999999999998
 20
2.0
 30
0.0
 40
2.000000000000001
100
AcDbArc
 50
180.0
 51
270.0
  0
ARC
  5
A6D8
330
A6BC
100
AcDbEntity
  8
0
100
AcDbCircle
 10
30.99999999999998
 20
2.0
 30
0.0
 40
4.000000000000003
100
AcDbArc
 50
270.0
 51
0.0
  0
LINE
  5
A6D9
330
A6BC
100
AcDbEntity
  8
0
100
AcDbLine
 10
37.60606060606059
 20
29.56249999999998
 30
0.0
 11
74.50000000000004
 21
59.99999999999996
 31
0.0
  0
LINE
  5
A6DA
330
A6BC
100
AcDbEntity
  8
0
100
AcDbLine
 10
32.99999999999999
 20
26.99999999999999
 30
0.0
 11
32.99999999999999
 21
59.99999999999996
 31
0.0
  0
LINE
  5
A6DB
330
A6BC
100
AcDbEntity
  8
0
100
AcDbLine
 10
34.99999999999999
 20
26.99999999999999
 30
0.0
 11
32.99999999999999
 21
26.99999999999999
 31
0.0
  0
LINE
  5
A6DC
330
A6BC
100
AcDbEntity
  8
0
100
AcDbLine
 10
35.0
 20
59.99999999999996
 30
0.0
 11
34.99999999999999
 21
26.99999999999999
 31
0.0
  0
LINE
  5
A6DD
330
A6BC
100
AcDbEntity
  8
0
100
AcDbLine
 10
35.0
 20
59.99999999999996
 30
0.0
 11
32.99999999999999
 21
59.99999999999996
 31
0.0
  0
LINE
  5
A6DE
330
A6BC
100
AcDbEntity
  8
0
100
AcDbLine
 10
32.99999999999999
 20
59.99999999999996
 30
0.0
 11
32.99999999999999
 21
187.0
 31
0.0
  0
LINE
  5
A6DF
330
A6BC
100
AcDbEntity
  8
0
100
AcDbLine
 10
35.0
 20
187.0
 30
0.0
 11
35.0
 21
59.99999999999996
 31
0.0
  0
LINE
  5
A6E0
330
A6BC
100
AcDbEntity
  8
0
100
AcDbLine
 10
32.99999999999999
 20
187.0
 30
0.0
 11
35.0
 21
187.0
 31
0.0
  0
LINE
  5
A6E1
330
A6BC
100
AcDbEntity
  8
0
100
AcDbLine
 10
34.99999999999999
 20
26.99999999999999
 30
0.0
 11
34.99999999999999
 21
2.000000000000001
 31
0.0
  0
LINE
  5
A6E2
330
A6BC
100
AcDbEntity
  8
0
100
AcDbLine
 10
32.99999999999999
 20
2.0
 30
0.0
 11
32.99999999999999
 21
26.99999999999999
 31
0.0
  0
ARC
  5
A6E3
330
A6BC
100
AcDbEntity
  8
0
100
AcDbCircle
 10
30.99999999999998
 20
2.0
 30
0.0
 40
2.000000000000001
100
AcDbArc
 50
270.0
 51
0.0
  0
LINE
  5
A6E4
330
A6BC
100
AcDbEntity
  8
0
100
AcDbLine
 10
36.99999999999999
 20
187.0
 30
0.0
 11
35.00000000000001
 21
187.0
 31
0.0
  0
LINE
  5
A6E5
330
A6BC
100
AcDbEntity
  8
0
100
AcDbLine
 10
74.50000000000004
 20
59.99999999999996
 30
0.0
 11
74.50000000000001
 21
187.0
 31
0.0
  0
LINE
  5
A6E6
330
A6BC
100
AcDbEntity
  8
0
100
AcDbLine
 10
74.50000000000001
 20
187.0
 30
0.0
 11
36.99999999999999
 21
187.0
 31
0.0
  0
CIRCLE
  5
A6E7
330
A6BC
100
AcDbEntity
  8
0
100
AcDbCircle
 10
55.0
 20
167.0
 30
0.0
 40
6.5
  0
CIRCLE
  5
A6E8
330
A6BC
100
AcDbEntity
  8
0
100
AcDbCircle
 10
66.00000000000001
 20
182.0
 30
0.0
 40
2.5
  0
LINE
  5
A6E9
330
A6BC
100
AcDbEntity
  8
0
100
AcDbLine
 10
-74.50000000000004
 20
59.99999999999996
 30
0.0
 11
-37.60606060606059
 21
29.56249999999998
 31
0.0
  0
LINE
  5
A6EA
330
A6BC
100
AcDbEntity
  8
0
100
AcDbLine
 10
-32.99999999999999
 20
59.99999999999996
 30
0.0
 11
-32.99999999999999
 21
26.99999999999999
 31
0.0
  0
LINE
  5
A6EB
330
A6BC
100
AcDbEntity
  8
0
100
AcDbLine
 10
-35.0
 20
59.99999999999996
 30
0.0
 11
-32.99999999999999
 21
59.99999999999996
 31
0.0
  0
LINE
  5
A6EC
330
A6BC
100
AcDbEntity
  8
0
100
AcDbLine
 10
-34.99999999999999
 20
26.99999999999999
 30
0.0
 11
-35.0
 21
59.99999999999996
 31
0.0
  0
LINE
  5
A6ED
330
A6BC
100
AcDbEntity
  8
0
100
AcDbLine
 10
-32.99999999999999
 20
26.99999999999999
 30
0.0
 11
-34.99999999999999
 21
26.99999999999999
 31
0.0
  0
LINE
  5
A6EE
330
A6BC
100
AcDbEntity
  8
0
100
AcDbLine
 10
-32.99999999999999
 20
187.0
 30
0.0
 11
-32.99999999999999
 21
59.99999999999996
 31
0.0
  0
LINE
  5
A6EF
330
A6BC
100
AcDbEntity
  8
0
100
AcDbLine
 10
-35.0
 20
187.0
 30
0.0
 11
-32.99999999999999
 21
187.0
 31
0.0
  0
LINE
  5
A6F0
330
A6BC
100
AcDbEntity
  8
0
100
AcDbLine
 10
-35.0
 20
59.99999999999996
 30
0.0
 11
-35.0
 21
187.0
 31
0.0
  0
CIRCLE
  5
A6F1
330
A6BC
100
AcDbEntity
  8
0
100
AcDbCircle
 10
-55.0
 20
67.0
 30
0.0
 40
6.5
  0
CIRCLE
  5
A6F2
330
A6BC
100
AcDbEntity
  8
0
100
AcDbCircle
 10
55.0
 20
67.0
 30
0.0
 40
6.5
  0
CIRCLE
  5
A6F3
330
A6BC
100
AcDbEntity
  8
0
100
AcDbCircle
 10
-55.0
 20
167.0
 30
0.0
 40
6.5
  0
CIRCLE
  5
A6F4
330
A6BC
100
AcDbEntity
  8
0
100
AcDbCircle
 10
-44.0
 20
51.99999999999999
 30
0.0
 40
2.5
  0
CIRCLE
  5
A6F5
330
A6BC
100
AcDbEntity
  8
0
100
AcDbCircle
 10
-44.0
 20
72.0
 30
0.0
 40
2.5
  0
CIRCLE
  5
A6F6
330
A6BC
100
AcDbEntity
  8
0
100
AcDbCircle
 10
-44.0
 20
92.0
 30
0.0
 40
2.5
  0
CIRCLE
  5
A6F7
330
A6BC
100
AcDbEntity
  8
0
100
AcDbCircle
 10
-44.0
 20
112.0
 30
0.0
 40
2.5
  0
CIRCLE
  5
A6F8
330
A6BC
100
AcDbEntity
  8
0
100
AcDbCircle
 10
-44.0
 20
132.0
 30
0.0
 40
2.5
  0
CIRCLE
  5
A6F9
330
A6BC
100
AcDbEntity
  8
0
100
AcDbCircle
 10
-44.0
 20
152.0
 30
0.0
 40
2.5
  0
CIRCLE
  5
A6FA
330
A6BC
100
AcDbEntity
  8
0
100
AcDbCircle
 10
44.0
 20
51.99999999999999
 30
0.0
 40
2.5
  0
CIRCLE
  5
A6FB
330
A6BC
100
AcDbEntity
  8
0
100
AcDbCircle
 10
44.0
 20
72.0
 30
0.0
 40
2.5
  0
CIRCLE
  5
A6FC
330
A6BC
100
AcDbEntity
  8
0
100
AcDbCircle
 10
44.0
 20
92.0
 30
0.0
 40
2.5
  0
CIRCLE
  5
A6FD
330
A6BC
100
AcDbEntity
  8
0
100
AcDbCircle
 10
44.0
 20
112.0
 30
0.0
 40
2.5
  0
CIRCLE
  5
A6FE
330
A6BC
100
AcDbEntity
  8
0
100
AcDbCircle
 10
44.0
 20
132.0
 30
0.0
 40
2.5
  0
CIRCLE
  5
A6FF
330
A6BC
100
AcDbEntity
  8
0
100
AcDbCircle
 10
44.0
 20
152.0
 30
0.0
 40
2.5
  0
CIRCLE
  5
A700
330
A6BC
100
AcDbEntity
  8
0
100
AcDbCircle
 10
-44.0
 20
172.0
 30
0.0
 40
2.5
  0
CIRCLE
  5
A701
330
A6BC
100
AcDbEntity
  8
0
100
AcDbCircle
 10
44.0
 20
172.0
 30
0.0
 40
2.5
  0
CIRCLE
  5
A702
330
A6BC
100
AcDbEntity
  8
0
100
AcDbCircle
 10
-66.00000000000001
 20
62.00000000000001
 30
0.0
 40
2.5
  0
CIRCLE
  5
A703
330
A6BC
100
AcDbEntity
  8
0
100
AcDbCircle
 10
-66.00000000000001
 20
82.00000000000001
 30
0.0
 40
2.5
  0
CIRCLE
  5
A704
330
A6BC
100
AcDbEntity
  8
0
100
AcDbCircle
 10
-66.00000000000001
 20
102.0
 30
0.0
 40
2.5
  0
CIRCLE
  5
A705
330
A6BC
100
AcDbEntity
  8
0
100
AcDbCircle
 10
-66.00000000000001
 20
122.0
 30
0.0
 40
2.5
  0
CIRCLE
  5
A706
330
A6BC
100
AcDbEntity
  8
0
100
AcDbCircle
 10
-66.00000000000001
 20
142.0
 30
0.0
 40
2.5
  0
CIRCLE
  5
A707
330
A6BC
100
AcDbEntity
  8
0
100
AcDbCircle
 10
-66.00000000000001
 20
162.0
 30
0.0
 40
2.5
  0
CIRCLE
  5
A708
330
A6BC
100
AcDbEntity
  8
0
100
AcDbCircle
 10
66.00000000000001
 20
62.00000000000001
 30
0.0
 40
2.5
  0
CIRCLE
  5
A709
330
A6BC
100
AcDbEntity
  8
0
100
AcDbCircle
 10
66.00000000000001
 20
82.00000000000001
 30
0.0
 40
2.5
  0
CIRCLE
  5
A70A
330
A6BC
100
AcDbEntity
  8
0
100
AcDbCircle
 10
66.00000000000001
 20
102.0
 30
0.0
 40
2.5
  0
CIRCLE
  5
A70B
330
A6BC
100
AcDbEntity
  8
0
100
AcDbCircle
 10
66.00000000000001
 20
122.0
 30
0.0
 40
2.5
  0
CIRCLE
  5
A70C
330
A6BC
100
AcDbEntity
  8
0
100
AcDbCircle
 10
66.00000000000001
 20
142.0
 30
0.0
 40
2.5
  0
CIRCLE
  5
A70D
330
A6BC
100
AcDbEntity
  8
0
100
AcDbCircle
 10
66.00000000000001
 20
162.0
 30
0.0
 40
2.5
  0
CIRCLE
  5
A70E
330
A6BC
100
AcDbEntity
  8
0
100
AcDbCircle
 10
-66.00000000000001
 20
182.0
 30
0.0
 40
2.5
  0
LINE
  5
A70F
330
A6BC
100
AcDbEntity
  8
0
100
AcDbLine
 10
-74.50000000000001
 20
187.0
 30
0.0
 11
-36.99999999999999
 21
187.0
 31
0.0
  0
LINE
  5
A710
330
A6BC
100
AcDbEntity
  8
0
100
AcDbLine
 10
-74.50000000000004
 20
59.99999999999996
 30
0.0
 11
-74.50000000000001
 21
187.0
 31
0.0
  0
LINE
  5
A711
330
A6BC
100
AcDbEntity
  8
0
100
AcDbLine
 10
-32.99999999999999
 20
2.0
 30
0.0
 11
-32.99999999999999
 21
26.99999999999999
 31
0.0
  0
LINE
  5
A712
330
A6BC
100
AcDbEntity
  8
0
100
AcDbLine
 10
-34.99999999999999
 20
26.99999999999999
 30
0.0
 11
-34.99999999999999
 21
2.000000000000001
 31
0.0
  0
LINE
  5
A713
330
A6BC
100
AcDbEntity
  8
0
100
AcDbLine
 10
-36.99999999999999
 20
187.0
 30
0.0
 11
-35.00000000000001
 21
187.0
 31
0.0
  0
ENDBLK
  5
A6BE
330
A6BC
100
AcDbEntity
  8
0
100
AcDbBlockEnd
  0
BLOCK
  5
A715
330
A714
100
AcDbEntity
  8
0
100
AcDbBlockBegin
  2
SAE440_66_2-Left
 70
     0
 10
0.0
 20
0.0
 30
0.0
  3
SAE440_66_2-Left
  1

  0
LINE
  5
A717
330
A714
100
AcDbEntity
  8
0
100
AcDbLine
 10
2.000000000000007
 20
-2.0
 30
0.0
 11
86.00000000000001
 21
-2.000000000000003
 31
0.0
  0
LINE
  5
A718
330
A714
100
AcDbEntity
  8
0
100
AcDbLine
 10
2.000000000000014
 20
2.000000000000004
 30
0.0
 11
2.000000000000007
 21
-1.999999999999999
 31
0.0
  0
LINE
  5
A719
330
A714
100
AcDbEntity
  8
0
100
AcDbLine
 10
86.00000000000001
 20
-2.000000000000003
 30
0.0
 11
86.00000000000001
 21
2.0
 31
0.0
  0
SPLINE
  5
A71A
330
A714
100
AcDbEntity
  8
0
100
AcDbSpline
210
0.0
220
0.0
230
1.0
 70
     8
 71
     3
 72
    14
 73
    10
 74
     0
 42
0.000000001
 43
0.0000000001
 40
-0.481302653307097
 40
-0.481302653307097
 40
-0.481302653307097
 40
-0.481302653307097
 40
-0.3760960080993489
 40
-0.3760960080993489
 40
-0.3760960080993489
 40
-0.0765284972645861
 40
-0.0765284972645861
 40
-0.0765284972645861
 40
0.0
 40
0.0
 40
0.0
 40
0.0
 10
0.9454120927738209
 20
28.73176011521471
 30
0.0
 10
0.8408297880164177
 20
28.7686761860764
 30
0.0
 10
0.7371129357650058
 20
28.80054090482897
 30
0.0
 10
0.6388614064391018
 20
28.8342366632116
 30
0.0
 10
0.3590980320082422
 20
28.93018264119088
 30
0.0
 10
0.1217220476521605
 20
29.04001612967946
 30
0.0
 10
0.0342615816117273
 20
29.31443386956709
 30
0.0
 10
0.0119186445639691
 20
29.38453752399151
 30
0.0
 10
0.0000045452574075
 20
29.46769665104773
 30
0.0
 10
0.0000000001152111
 20
29.56250000004004
 30
0.0
  0
SPLINE
  5
A71B
330
A714
100
AcDbEntity
  8
0
100
AcDbSpline
210
0.0
220
0.0
230
1.0
 70
     8
 71
     3
 72
    14
 73
    10
 74
     0
 42
0.000000001
 43
0.0000000001
 40
0.0
 40
0.0
 40
0.0
 40
0.0
 40
0.3435149368906571
 40
0.3435149368906571
 40
0.3435149368906571
 40
0.7569946176686826
 40
0.7569946176686826
 40
0.7569946176686826
 40
1.0
 40
1.0
 40
1.0
 40
1.0
 10
2.000000000000006
 20
29.56250000000001
 30
0.0
 10
2.000036879631392
 20
29.30249636930687
 30
0.0
 10
1.996834167075167
 20
29.07529402125368
 30
0.0
 10
1.998676128322029
 20
28.84408179461001
 30
0.0
 10
2.000893247482121
 20
28.56577786253083
 30
0.0
 10
2.001072402908385
 20
28.27139780313327
 30
0.0
 10
2.001124325805118
 20
27.85792704012759
 30
0.0
 10
2.001154841315212
 20
27.61492689884385
 30
0.0
 10
2.000250547667868
 20
27.35822722201275
 30
0.0
 10
1.999999999992545
 20
27.00000000165236
 30
0.0
  0
LINE
  5
A71C
330
A714
100
AcDbEntity
  8
0
100
AcDbLine
 10
0.0
 20
29.56249999999998
 30
0.0
 11
2.000000000000007
 21
29.56249999999998
 31
0.0
  0
SPLINE
  5
A71D
330
A714
100
AcDbEntity
  8
0
100
AcDbSpline
210
0.0
220
0.0
230
1.0
 70
     8
 71
     3
 72
    18
 73
    14
 74
     0
 42
0.000000001
 43
0.0000000001
 40
0.0
 40
0.0
 40
0.0
 40
0.0
 40
0.0045852970571938
 40
0.0045852970571938
 40
0.0065400842506485
 40
0.0065400842506485
 40
0.0081563837459572
 40
0.0081563837459572
 40
0.0096016091878577
 40
0.0096016091878577
 40
0.0108226894110422
 40
0.0108226894110422
 40
0.0118646463038091
 40
0.0118646463038091
 40
0.0118646463038091
 40
0.0118646463038091
 10
1.999557272916885
 20
26.99999849441625
 30
0.0
 10
1.999513512481349
 20
27.01475837639836
 30
0.0
 10
1.999424163707956
 20
27.02919075199371
 30
0.0
 10
1.999253402761503
 20
27.04675570000253
 30
0.0
 10
1.999196850516422
 20
27.05166987405409
 30
0.0
 10
1.999091149929696
 20
27.05972733082191
 30
0.0
 10
1.999042050576972
 20
27.06305924745818
 30
0.0
 10
1.998954621983279
 20
27.06851913180705
 30
0.0
 10
1.998915397065366
 20
27.07075700162196
 30
0.0
 10
1.998855183923009
 20
27.07401363506046
 30
0.0
 10
1.998832157108776
 20
27.07517781409936
 30
0.0
 10
1.998803973822265
 20
27.07656460255166
 30
0.0
 10
1.998796572755341
 20
27.07690723965467
 30
0.0
 10
1.998796572807131
 20
27.07690723725214
 30
0.0
  0
SPLINE
  5
A71E
330
A714
100
AcDbEntity
  8
0
100
AcDbSpline
210
0.0
220
0.0
230
1.0
 70
     8
 71
     3
 72
    10
 73
     6
 74
     0
 42
0.000000001
 43
0.0000000001
 40
0.0052676618470167
 40
0.0052676618470167
 40
0.0052676618470167
 40
0.0052676618470167
 40
0.0058868978018366
 40
0.0058868978018366
 40
0.0081855527204478
 40
0.0081855527204478
 40
0.0081855527204478
 40
0.0081855527204478
 10
1.99941422806633
 20
27.02852502901071
 30
0.0
 10
1.999398483572541
 20
27.02921804075899
 30
0.0
 10
1.999384018194713
 20
27.02984412926254
 30
0.0
 10
1.999322897808202
 20
27.03245947192883
 30
0.0
 10
1.999295499695772
 20
27.03354692649917
 30
0.0
 10
1.999295499750053
 20
27.03354692431646
 30
0.0
  0
SPLINE
  5
A71F
330
A714
100
AcDbEntity
  8
0
100
AcDbSpline
210
0.0
220
0.0
230
1.0
 70
     8
 71
     3
 72
    32
 73
    28
 74
     0
 42
0.000000001
 43
0.0000000001
 40
0.0045473817554764
 40
0.0045473817554764
 40
0.0045473817554764
 40
0.0045473817554764
 40
0.0052697394261442
 40
0.0052697394261442
 40
0.0092354521134773
 40
0.0092354521134773
 40
0.0117315605947652
 40
0.0117315605947652
 40
0.0138523606446108
 40
0.0138523606446108
 40
0.0172611517941646
 40
0.0172611517941646
 40
0.0261321720425245
 40
0.0261321720425245
 40
0.0527623628811182
 40
0.0527623628811182
 40
0.088948284248539
 40
0.088948284248539
 40
0.1145384726745615
 40
0.1145384726745615
 40
0.1518181078124877
 40
0.1518181078124877
 40
0.1853167196189687
 40
0.1853167196189687
 40
0.2269370648975231
 40
0.2269370648975231
 40
0.2446335212367348
 40
0.2446335212367348
 40
0.2446335212367348
 40
0.2446335212367348
 10
1.999453047720137
 20
27.02279542165964
 30
0.0
 10
1.999422986253691
 20
27.02392487574343
 30
0.0
 10
1.999392437859945
 20
27.02505295126562
 30
0.0
 10
1.999189551841965
 20
27.03241745820911
 30
0.0
 10
1.999004120063447
 20
27.03875904524246
 30
0.0
 10
1.998515703055421
 20
27.0533512880188
 30
0.0
 10
1.998269373636237
 20
27.0602919007404
 30
0.0
 10
1.997729630224936
 20
27.07412658017326
 30
0.0
 10
1.997447670587255
 20
27.08090569218826
 30
0.0
 10
1.996652403154783
 20
27.09873068212133
 30
0.0
 10
1.996098018358185
 20
27.10998894806624
 30
0.0
 10
1.993900550928393
 20
27.15050913348394
 30
0.0
 10
1.99192580924069
 20
27.17997136403587
 30
0.0
 10
1.982426632518066
 20
27.29742876499551
 30
0.0
 10
1.971735200213394
 20
27.38490573031218
 30
0.0
 10
1.936108382736999
 20
27.58974234925327
 30
0.0
 10
1.907051220697224
 20
27.70804920099378
 30
0.0
 10
1.838871184174068
 20
27.9022381550887
 30
0.0
 10
1.804834188937545
 20
27.98109086012616
 30
0.0
 10
1.708090538606608
 20
28.16249453367606
 30
0.0
 10
1.637669279058425
 20
28.26126687681494
 30
0.0
 10
1.493722582802086
 20
28.41704852789086
 30
0.0
 10
1.42022871893913
 20
28.47927423009625
 30
0.0
 10
1.254517310947747
 20
28.59488639178032
 30
0.0
 10
1.160200334084629
 20
28.6443861878543
 30
0.0
 10
1.024260897508265
 20
28.70235777427804
 30
0.0
 10
0.9834047208779939
 20
28.71807338395996
 30
0.0
 10
0.9420912521453816
 20
28.73259712963234
 30
0.0
  0
LINE
  5
A720
330
A714
100
AcDbEntity
  8
0
100
AcDbLine
 10
2.000000000000014
 20
2.000000000000003
 30
0.0
 11
2.000000000000014
 21
26.99999999999999
 31
0.0
  0
LINE
  5
A721
330
A714
100
AcDbEntity
  8
0
100
AcDbLine
 10
1.999999999999992
 20
59.99999999999996
 30
0.0
 11
2.000000000000007
 21
29.56249999999998
 31
0.0
  0
LINE
  5
A722
330
A714
100
AcDbEntity
  8
0
100
AcDbLine
 10
0.0
 20
59.99999999999996
 30
0.0
 11
1.999999999999992
 21
59.99999999999996
 31
0.0
  0
LINE
  5
A723
330
A714
100
AcDbEntity
  8
0
100
AcDbLine
 10
0.0
 20
29.56249999999998
 30
0.0
 11
0.0
 21
59.99999999999996
 31
0.0
  0
LINE
  5
A724
330
A714
100
AcDbEntity
  8
0
100
AcDbLine
 10
86.00000000000006
 20
26.99999999999999
 30
0.0
 11
46.00000000000004
 21
59.99999999999996
 31
0.0
  0
LINE
  5
A725
330
A714
100
AcDbEntity
  8
0
100
AcDbLine
 10
46.00000000000004
 20
59.99999999999996
 30
0.0
 11
46.00000000000001
 21
187.0
 31
0.0
  0
LINE
  5
A726
330
A714
100
AcDbEntity
  8
0
100
AcDbLine
 10
1.999999999999992
 20
59.99999999999996
 30
0.0
 11
2.000000000000001
 21
187.0
 31
0.0
  0
LINE
  5
A727
330
A714
100
AcDbEntity
  8
0
100
AcDbLine
 10
86.00000000000006
 20
26.99999999999999
 30
0.0
 11
86.00000000000001
 21
2.000000000000001
 31
0.0
  0
LINE
  5
A728
330
A714
100
AcDbEntity
  8
0
100
AcDbLine
 10
4.000000000000003
 20
187.0
 30
0.0
 11
46.00000000000001
 21
187.0
 31
0.0
  0
LINE
  5
A729
330
A714
100
AcDbEntity
  8
0
100
AcDbLine
 10
0.0
 20
187.0
 30
0.0
 11
2.000000000000001
 21
187.0
 31
0.0
  0
LINE
  5
A72A
330
A714
100
AcDbEntity
  8
0
100
AcDbLine
 10
0.0
 20
59.99999999999996
 30
0.0
 11
0.0
 21
187.0
 31
0.0
  0
LINE
  5
A72B
330
A714
100
AcDbEntity
  8
0
100
AcDbLine
 10
2.000000000000006
 20
187.0
 30
0.0
 11
4.000000000000003
 21
187.0
 31
0.0
  0
CIRCLE
  5
A72C
330
A714
100
AcDbEntity
  8
0
100
AcDbCircle
 10
38.50000000000001
 20
41.99999999999999
 30
0.0
 40
2.5
  0
CIRCLE
  5
A72D
330
A714
100
AcDbEntity
  8
0
100
AcDbCircle
 10
38.50000000000001
 20
61.99999999999999
 30
0.0
 40
2.5
  0
CIRCLE
  5
A72E
330
A714
100
AcDbEntity
  8
0
100
AcDbCircle
 10
38.50000000000001
 20
82.0
 30
0.0
 40
2.5
  0
CIRCLE
  5
A72F
330
A714
100
AcDbEntity
  8
0
100
AcDbCircle
 10
38.50000000000001
 20
102.0
 30
0.0
 40
2.5
  0
CIRCLE
  5
A730
330
A714
100
AcDbEntity
  8
0
100
AcDbCircle
 10
38.50000000000001
 20
122.0
 30
0.0
 40
2.5
  0
CIRCLE
  5
A731
330
A714
100
AcDbEntity
  8
0
100
AcDbCircle
 10
38.50000000000001
 20
142.0
 30
0.0
 40
2.5
  0
CIRCLE
  5
A732
330
A714
100
AcDbEntity
  8
0
100
AcDbCircle
 10
38.50000000000001
 20
162.0
 30
0.0
 40
2.5
  0
CIRCLE
  5
A733
330
A714
100
AcDbEntity
  8
0
100
AcDbCircle
 10
38.50000000000001
 20
182.0
 30
0.0
 40
2.5
  0
SPLINE
  5
A734
330
A714
100
AcDbEntity
  8
0
100
AcDbSpline
210
0.0
220
0.0
230
1.0
 70
     8
 71
     3
 72
     8
 73
     4
 74
     0
 42
0.000000001
 43
0.0000000001
 40
0.0
 40
0.0
 40
0.0
 40
0.0
 40
0.0024158828172123
 40
0.0024158828172123
 40
0.0024158828172123
 40
0.0024158828172123
 10
1.999557272916885
 20
26.99999849441625
 30
0.0
 10
1.999534216595131
 20
27.00777512149621
 30
0.0
 10
1.999499214241371
 20
27.01546438923271
 30
0.0
 10
1.999453047720132
 20
27.02279542165987
 30
0.0
  0
ENDBLK
  5
A716
330
A714
100
AcDbEntity
  8
0
100
AcDbBlockEnd
  0
BLOCK
  5
A736
330
A735
100
AcDbEntity
  8
0
100
AcDbBlockBegin
  2
SAE440_66_2-Right
 70
     0
 10
0.0
 20
0.0
 30
0.0
  3
SAE440_66_2-Right
  1

  0
SPLINE
  5
A738
330
A735
100
AcDbEntity
  8
0
100
AcDbSpline
210
0.0
220
0.0
230
1.0
 70
     8
 71
     3
 72
    14
 73
    10
 74
     0
 42
0.000000001
 43
0.0000000001
 40
0.0
 40
0.0
 40
0.0
 40
0.0
 40
0.3435149368906571
 40
0.3435149368906571
 40
0.3435149368906571
 40
0.7569946176686826
 40
0.7569946176686826
 40
0.7569946176686826
 40
1.0
 40
1.0
 40
1.0
 40
1.0
 10
-2.000000000000006
 20
29.56250000000001
 30
0.0
 10
-2.000036879631392
 20
29.30249636930687
 30
0.0
 10
-1.996834167075167
 20
29.07529402125368
 30
0.0
 10
-1.998676128322029
 20
28.84408179461001
 30
0.0
 10
-2.000893247482121
 20
28.56577786253083
 30
0.0
 10
-2.001072402908385
 20
28.27139780313327
 30
0.0
 10
-2.001124325805118
 20
27.85792704012759
 30
0.0
 10
-2.001154841315212
 20
27.61492689884385
 30
0.0
 10
-2.000250547667868
 20
27.35822722201275
 30
0.0
 10
-1.999999999992545
 20
27.00000000165236
 30
0.0
  0
SPLINE
  5
A739
330
A735
100
AcDbEntity
  8
0
100
AcDbSpline
210
0.0
220
0.0
230
1.0
 70
     8
 71
     3
 72
    14
 73
    10
 74
     0
 42
0.000000001
 43
0.0000000001
 40
-0.4813026533071292
 40
-0.4813026533071292
 40
-0.4813026533071292
 40
-0.4813026533071292
 40
-0.3760960080993489
 40
-0.3760960080993489
 40
-0.3760960080993489
 40
-0.0765284972645861
 40
-0.0765284972645861
 40
-0.0765284972645861
 40
0.0
 40
0.0
 40
0.0
 40
0.0
 10
-0.9454120927739172
 20
28.73176011521469
 30
0.0
 10
-0.8408297880164813
 20
28.76867618607639
 30
0.0
 10
-0.7371129357650359
 20
28.80054090482896
 30
0.0
 10
-0.6388614064391018
 20
28.8342366632116
 30
0.0
 10
-0.3590980320082422
 20
28.93018264119088
 30
0.0
 10
-0.1217220476521605
 20
29.04001612967946
 30
0.0
 10
-0.0342615816117273
 20
29.31443386956709
 30
0.0
 10
-0.0119186445639691
 20
29.38453752399151
 30
0.0
 10
-0.0000045452574075
 20
29.46769665104773
 30
0.0
 10
-0.0000000001152111
 20
29.56250000004004
 30
0.0
  0
LINE
  5
A73A
330
A735
100
AcDbEntity
  8
0
100
AcDbLine
 10
-2.000000000000007
 20
29.56249999999998
 30
0.0
 11
0.0
 21
29.56249999999998
 31
0.0
  0
SPLINE
  5
A73B
330
A735
100
AcDbEntity
  8
0
100
AcDbSpline
210
0.0
220
0.0
230
1.0
 70
     8
 71
     3
 72
    16
 73
    12
 74
     0
 42
0.000000001
 43
0.0000000001
 40
0.0119734590529748
 40
0.0119734590529748
 40
0.0119734590529748
 40
0.0119734590529748
 40
0.0132060105583619
 40
0.0132060105583619
 40
0.0147875485830337
 40
0.0147875485830337
 40
0.0179851231522793
 40
0.0179851231522793
 40
0.0208164923232706
 40
0.0208164923232706
 40
0.0238392903314172
 40
0.0238392903314172
 40
0.0238392903314172
 40
0.0238392903314172
 10
-1.998796572807076
 20
27.0769072372547
 30
0.0
 10
-1.998796572804482
 20
27.07690723737508
 30
0.0
 10
-1.998806859808709
 20
27.07643140311259
 30
0.0
 10
-1.99884722875102
 20
27.07441930805331
 30
0.0
 10
-1.99888225689833
 20
27.07260732538431
 30
0.0
 10
-1.999004373872091
 20
27.06565815136514
 30
0.0
 10
-1.999108337845513
 20
27.05891402494377
 30
0.0
 10
-1.99928196776845
 20
27.04429668600794
 30
0.0
 10
-1.999357294644855
 20
27.03644011299468
 30
0.0
 10
-1.999480931971292
 20
27.01925573230174
 30
0.0
 10
-1.999528424413565
 20
27.00972875644714
 30
0.0
 10
-1.999557272916884
 20
26.99999849441625
 30
0.0
  0
SPLINE
  5
A73C
330
A735
100
AcDbEntity
  8
0
100
AcDbSpline
210
0.0
220
0.0
230
1.0
 70
     8
 71
     3
 72
    10
 73
     6
 74
     0
 42
0.000000001
 43
0.0000000001
 40
0.0087021369184339
 40
0.0087021369184339
 40
0.0087021369184339
 40
0.0087021369184339
 40
0.0090037601842765
 40
0.0090037601842765
 40
0.0116230169535732
 40
0.0116230169535732
 40
0.0116230169535732
 40
0.0116230169535732
 10
-1.999295499750034
 20
27.03354692431724
 30
0.0
 10
-1.999295499750217
 20
27.03354692430987
 30
0.0
 10
-1.999295947093713
 20
27.03352894117019
 30
0.0
 10
-1.999304557967754
 20
27.03318120919425
 30
0.0
 10
-1.999347677322177
 20
27.0314543354827
 30
0.0
 10
-1.999414228066289
 20
27.02852502901255
 30
0.0
  0
SPLINE
  5
A73D
330
A735
100
AcDbEntity
  8
0
100
AcDbSpline
210
0.0
220
0.0
230
1.0
 70
     8
 71
     3
 72
    28
 73
    24
 74
     0
 42
0.000000001
 43
0.0000000001
 40
0.0
 40
0.0
 40
0.0
 40
0.0
 40
0.0650016965046367
 40
0.0650016965046367
 40
0.1023228294543454
 40
0.1023228294543454
 40
0.1414747326648275
 40
0.1414747326648275
 40
0.1748987385390916
 40
0.1748987385390916
 40
0.2169239990891806
 40
0.2169239990891806
 40
0.2285779847191783
 40
0.2285779847191783
 40
0.2316609564745013
 40
0.2316609564745013
 40
0.2332824405348706
 40
0.2332824405348706
 40
0.2349101251783561
 40
0.2349101251783561
 40
0.2381878335639489
 40
0.2381878335639489
 40
0.2398272656802479
 40
0.2398272656802479
 40
0.2398272656802479
 40
0.2398272656802479
 10
-0.9420912521454738
 20
28.73259712963231
 30
0.0
 10
-1.093841721540946
 20
28.67924926776599
 30
0.0
 10
-1.242353898741435
 20
28.60988799342037
 30
0.0
 10
-1.466451771009671
 20
28.44171617371662
 30
0.0
 10
-1.547407943197176
 20
28.36594146111274
 30
0.0
 10
-1.695446554651745
 20
28.18241413827068
 30
0.0
 10
-1.763061289541273
 20
28.07040741118279
 30
0.0
 10
-1.860492149626624
 20
27.85077461311872
 30
0.0
 10
-1.895809632770602
 20
27.74321521031269
 30
0.0
 10
-1.955911122102367
 20
27.49956902555706
 30
0.0
 10
-1.976606287618337
 20
27.36174326039754
 30
0.0
 10
-1.991714435015838
 20
27.18425647528689
 30
0.0
 10
-1.994304853256715
 20
27.14540325143798
 30
0.0
 10
-1.996731630421429
 20
27.09701129922591
 30
0.0
 10
-1.997194385968765
 20
27.08687585468426
 30
0.0
 10
-1.997809801448562
 20
27.07209790473546
 30
0.0
 10
-1.998006434209309
 20
27.06710670102218
 30
0.0
 10
-1.99835588982636
 20
27.05779769263341
 30
0.0
 10
-1.998509836621326
 20
27.05345153497056
 30
0.0
 10
-1.99890208646784
 20
27.0419134296396
 30
0.0
 10
-1.999078183316446
 20
27.03610937898308
 30
0.0
 10
-1.999308026766495
 20
27.0281333913731
 30
0.0
 10
-1.999381849970903
 20
27.02547250048616
 30
0.0
 10
-1.999452958575256
 20
27.02280293713482
 30
0.0
  0
LINE
  5
A73E
330
A735
100
AcDbEntity
  8
0
100
AcDbLine
 10
-2.000000000000007
 20
-2.0
 30
0.0
 11
-86.00000000000001
 21
-2.0
 31
0.0
  0
LINE
  5
A73F
330
A735
100
AcDbEntity
  8
0
100
AcDbLine
 10
-2.000000000000014
 20
2.000000000000003
 30
0.0
 11
-2.000000000000014
 21
26.99999999999999
 31
0.0
  0
LINE
  5
A740
330
A735
100
AcDbEntity
  8
0
100
AcDbLine
 10
-2.000000000000014
 20
2.000000000000004
 30
0.0
 11
-2.000000000000007
 21
-1.999999999999999
 31
0.0
  0
LINE
  5
A741
330
A735
100
AcDbEntity
  8
0
100
AcDbLine
 10
-86.00000000000001
 20
-2.000000000000003
 30
0.0
 11
-86.00000000000001
 21
2.0
 31
0.0
  0
LINE
  5
A742
330
A735
100
AcDbEntity
  8
0
100
AcDbLine
 10
0.0
 20
59.99999999999996
 30
0.0
 11
0.0
 21
29.56249999999998
 31
0.0
  0
LINE
  5
A743
330
A735
100
AcDbEntity
  8
0
100
AcDbLine
 10
-1.999999999999992
 20
59.99999999999996
 30
0.0
 11
0.0
 21
59.99999999999996
 31
0.0
  0
LINE
  5
A744
330
A735
100
AcDbEntity
  8
0
100
AcDbLine
 10
-2.000000000000007
 20
29.56249999999998
 30
0.0
 11
-1.999999999999992
 21
59.99999999999996
 31
0.0
  0
LINE
  5
A745
330
A735
100
AcDbEntity
  8
0
100
AcDbLine
 10
0.0
 20
59.99999999999996
 30
0.0
 11
0.0
 21
187.0
 31
0.0
  0
CIRCLE
  5
A746
330
A735
100
AcDbEntity
  8
0
100
AcDbCircle
 10
-38.50000000000002
 20
172.0
 30
0.0
 40
2.5
  0
LINE
  5
A747
330
A735
100
AcDbEntity
  8
0
100
AcDbLine
 10
-46.00000000000004
 20
59.99999999999996
 30
0.0
 11
-86.00000000000006
 21
26.99999999999999
 31
0.0
  0
LINE
  5
A748
330
A735
100
AcDbEntity
  8
0
100
AcDbLine
 10
-46.00000000000001
 20
187.0
 30
0.0
 11
-46.00000000000004
 21
59.99999999999996
 31
0.0
  0
LINE
  5
A749
330
A735
100
AcDbEntity
  8
0
100
AcDbLine
 10
-86.00000000000006
 20
26.99999999999999
 30
0.0
 11
-86.00000000000001
 21
2.000000000000001
 31
0.0
  0
LINE
  5
A74A
330
A735
100
AcDbEntity
  8
0
100
AcDbLine
 10
-4.000000000000003
 20
187.0
 30
0.0
 11
-46.00000000000001
 21
187.0
 31
0.0
  0
LINE
  5
A74B
330
A735
100
AcDbEntity
  8
0
100
AcDbLine
 10
-2.000000000000006
 20
187.0
 30
0.0
 11
-4.000000000000003
 21
187.0
 31
0.0
  0
LINE
  5
A74C
330
A735
100
AcDbEntity
  8
0
100
AcDbLine
 10
0.0
 20
187.0
 30
0.0
 11
-2.000000000000001
 21
187.0
 31
0.0
  0
LINE
  5
A74D
330
A735
100
AcDbEntity
  8
0
100
AcDbLine
 10
-1.999999999999992
 20
59.99999999999996
 30
0.0
 11
-2.000000000000001
 21
187.0
 31
0.0
  0
CIRCLE
  5
A74E
330
A735
100
AcDbEntity
  8
0
100
AcDbCircle
 10
-38.50000000000002
 20
51.99999999999999
 30
0.0
 40
2.5
  0
CIRCLE
  5
A74F
330
A735
100
AcDbEntity
  8
0
100
AcDbCircle
 10
-38.50000000000002
 20
72.0
 30
0.0
 40
2.5
  0
CIRCLE
  5
A750
330
A735
100
AcDbEntity
  8
0
100
AcDbCircle
 10
-38.50000000000002
 20
92.0
 30
0.0
 40
2.5
  0
CIRCLE
  5
A751
330
A735
100
AcDbEntity
  8
0
100
AcDbCircle
 10
-38.50000000000002
 20
112.0
 30
0.0
 40
2.5
  0
CIRCLE
  5
A752
330
A735
100
AcDbEntity
  8
0
100
AcDbCircle
 10
-38.50000000000002
 20
132.0
 30
0.0
 40
2.5
  0
CIRCLE
  5
A753
330
A735
100
AcDbEntity
  8
0
100
AcDbCircle
 10
-38.50000000000002
 20
152.0
 30
0.0
 40
2.5
  0
ENDBLK
  5
A737
330
A735
100
AcDbEntity
  8
0
100
AcDbBlockEnd
  0
BLOCK
  5
A755
330
A754
100
AcDbEntity
  8
0
100
AcDbBlockBegin
  2
SAE440_66_2-Top
 70
     0
 10
0.0
 20
0.0
 30
0.0
  3
SAE440_66_2-Top
  1

  0
LINE
  5
A757
330
A754
100
AcDbEntity
  8
0
100
AcDbLine
 10
33.00000000000001
 20
-2.000000000000011
 30
0.0
 11
33.00000000000001
 21
-2.070206720553554
 31
0.0
  0
SPLINE
  5
A758
330
A754
100
AcDbEntity
  8
0
100
AcDbSpline
210
0.0
220
0.0
230
1.0
 70
     8
 71
     3
 72
    11
 73
     7
 74
     0
 42
0.000000001
 43
0.0000000001
 40
-1.0
 40
-1.0
 40
-1.0
 40
-1.0
 40
-0.7994286890857909
 40
-0.7994286890857909
 40
-0.7994286890857909
 40
-0.6533573777220921
 40
-0.6533573777220921
 40
-0.6533573777220921
 40
-0.6533573777220921
 10
33.00000000000002
 20
-2.0
 30
0.0
 10
32.99999961270323
 20
-1.999093543231107
 30
0.0
 10
33.1263315059907
 20
-1.919863896644566
 30
0.0
 10
33.33607694559622
 20
-1.79068778622723
 30
0.0
 10
33.48882955650595
 20
-1.696611899902724
 30
0.0
 10
33.68837056418531
 20
-1.57739137786275
 30
0.0
 10
33.91982716790679
 20
-1.445337717162863
 30
0.0
  0
SPLINE
  5
A759
330
A754
100
AcDbEntity
  8
0
100
AcDbSpline
210
0.0
220
0.0
230
1.0
 70
     8
 71
     3
 72
    24
 73
    20
 74
     0
 42
0.000000001
 43
0.0000000001
 40
0.0
 40
0.0
 40
0.0
 40
0.0
 40
0.0062834381536499
 40
0.0062834381536499
 40
0.0147058049918881
 40
0.0147058049918881
 40
0.03737557938748
 40
0.03737557938748
 40
0.0501947864884419
 40
0.0501947864884419
 40
0.0667265035159215
 40
0.0667265035159215
 40
0.0742906734131544
 40
0.0742906734131544
 40
0.0802483921885484
 40
0.0802483921885484
 40
0.0850816717563389
 40
0.0850816717563389
 40
0.0856957592848183
 40
0.0856957592848183
 40
0.0856957592848183
 40
0.0856957592848183
 10
37.56214430292089
 20
-2.000020290751298
 30
0.0
 10
37.54700960595521
 20
-2.000021425462918
 30
0.0
 10
37.5294850019693
 20
-2.000028425796116
 30
0.0
 10
37.48709187810719
 20
-2.000060615576026
 30
0.0
 10
37.4614239179323
 20
-2.000092345612161
 30
0.0
 10
37.36626722165702
 20
-2.000257841536106
 30
0.0
 10
37.29520834500863
 20
-2.000490386303067
 30
0.0
 10
37.18816022247378
 20
-2.000912253182142
 30
0.0
 10
37.15315286415918
 20
-2.001031881989453
 30
0.0
 10
37.07005262644039
 20
-2.001571974329515
 30
0.0
 10
37.01830295917817
 20
-2.002077321680955
 30
0.0
 10
36.93976339608723
 20
-2.004016812789913
 30
0.0
 10
36.91447637120772
 20
-2.004811672106901
 30
0.0
 10
36.86944309138429
 20
-2.006675242080383
 30
0.0
 10
36.84947739899242
 20
-2.007658890910434
 30
0.0
 10
36.81421215977795
 20
-2.009735979562254
 30
0.0
 10
36.79857684721308
 20
-2.010784990534034
 30
0.0
 10
36.7819151766255
 20
-2.012048873448623
 30
0.0
 10
36.78004721661564
 20
-2.012192909865846
 30
0.0
 10
36.77819292852932
 20
-2.012337841302255
 30
0.0
  0
SPLINE
  5
A75A
330
A754
100
AcDbEntity
  8
0
100
AcDbSpline
210
0.0
220
0.0
230
1.0
 70
     8
 71
     3
 72
    10
 73
     6
 74
     0
 42
0.000000001
 43
0.0000000001
 40
0.1085577897048152
 40
0.1085577897048152
 40
0.1085577897048152
 40
0.1085577897048152
 40
0.1101515868836045
 40
0.1101515868836045
 40
0.1184305725404987
 40
0.1184305725404987
 40
0.1184305725404987
 40
0.1184305725404987
 10
35.00193374959135
 20
-3.912074320718565
 30
0.0
 10
35.00180815184081
 20
-3.916557019899657
 30
0.0
 10
35.00168918902936
 20
-3.921129107753562
 30
0.0
 10
35.00100691468583
 20
-3.949636543710012
 30
0.0
 10
35.00066597565855
 20
-3.974616144418403
 30
0.0
 10
35.00049093616213
 20
-4.000003307383525
 30
0.0
  0
LINE
  5
A75B
330
A754
100
AcDbEntity
  8
0
100
AcDbLine
 10
35.00002880813548
 20
-3.989264082767674
 30
0.0
 11
35.00002924259764
 21
-3.989390565125969
 31
0.0
  0
SPLINE
  5
A75C
330
A754
100
AcDbEntity
  8
0
100
AcDbSpline
210
0.0
220
0.0
230
1.0
 70
     8
 71
     3
 72
    12
 73
     8
 74
     0
 42
0.000000001
 43
0.0000000001
 40
0.0101225152280499
 40
0.0101225152280499
 40
0.0101225152280499
 40
0.0101225152280499
 40
0.0121410336192871
 40
0.0121410336192871
 40
0.0133830841796102
 40
0.0133830841796102
 40
0.0141064472059234
 40
0.0141064472059234
 40
0.0141064472059234
 40
0.0141064472059234
 10
34.99998998734159
 20
-3.998412118044888
 30
0.0
 10
34.99998998734125
 20
-3.998412117992318
 30
0.0
 10
34.99999068851729
 20
-3.998522768874211
 30
0.0
 10
34.99999494979108
 20
-3.999182173130329
 30
0.0
 10
34.99999820813991
 20
-3.999684015733453
 30
0.0
 10
35.00000191632771
 20
-4.000251944783858
 30
0.0
 10
35.00000285308597
 20
-4.000394832412299
 30
0.0
 10
35.00000285306233
 20
-4.00039482880568
 30
0.0
  0
SPLINE
  5
A75D
330
A754
100
AcDbEntity
  8
0
100
AcDbSpline
210
0.0
220
0.0
230
1.0
 70
     8
 71
     3
 72
    28
 73
    24
 74
     0
 42
0.000000001
 43
0.0000000001
 40
0.0059924523180065
 40
0.0059924523180065
 40
0.0059924523180065
 40
0.0059924523180065
 40
0.0060018595326668
 40
0.0060018595326668
 40
0.0060343963946257
 40
0.0060343963946257
 40
0.0061001473433091
 40
0.0061001473433091
 40
0.0063666114471832
 40
0.0063666114471832
 40
0.0733642136260382
 40
0.0733642136260382
 40
0.1461240642957673
 40
0.1461240642957673
 40
0.1821355552359116
 40
0.1821355552359116
 40
0.2003591206912905
 40
0.2003591206912905
 40
0.2099082797640246
 40
0.2099082797640246
 40
0.2149921018811964
 40
0.2149921018811964
 40
0.2202283483659529
 40
0.2202283483659529
 40
0.2202283483659529
 40
0.2202283483659529
 10
32.99996683550283
 20
-3.998262424358895
 30
0.0
 10
32.99996641781544
 20
-3.998238398337401
 30
0.0
 10
32.99996598959396
 20
-3.998213765243552
 30
0.0
 10
32.99996403400117
 20
-3.998101265715288
 30
0.0
 10
32.9999623821121
 20
-3.998006221915946
 30
0.0
 10
32.99995717979439
 20
-3.997706836457166
 30
0.0
 10
32.99995335101664
 20
-3.997486410548211
 30
0.0
 10
32.9999342013079
 20
-3.996383440309846
 30
0.0
 10
32.99991873659899
 20
-3.995491105921085
 30
0.0
 10
32.99618162926047
 20
-3.779488363996711
 30
0.0
 10
32.99444384380184
 20
-3.585324822610476
 30
0.0
 10
32.99316955559966
 20
-3.164248136293383
 30
0.0
 10
32.99375436429837
 20
-2.938375188720574
 30
0.0
 10
32.99571986668645
 20
-2.597639624798814
 30
0.0
 10
32.99649315623959
 20
-2.486557796075262
 30
0.0
 10
32.99791979022547
 20
-2.320163054618816
 30
0.0
 10
32.99860261260401
 20
-2.262010838992018
 30
0.0
 10
32.99934828570135
 20
-2.181744877615012
 30
0.0
 10
32.99951249759062
 20
-2.155839335307858
 30
0.0
 10
32.9996089290936
 20
-2.120401021271512
 30
0.0
 10
32.99961740246808
 20
-2.108750327578964
 30
0.0
 10
32.99960908191758
 20
-2.087225511986229
 30
0.0
 10
32.99959154665587
 20
-2.0770110514579
 30
0.0
 10
32.99957591650147
 20
-2.070206720553554
 30
0.0
  0
SPLINE
  5
A75E
330
A754
100
AcDbEntity
  8
0
100
AcDbSpline
210
0.0
220
0.0
230
1.0
 70
     8
 71
     3
 72
    12
 73
     8
 74
     0
 42
0.000000001
 43
0.0000000001
 40
0.0
 40
0.0
 40
0.0
 40
0.0
 40
0.0073680638589089
 40
0.0073680638589089
 40
0.0094714794522738
 40
0.0094714794522738
 40
0.0106892344257179
 40
0.0106892344257179
 40
0.0106892344257179
 40
0.0106892344257179
 10
32.99996053853825
 20
-3.999985503002864
 30
0.0
 10
33.00000120689111
 20
-3.988738678371608
 30
0.0
 10
33.00005705426681
 20
-3.976817397503728
 30
0.0
 10
33.00011475911449
 20
-3.966829073084876
 30
0.0
 10
33.00012596496176
 20
-3.965004429948427
 30
0.0
 10
33.00013624741411
 20
-3.963340749474945
 30
0.0
 10
33.00013843227554
 20
-3.962989239798558
 30
0.0
 10
33.00013843227548
 20
-3.962989239806806
 30
0.0
  0
LINE
  5
A75F
330
A754
100
AcDbEntity
  8
0
100
AcDbLine
 10
-33.00000000000001
 20
-2.000000000000011
 30
0.0
 11
-33.00000000000001
 21
-2.07020672055468
 31
0.0
  0
SPLINE
  5
A760
330
A754
100
AcDbEntity
  8
0
100
AcDbSpline
210
0.0
220
0.0
230
1.0
 70
     8
 71
     3
 72
    11
 73
     7
 74
     0
 42
0.000000001
 43
0.0000000001
 40
-1.0
 40
-1.0
 40
-1.0
 40
-1.0
 40
-0.7994286890857909
 40
-0.7994286890857909
 40
-0.7994286890857909
 40
-0.6533573777220921
 40
-0.6533573777220921
 40
-0.6533573777220921
 40
-0.6533573777220921
 10
-33.00000000000002
 20
-2.0
 30
0.0
 10
-32.99999961270323
 20
-1.999093543231107
 30
0.0
 10
-33.1263315059907
 20
-1.919863896644566
 30
0.0
 10
-33.33607694559622
 20
-1.79068778622723
 30
0.0
 10
-33.48882955650595
 20
-1.696611899902724
 30
0.0
 10
-33.68837056418531
 20
-1.57739137786275
 30
0.0
 10
-33.91982716790679
 20
-1.445337717162863
 30
0.0
  0
SPLINE
  5
A761
330
A754
100
AcDbEntity
  8
0
100
AcDbSpline
210
0.0
220
0.0
230
1.0
 70
     8
 71
     3
 72
    32
 73
    28
 74
     0
 42
0.000000001
 43
0.0000000001
 40
0.0
 40
0.0
 40
0.0
 40
0.0
 40
0.0038186266466115
 40
0.0038186266466115
 40
0.0092110776914063
 40
0.0092110776914063
 40
0.0200768673652613
 40
0.0200768673652613
 40
0.0329596385143916
 40
0.0329596385143916
 40
0.0591156621035771
 40
0.0591156621035771
 40
0.13453797302433
 40
0.13453797302433
 40
0.2001702426746454
 40
0.2001702426746454
 40
0.2079232405741308
 40
0.2079232405741308
 40
0.2137381630533122
 40
0.2137381630533122
 40
0.214105583419174
 40
0.214105583419174
 40
0.2142111709962437
 40
0.2142111709962437
 40
0.2142590628330681
 40
0.2142590628330681
 40
0.2142670189668187
 40
0.2142670189668187
 40
0.2142670189668187
 40
0.2142670189668187
 10
-32.99957591650147
 20
-2.07020672055468
 30
0.0
 10
-32.99958731507184
 20
-2.075168900883548
 30
0.0
 10
-32.9995997918339
 20
-2.082042326081842
 30
0.0
 10
-32.99961779112472
 20
-2.100031816326582
 30
0.0
 10
-32.99961861325107
 20
-2.112003662982219
 30
0.0
 10
-32.99954447401458
 20
-2.150334542533776
 30
0.0
 10
-32.99937038822924
 20
-2.179691941717481
 30
0.0
 10
-32.99872413986533
 20
-2.248520978105164
 30
0.0
 10
-32.9982513718889
 20
-2.288793425792966
 30
0.0
 10
-32.99709519547505
 20
-2.409489028652061
 30
0.0
 10
-32.99652475993482
 20
-2.488728281515719
 30
0.0
 10
-32.9943450653462
 20
-2.804259116018056
 30
0.0
 10
-32.99335912869121
 20
-3.042923678567801
 30
0.0
 10
-32.99382077768516
 20
-3.470540599342577
 30
0.0
 10
-32.99501453351836
 20
-3.665701420829592
 30
0.0
 10
-32.99823444233048
 20
-3.89129294240619
 30
0.0
 10
-32.9985962714384
 20
-3.915179432541182
 30
0.0
 10
-32.99926639432259
 20
-3.957058118110793
 30
0.0
 10
-32.99956020522262
 20
-3.974730309894029
 30
0.0
 10
-32.99989845094872
 20
-3.994319444992375
 30
0.0
 10
-32.99991895155336
 20
-3.995504022329713
 30
0.0
 10
-32.99994624733975
 20
-3.997077316147641
 30
0.0
 10
-32.9999526109295
 20
-3.997443836440901
 30
0.0
 10
-32.99996101194273
 20
-3.997927385552949
 30
0.0
 10
-32.99996353620853
 20
-3.998072631027741
 30
0.0
 10
-32.99996612113283
 20
-3.998221331875997
 30
0.0
 10
-32.99996648207905
 20
-3.998242094852018
 30
0.0
 10
-32.99996683550297
 20
-3.998262424317453
 30
0.0
  0
SPLINE
  5
A762
330
A754
100
AcDbEntity
  8
0
100
AcDbSpline
210
0.0
220
0.0
230
1.0
 70
     8
 71
     3
 72
    14
 73
    10
 74
     0
 42
0.000000001
 43
0.0000000001
 40
0.0077867807769117
 40
0.0077867807769117
 40
0.0077867807769117
 40
0.0077867807769117
 40
0.0083979033523975
 40
0.0083979033523975
 40
0.0105249655345041
 40
0.0105249655345041
 40
0.0138644924181527
 40
0.0138644924181527
 40
0.0184801346714962
 40
0.0184801346714962
 40
0.0184801346714962
 40
0.0184801346714962
 10
-33.00013843227549
 20
-3.962989239807525
 30
0.0
 10
-33.00013843227546
 20
-3.962989239812619
 30
0.0
 10
-33.00013788506581
 20
-3.963077842554829
 30
0.0
 10
-33.00013331027491
 20
-3.963815700432898
 30
0.0
 10
-33.00012394049566
 20
-3.965314845273931
 30
0.0
 10
-33.00009364632069
 20
-3.970424767643285
 30
0.0
 10
-33.0000696035512
 20
-3.974738183567833
 30
0.0
 10
-33.00001543374006
 20
-3.985811781137392
 30
0.0
 10
-32.99998601477886
 20
-3.992940053889252
 30
0.0
 10
-32.99996053853823
 20
-3.99998550300286
 30
0.0
  0
LINE
  5
A763
330
A754
100
AcDbEntity
  8
0
100
AcDbLine
 10
-35.00002929018825
 20
-3.989376459584705
 30
0.0
 11
-35.00002885636079
 21
-3.989249798030984
 31
0.0
  0
SPLINE
  5
A764
330
A754
100
AcDbEntity
  8
0
100
AcDbSpline
210
0.0
220
0.0
230
1.0
 70
     8
 71
     3
 72
     8
 73
     4
 74
     0
 42
0.000000001
 43
0.0000000001
 40
0.0
 40
0.0
 40
0.0
 40
0.0
 40
0.0098328826125619
 40
0.0098328826125619
 40
0.0098328826125619
 40
0.0098328826125619
 10
-35.00049093616214
 20
-4.000003307383526
 30
0.0
 10
-35.00069882912055
 20
-3.969851184448872
 30
0.0
 10
-35.00118376643866
 20
-3.939231880569792
 30
0.0
 10
-35.00195719565617
 20
-3.911627481041401
 30
0.0
  0
SPLINE
  5
A765
330
A754
100
AcDbEntity
  8
0
100
AcDbSpline
210
0.0
220
0.0
230
1.0
 70
     8
 71
     3
 72
    22
 73
    18
 74
     0
 42
0.000000001
 43
0.0000000001
 40
0.0482163190972289
 40
0.0482163190972289
 40
0.0482163190972289
 40
0.0482163190972289
 40
0.0509981140773181
 40
0.0509981140773181
 40
0.0569754082085319
 40
0.0569754082085319
 40
0.0655197409592042
 40
0.0655197409592042
 40
0.076772119143001
 40
0.076772119143001
 40
0.0903671149329409
 40
0.0903671149329409
 40
0.1102392320066941
 40
0.1102392320066941
 40
0.129295451538419
 40
0.129295451538419
 40
0.1339206631496074
 40
0.1339206631496074
 40
0.1339206631496074
 40
0.1339206631496074
 10
-36.7781916780523
 20
-2.012338267878552
 30
0.0
 10
-36.78659046915042
 20
-2.011681817099991
 30
0.0
 10
-36.79531792564987
 20
-2.011044009115571
 30
0.0
 10
-36.82316704851668
 20
-2.009151312368681
 30
0.0
 10
-36.84302349559427
 20
-2.008007798605162
 30
0.0
 10
-36.89123820084571
 20
-2.005661044501506
 30
0.0
 10
-36.9200691527557
 20
-2.004616214331687
 30
0.0
 10
-36.98510336282916
 20
-2.002806532532371
 30
0.0
 10
-37.02144266095687
 20
-2.002204352167517
 30
0.0
 10
-37.09667311556765
 20
-2.001331199102607
 30
0.0
 10
-37.13416731245432
 20
-2.001142643713969
 30
0.0
 10
-37.22829247954719
 20
-2.000739711459453
 30
0.0
 10
-37.2921166679982
 20
-2.000484285737913
 30
0.0
 10
-37.41127173736479
 20
-2.000161538226469
 30
0.0
 10
-37.47219145702885
 20
-2.000063587340523
 30
0.0
 10
-37.53854611903467
 20
-2.000025166696755
 30
0.0
 10
-37.5510037180332
 20
-2.000021126007607
 30
0.0
 10
-37.56214430292092
 20
-2.000020290751298
 30
0.0
  0
LINE
  5
A766
330
A754
100
AcDbEntity
  8
0
100
AcDbLine
 10
-33.00000000000001
 20
-2.000000000000011
 30
0.0
 11
-31.00000000000001
 21
-2.000000000000007
 31
0.0
  0
LINE
  5
A767
330
A754
100
AcDbEntity
  8
0
100
AcDbLine
 10
-32.99999999999999
 20
-86.00000000000001
 30
0.0
 11
-30.99999999999998
 21
-86.00000000000001
 31
0.0
  0
LINE
  5
A768
330
A754
100
AcDbEntity
  8
0
100
AcDbLine
 10
31.00000000000001
 20
-2.000000000000007
 30
0.0
 11
-31.00000000000001
 21
-2.000000000000007
 31
0.0
  0
LINE
  5
A769
330
A754
100
AcDbEntity
  8
0
100
AcDbLine
 10
-30.99999999999998
 20
-86.00000000000001
 30
0.0
 11
31.0
 21
-86.00000000000001
 31
0.0
  0
CIRCLE
  5
A76A
330
A754
100
AcDbEntity
  8
0
100
AcDbCircle
 10
0.0
 20
-47.99999999999998
 30
0.0
 40
2.5
  0
CIRCLE
  5
A76B
330
A754
100
AcDbEntity
  8
0
100
AcDbCircle
 10
0.0
 20
-67.99999999999998
 30
0.0
 40
2.5
  0
LINE
  5
A76C
330
A754
100
AcDbEntity
  8
0
100
AcDbLine
 10
33.00000000000001
 20
-2.000000000000011
 30
0.0
 11
31.00000000000001
 21
-2.000000000000007
 31
0.0
  0
LINE
  5
A76D
330
A754
100
AcDbEntity
  8
0
100
AcDbLine
 10
36.99999999999999
 20
0.0
 30
0.0
 11
74.50000000000001
 21
0.0
 31
0.0
  0
ARC
  5
A76E
330
A754
100
AcDbEntity
  8
0
100
AcDbCircle
 10
37.0
 20
-4.000000000000004
 30
0.0
 40
3.999999999999999
100
AcDbArc
 50
90.00000000000012
 51
180.0
  0
LINE
  5
A76F
330
A754
100
AcDbEntity
  8
0
100
AcDbLine
 10
32.99999999999999
 20
-86.00000000000006
 30
0.0
 11
32.99999999999999
 21
-46.00000000000004
 31
0.0
  0
LINE
  5
A770
330
A754
100
AcDbEntity
  8
0
100
AcDbLine
 10
34.99999999999999
 20
-86.00000000000006
 30
0.0
 11
32.99999999999999
 21
-86.00000000000006
 31
0.0
  0
LINE
  5
A771
330
A754
100
AcDbEntity
  8
0
100
AcDbLine
 10
35.0
 20
-46.00000000000004
 30
0.0
 11
34.99999999999999
 21
-86.00000000000006
 31
0.0
  0
LINE
  5
A772
330
A754
100
AcDbEntity
  8
0
100
AcDbLine
 10
32.99999999999999
 20
-46.00000000000001
 30
0.0
 11
35.0
 21
-46.00000000000001
 31
0.0
  0
LINE
  5
A773
330
A754
100
AcDbEntity
  8
0
100
AcDbLine
 10
35.00000000000001
 20
-4.000000000000003
 30
0.0
 11
35.0
 21
-46.00000000000001
 31
0.0
  0
LINE
  5
A774
330
A754
100
AcDbEntity
  8
0
100
AcDbLine
 10
32.99999999999999
 20
-46.00000000000001
 30
0.0
 11
33.0
 21
-4.000000000000003
 31
0.0
  0
LINE
  5
A775
330
A754
100
AcDbEntity
  8
0
100
AcDbLine
 10
32.99999999999999
 20
-86.00000000000001
 30
0.0
 11
30.99999999999998
 21
-86.00000000000001
 31
0.0
  0
ARC
  5
A776
330
A754
100
AcDbEntity
  8
0
100
AcDbCircle
 10
37.0
 20
-4.000000000000004
 30
0.0
 40
1.999999999999997
100
AcDbArc
 50
90.00000000000026
 51
180.0
  0
LINE
  5
A777
330
A754
100
AcDbEntity
  8
0
100
AcDbLine
 10
74.50000000000001
 20
0.0
 30
0.0
 11
74.50000000000001
 21
-2.000000000000001
 31
0.0
  0
LINE
  5
A778
330
A754
100
AcDbEntity
  8
0
100
AcDbLine
 10
74.50000000000001
 20
-2.000000000000001
 30
0.0
 11
36.99999999999999
 21
-2.000000000000006
 31
0.0
  0
LINE
  5
A779
330
A754
100
AcDbEntity
  8
0
100
AcDbLine
 10
-74.50000000000001
 20
-2.000000000000001
 30
0.0
 11
-36.99999999999999
 21
-2.000000000000006
 31
0.0
  0
LINE
  5
A77A
330
A754
100
AcDbEntity
  8
0
100
AcDbLine
 10
-32.99999999999999
 20
-46.00000000000001
 30
0.0
 11
-33.0
 21
-4.000000000000003
 31
0.0
  0
LINE
  5
A77B
330
A754
100
AcDbEntity
  8
0
100
AcDbLine
 10
-35.00000000000001
 20
-4.000000000000003
 30
0.0
 11
-35.0
 21
-46.00000000000001
 31
0.0
  0
LINE
  5
A77C
330
A754
100
AcDbEntity
  8
0
100
AcDbLine
 10
-36.99999999999999
 20
0.0
 30
0.0
 11
-74.50000000000001
 21
0.0
 31
0.0
  0
LINE
  5
A77D
330
A754
100
AcDbEntity
  8
0
100
AcDbLine
 10
-74.50000000000001
 20
0.0
 30
0.0
 11
-74.50000000000001
 21
-2.000000000000001
 31
0.0
  0
ARC
  5
A77E
330
A754
100
AcDbEntity
  8
0
100
AcDbCircle
 10
-37.0
 20
-4.000000000000004
 30
0.0
 40
1.999999999999997
100
AcDbArc
 50
0.0
 51
89.99999999999975
  0
ARC
  5
A77F
330
A754
100
AcDbEntity
  8
0
100
AcDbCircle
 10
-37.0
 20
-4.000000000000004
 30
0.0
 40
3.999999999999999
100
AcDbArc
 50
0.0
 51
89.99999999999987
  0
LINE
  5
A780
330
A754
100
AcDbEntity
  8
0
100
AcDbLine
 10
-32.99999999999999
 20
-46.00000000000004
 30
0.0
 11
-32.99999999999999
 21
-86.00000000000006
 31
0.0
  0
LINE
  5
A781
330
A754
100
AcDbEntity
  8
0
100
AcDbLine
 10
-34.99999999999999
 20
-86.00000000000006
 30
0.0
 11
-35.0
 21
-46.00000000000004
 31
0.0
  0
LINE
  5
A782
330
A754
100
AcDbEntity
  8
0
100
AcDbLine
 10
-32.99999999999999
 20
-86.00000000000006
 30
0.0
 11
-34.99999999999999
 21
-86.00000000000006
 31
0.0
  0
LINE
  5
A783
330
A754
100
AcDbEntity
  8
0
100
AcDbLine
 10
-35.0
 20
-46.00000000000001
 30
0.0
 11
-32.99999999999999
 21
-46.00000000000001
 31
0.0
  0
ENDBLK
  5
A756
330
A754
100
AcDbEntity
  8
0
100
AcDbBlockEnd
  0
BLOCK
  5
A785
330
A784
100
AcDbEntity
  8
0
100
AcDbBlockBegin
  2
SAE440_66_2-Bottom
 70
     0
 10
0.0
 20
0.0
 30
0.0
  3
SAE440_66_2-Bottom
  1

  0
SPLINE
  5
A787
330
A784
100
AcDbEntity
  8
0
100
AcDbSpline
210
0.0
220
0.0
230
1.0
 70
     8
 71
     3
 72
    14
 73
    10
 74
     0
 42
0.000000001
 43
0.0000000001
 40
0.0
 40
0.0
 40
0.0
 40
0.0
 40
0.3435149368906571
 40
0.3435149368906571
 40
0.3435149368906571
 40
0.7569946176686826
 40
0.7569946176686826
 40
0.7569946176686826
 40
1.0
 40
1.0
 40
1.0
 40
1.0
 10
37.60606060606057
 20
2.000000000000006
 30
0.0
 10
37.28490796719828
 20
2.000036879631392
 30
0.0
 10
36.8724655581601
 20
1.996834167075167
 30
0.0
 10
36.47647444982522
 20
1.998676128322029
 30
0.0
 10
35.99983061434229
 20
2.000893247482121
 30
0.0
 10
35.53729794768412
 20
2.001072402908385
 30
0.0
 10
35.26242807118501
 20
2.001124325805118
 30
0.0
 10
35.10088480186559
 20
2.001154841315212
 30
0.0
 10
34.99999576705053
 20
2.000250547667868
 30
0.0
 10
34.99999999948832
 20
1.999999999992545
 30
0.0
  0
LINE
  5
A788
330
A784
100
AcDbEntity
  8
0
100
AcDbLine
 10
37.00008656732001
 20
2.000000000000007
 30
0.0
 11
37.00614404872437
 21
2.000000000000007
 31
0.0
  0
LINE
  5
A789
330
A784
100
AcDbEntity
  8
0
100
AcDbLine
 10
37.56214430292077
 20
2.000000000000007
 30
0.0
 11
37.60606060606058
 21
2.000000000000007
 31
0.0
  0
ARC
  5
A78A
330
A784
100
AcDbEntity
  8
0
100
AcDbCircle
 10
37.0
 20
4.000000000000004
 30
0.0
 40
1.999999999999997
100
AcDbArc
 50
182.4455220555591
 51
263.5960493826515
  0
ARC
  5
A78B
330
A784
100
AcDbEntity
  8
0
100
AcDbCircle
 10
37.0
 20
4.000000000000004
 30
0.0
 40
3.999999999999998
100
AcDbArc
 50
219.692774910123
 51
270.0
  0
LINE
  5
A78C
330
A784
100
AcDbEntity
  8
0
100
AcDbLine
 10
37.60606060606059
 20
0.0
 30
0.0
 11
37.0
 21
0.0
 31
0.0
  0
SPLINE
  5
A78D
330
A784
100
AcDbEntity
  8
0
100
AcDbSpline
210
0.0
220
0.0
230
1.0
 70
     8
 71
     3
 72
    17
 73
    13
 74
     0
 42
0.000000001
 43
0.0000000001
 40
-1.0
 40
-1.0
 40
-1.0
 40
-1.0
 40
-0.7994286890857909
 40
-0.7994286890857909
 40
-0.7994286890857909
 40
-0.3760960080993489
 40
-0.3760960080993489
 40
-0.3760960080993489
 40
-0.0765284972645861
 40
-0.0765284972645861
 40
-0.0765284972645861
 40
0.0
 40
0.0
 40
0.0
 40
0.0
 10
33.00000000000002
 20
2.0
 30
0.0
 10
32.99999961270323
 20
1.999093543231107
 30
0.0
 10
33.1263315059907
 20
1.919863896644566
 30
0.0
 10
33.33607694559622
 20
1.79068778622723
 30
0.0
 10
33.77877285693152
 20
1.51804426162185
 30
0.0
 10
34.61445008342057
 20
1.034207947890172
 30
0.0
 10
35.4810796210188
 20
0.6388614064391018
 30
0.0
 10
36.09434210949297
 20
0.3590980320082422
 30
0.0
 10
36.71765761686678
 20
0.1217220476521605
 30
0.0
 10
37.23393420695629
 20
0.0342615816117273
 30
0.0
 10
37.36582391523052
 20
0.0119186445639691
 30
0.0
 10
37.4883202610558
 20
0.0000045452574075
 30
0.0
 10
37.60606060611084
 20
0.0000000001152111
 30
0.0
  0
LINE
  5
A78E
330
A784
100
AcDbEntity
  8
0
100
AcDbLine
 10
37.60606060606059
 20
2.000000000000007
 30
0.0
 11
37.60606060606059
 21
0.0
 31
0.0
  0
SPLINE
  5
A78F
330
A784
100
AcDbEntity
  8
0
100
AcDbSpline
210
0.0
220
0.0
230
1.0
 70
     8
 71
     3
 72
    30
 73
    26
 74
     0
 42
0.000000001
 43
0.0000000001
 40
0.0371531975399704
 40
0.0371531975399704
 40
0.0371531975399704
 40
0.0371531975399704
 40
0.0389576292949835
 40
0.0389576292949835
 40
0.0414215886123784
 40
0.0414215886123784
 40
0.0438497378299627
 40
0.0438497378299627
 40
0.0468758300430407
 40
0.0468758300430407
 40
0.0509981140769232
 40
0.0509981140769232
 40
0.0569754082078421
 40
0.0569754082078421
 40
0.0655197409582693
 40
0.0655197409582693
 40
0.0767721191418045
 40
0.0767721191418045
 40
0.090367114931547
 40
0.090367114931547
 40
0.110239232008747
 40
0.110239232008747
 40
0.1292954515424747
 40
0.1292954515424747
 40
0.1339206631495758
 40
0.1339206631495758
 40
0.1339206631495758
 40
0.1339206631495758
 10
36.71468571209325
 20
2.018273760984787
 30
0.0
 10
36.71468571208791
 20
2.0182737609854
 30
0.0
 10
36.71540137642202
 20
2.018191408059904
 30
0.0
 10
36.71874704334616
 20
2.01781961703448
 30
0.0
 10
36.72207948289148
 20
2.017455168544028
 30
0.0
 10
36.73072359853982
 20
2.016557734548356
 30
0.0
 10
36.73604197501276
 20
2.016024329675606
 30
0.0
 10
36.74925582128334
 20
2.014769517277059
 30
0.0
 10
36.75757181536714
 20
2.014024113029219
 30
0.0
 10
36.77820419897245
 20
2.012306018656524
 30
0.0
 10
36.79105590206268
 20
2.011333667005972
 30
0.0
 10
36.82316704851169
 20
2.009151312368991
 30
0.0
 10
36.84302349558822
 20
2.008007798605498
 30
0.0
 10
36.89123820083778
 20
2.005661044501835
 30
0.0
 10
36.92006915274698
 20
2.004616214331983
 30
0.0
 10
36.98510336281903
 20
2.002806532532583
 30
0.0
 10
37.02144266094619
 20
2.002204352167679
 30
0.0
 10
37.09667311555648
 20
2.001331199102688
 30
0.0
 10
37.13416731244335
 20
2.001142643714025
 30
0.0
 10
37.22829247954449
 20
2.000739711459452
 30
0.0
 10
37.29211666800669
 20
2.000484285737871
 30
0.0
 10
37.41127173738958
 20
2.000161538226416
 30
0.0
 10
37.47219145706193
 20
2.00006358734048
 30
0.0
 10
37.53854611905651
 20
2.000025166696746
 30
0.0
 10
37.5510037180429
 20
2.000021126007606
 30
0.0
 10
37.56214430292077
 20
2.000020290751298
 30
0.0
  0
SPLINE
  5
A790
330
A784
100
AcDbEntity
  8
0
100
AcDbSpline
210
0.0
220
0.0
230
1.0
 70
     8
 71
     3
 72
     8
 73
     4
 74
     0
 42
0.000000001
 43
0.0000000001
 40
0.0
 40
0.0
 40
0.0
 40
0.0
 40
0.0103048143196011
 40
0.0103048143196011
 40
0.0103048143196011
 40
0.0103048143196011
 10
35.00049093616214
 20
4.000003307383527
 30
0.0
 10
35.00070880699608
 20
3.968404025623728
 30
0.0
 10
35.00122904219853
 20
3.936357239469183
 30
0.0
 10
35.0020649283876
 20
3.90777554331572
 30
0.0
  0
SPLINE
  5
A791
330
A784
100
AcDbEntity
  8
0
100
AcDbSpline
210
0.0
220
0.0
230
1.0
 70
     8
 71
     3
 72
    34
 73
    30
 74
     0
 42
0.000000001
 43
0.0000000001
 40
0.0436321553061113
 40
0.0436321553061113
 40
0.0436321553061113
 40
0.0436321553061113
 40
0.0436980521741539
 40
0.0436980521741539
 40
0.0440065146722146
 40
0.0440065146722146
 40
0.0441606020099786
 40
0.0441606020099786
 40
0.0443152209885954
 40
0.0443152209885954
 40
0.0444703577540847
 40
0.0444703577540847
 40
0.0446253049625141
 40
0.0446253049625141
 40
0.044937805777668
 40
0.044937805777668
 40
0.0462042909893335
 40
0.0462042909893335
 40
0.0474351579767188
 40
0.0474351579767188
 40
0.0507824834000102
 40
0.0507824834000102
 40
0.0563242442126453
 40
0.0563242442126453
 40
0.0632429994175943
 40
0.0632429994175943
 40
0.0673652815425149
 40
0.0673652815425149
 40
0.0708018265979474
 40
0.0708018265979474
 40
0.0708018265979474
 40
0.0708018265979474
 10
35.00049915075228
 20
3.969233896876036
 30
0.0
 10
35.00049915075226
 20
3.969233896876671
 30
0.0
 10
35.00049920959757
 20
3.969230805553261
 30
0.0
 10
35.00049992454013
 20
3.969193255382333
 30
0.0
 10
35.00050191667965
 20
3.96908840596132
 30
0.0
 10
35.00050905285894
 20
3.968715135890423
 30
0.0
 10
35.00051215759628
 20
3.968552931336096
 30
0.0
 10
35.00052029798698
 20
3.968129295139947
 30
0.0
 10
35.00052541289905
 20
3.967863744693083
 30
0.0
 10
35.00053786116384
 20
3.967221110919148
 30
0.0
 10
35.00054532795245
 20
3.966837237025353
 30
0.0
 10
35.0005619215576
 20
3.965990182806286
 30
0.0
 10
35.00057116927576
 20
3.965520892780378
 30
0.0
 10
35.00060023375756
 20
3.964057231429007
 30
0.0
 10
35.00062164615943
 20
3.962994022310729
 30
0.0
 10
35.00072929500881
 20
3.95773246678604
 30
0.0
 10
35.00081996762097
 20
3.953563964706971
 30
0.0
 10
35.00099797860123
 20
3.945799549361368
 30
0.0
 10
35.00108766446352
 20
3.94208277900417
 30
0.0
 10
35.00142826800854
 20
3.928595383208986
 30
0.0
 10
35.0016939570503
 20
3.9193063823739
 30
0.0
 10
35.0024187323618
 20
3.896280779155756
 30
0.0
 10
35.00289603165021
 20
3.883466059346583
 30
0.0
 10
35.00390973074432
 20
3.858873891175464
 30
0.0
 10
35.00444329955611
 20
3.84780965404807
 30
0.0
 10
35.00512190566552
 20
3.83460697882403
 30
0.0
 10
35.0053409150363
 20
3.830597596439489
 30
0.0
 10
35.00561878690671
 20
3.825619254355638
 30
0.0
 10
35.00569879692775
 20
3.824240555141087
 30
0.0
 10
35.00569879692618
 20
3.824240555168255
 30
0.0
  0
SPLINE
  5
A792
330
A784
100
AcDbEntity
  8
0
100
AcDbSpline
210
0.0
220
0.0
230
1.0
 70
     8
 71
     3
 72
    14
 73
    10
 74
     0
 42
0.000000001
 43
0.0000000001
 40
0.0819810279588262
 40
0.0819810279588262
 40
0.0819810279588262
 40
0.0819810279588262
 40
0.0829074150989719
 40
0.0829074150989719
 40
0.0849119405479115
 40
0.0849119405479115
 40
0.0909244383844589
 40
0.0909244383844589
 40
0.0933596251571719
 40
0.0933596251571719
 40
0.0933596251571719
 40
0.0933596251571719
 10
35.00373023007698
 20
3.86241614355374
 30
0.0
 10
35.00373023006959
 20
3.862416143718471
 30
0.0
 10
35.00374288694503
 20
3.862133543748924
 30
0.0
 10
35.00379637095149
 20
3.86094838184758
 30
0.0
 10
35.00385202599716
 20
3.859728067594283
 30
0.0
 10
35.00407200778755
 20
3.8550037111247
 30
0.0
 10
35.00424235751732
 20
3.851587192959125
 30
0.0
 10
35.0043598706382
 20
3.849307835623268
 30
0.0
 10
35.0043800997718
 20
3.848926802753356
 30
0.0
 10
35.00438009977089
 20
3.848926802770484
 30
0.0
  0
SPLINE
  5
A793
330
A784
100
AcDbEntity
  8
0
100
AcDbSpline
210
0.0
220
0.0
230
1.0
 70
     8
 71
     3
 72
     8
 73
     4
 74
     0
 42
0.000000001
 43
0.0000000001
 40
0.0
 40
0.0
 40
0.0
 40
0.0
 40
0.0035844579089063
 40
0.0035844579089063
 40
0.0035844579089063
 40
0.0035844579089063
 10
35.00006818290528
 20
3.999999758035053
 30
0.0
 10
35.00004435159686
 20
3.993919410322328
 30
0.0
 10
35.0000208873062
 20
3.98717644759639
 30
0.0
 10
35.00000004833797
 20
3.980382203107267
 30
0.0
  0
CIRCLE
  5
A794
330
A784
100
AcDbEntity
  8
0
100
AcDbCircle
 10
0.0
 20
67.99999999999998
 30
0.0
 40
2.5
  0
CIRCLE
  5
A795
330
A784
100
AcDbEntity
  8
0
100
AcDbCircle
 10
0.0
 20
47.99999999999998
 30
0.0
 40
2.5
  0
LINE
  5
A796
330
A784
100
AcDbEntity
  8
0
100
AcDbLine
 10
31.00000000000001
 20
2.000000000000007
 30
0.0
 11
-31.00000000000001
 21
2.000000000000007
 31
0.0
  0
LINE
  5
A797
330
A784
100
AcDbEntity
  8
0
100
AcDbLine
 10
31.0
 20
86.00000000000001
 30
0.0
 11
-30.99999999999998
 21
86.00000000000001
 31
0.0
  0
SPLINE
  5
A798
330
A784
100
AcDbEntity
  8
0
100
AcDbSpline
210
0.0
220
0.0
230
1.0
 70
     8
 71
     3
 72
    17
 73
    13
 74
     0
 42
0.000000001
 43
0.0000000001
 40
-1.0
 40
-1.0
 40
-1.0
 40
-1.0
 40
-0.7994286890857909
 40
-0.7994286890857909
 40
-0.7994286890857909
 40
-0.3760960080993489
 40
-0.3760960080993489
 40
-0.3760960080993489
 40
-0.0765284972645861
 40
-0.0765284972645861
 40
-0.0765284972645861
 40
0.0
 40
0.0
 40
0.0
 40
0.0
 10
-33.00000000000002
 20
2.0
 30
0.0
 10
-32.99999961270323
 20
1.999093543231107
 30
0.0
 10
-33.1263315059907
 20
1.919863896644566
 30
0.0
 10
-33.33607694559622
 20
1.79068778622723
 30
0.0
 10
-33.77877285693152
 20
1.51804426162185
 30
0.0
 10
-34.61445008342057
 20
1.034207947890172
 30
0.0
 10
-35.4810796210188
 20
0.6388614064391018
 30
0.0
 10
-36.09434210949297
 20
0.3590980320082422
 30
0.0
 10
-36.71765761686678
 20
0.1217220476521605
 30
0.0
 10
-37.23393420695629
 20
0.0342615816117273
 30
0.0
 10
-37.36582391523052
 20
0.0119186445639691
 30
0.0
 10
-37.4883202610558
 20
0.0000045452574075
 30
0.0
 10
-37.60606060611084
 20
0.0000000001152111
 30
0.0
  0
LINE
  5
A799
330
A784
100
AcDbEntity
  8
0
100
AcDbLine
 10
-37.0
 20
0.0
 30
0.0
 11
-37.60606060606059
 21
0.0
 31
0.0
  0
ARC
  5
A79A
330
A784
100
AcDbEntity
  8
0
100
AcDbCircle
 10
-37.0
 20
4.000000000000004
 30
0.0
 40
3.999999999999999
100
AcDbArc
 50
269.9999999999999
 51
320.307225089877
  0
ARC
  5
A79B
330
A784
100
AcDbEntity
  8
0
100
AcDbCircle
 10
-37.0
 20
4.000000000000004
 30
0.0
 40
1.999999999999996
100
AcDbArc
 50
276.4039506174208
 51
357.5544779444469
  0
SPLINE
  5
A79C
330
A784
100
AcDbEntity
  8
0
100
AcDbSpline
210
0.0
220
0.0
230
1.0
 70
     8
 71
     3
 72
    14
 73
    10
 74
     0
 42
0.000000001
 43
0.0000000001
 40
0.0
 40
0.0
 40
0.0
 40
0.0
 40
0.3435149368906571
 40
0.3435149368906571
 40
0.3435149368906571
 40
0.7569946176686826
 40
0.7569946176686826
 40
0.7569946176686826
 40
1.0
 40
1.0
 40
1.0
 40
1.0
 10
-37.60606060606057
 20
2.000000000000006
 30
0.0
 10
-37.28490796719828
 20
2.000036879631392
 30
0.0
 10
-36.8724655581601
 20
1.996834167075167
 30
0.0
 10
-36.47647444982522
 20
1.998676128322029
 30
0.0
 10
-35.99983061434229
 20
2.000893247482121
 30
0.0
 10
-35.53729794768412
 20
2.001072402908385
 30
0.0
 10
-35.26242807118501
 20
2.001124325805118
 30
0.0
 10
-35.10088480186559
 20
2.001154841315212
 30
0.0
 10
-34.99999576705053
 20
2.000250547667868
 30
0.0
 10
-34.99999999948832
 20
1.999999999992545
 30
0.0
  0
LINE
  5
A79D
330
A784
100
AcDbEntity
  8
0
100
AcDbLine
 10
-37.60606060606059
 20
0.0
 30
0.0
 11
-37.60606060606059
 21
2.000000000000007
 31
0.0
  0
SPLINE
  5
A79E
330
A784
100
AcDbEntity
  8
0
100
AcDbSpline
210
0.0
220
0.0
230
1.0
 70
     8
 71
     3
 72
    10
 73
     6
 74
     0
 42
0.000000001
 43
0.0000000001
 40
0.0194209846632325
 40
0.0194209846632325
 40
0.0194209846632325
 40
0.0194209846632325
 40
0.0196622408757644
 40
0.0196622408757644
 40
0.0230051753431279
 40
0.0230051753431279
 40
0.0230051753431279
 40
0.0230051753431279
 10
-35.00000000127175
 20
3.980395661621138
 30
0.0
 10
-35.00000140343722
 20
3.980852817413919
 30
0.0
 10
-35.0000028158921
 20
3.981310125073563
 30
0.0
 10
-35.00002398139202
 20
3.988091018757656
 30
0.0
 10
-35.00004595736816
 20
3.994329108676633
 30
0.0
 10
-35.00006818290528
 20
3.999999758035053
 30
0.0
  0
SPLINE
  5
A79F
330
A784
100
AcDbEntity
  8
0
100
AcDbSpline
210
0.0
220
0.0
230
1.0
 70
     8
 71
     3
 72
    14
 73
    10
 74
     0
 42
0.000000001
 43
0.0000000001
 40
0.0250699749279236
 40
0.0250699749279236
 40
0.0250699749279236
 40
0.0250699749279236
 40
0.025726712080002
 40
0.025726712080002
 40
0.0325075610916212
 40
0.0325075610916212
 40
0.036089905430828
 40
0.036089905430828
 40
0.0364461105106723
 40
0.0364461105106723
 40
0.0364461105106723
 40
0.0364461105106723
 10
-35.00438009977094
 20
3.848926802769732
 30
0.0
 10
-35.00438009976273
 20
3.848926802924489
 30
0.0
 10
-35.00437862536764
 20
3.848954584475902
 30
0.0
 10
-35.00434683035889
 20
3.849557703851779
 30
0.0
 10
-35.00417716963083
 20
3.852833128018198
 30
0.0
 10
-35.00389201538379
 20
3.858847378369675
 30
0.0
 10
-35.0037685713499
 20
3.861561882978533
 30
0.0
 10
-35.00373221005184
 20
3.862371955723223
 30
0.0
 10
-35.00373023011338
 20
3.862416142741528
 30
0.0
 10
-35.0037302300771
 20
3.862416143551085
 30
0.0
  0
SPLINE
  5
A7A0
330
A784
100
AcDbEntity
  8
0
100
AcDbSpline
210
0.0
220
0.0
230
1.0
 70
     8
 71
     3
 72
    36
 73
    32
 74
     0
 42
0.000000001
 43
0.0000000001
 40
0.0476072452386991
 40
0.0476072452386991
 40
0.0476072452386991
 40
0.0476072452386991
 40
0.0482019045783589
 40
0.0482019045783589
 40
0.0520305309713247
 40
0.0520305309713247
 40
0.0580617998889742
 40
0.0580617998889742
 40
0.0664782436832776
 40
0.0664782436832776
 40
0.070180348781918
 40
0.070180348781918
 40
0.0716764175382247
 40
0.0716764175382247
 40
0.0727361293675443
 40
0.0727361293675443
 40
0.0732983067407627
 40
0.0732983067407627
 40
0.0735333662759341
 40
0.0735333662759341
 40
0.0737708452453586
 40
0.0737708452453586
 40
0.0739325208390249
 40
0.0739325208390249
 40
0.0740946668691846
 40
0.0740946668691846
 40
0.0742563508335123
 40
0.0742563508335123
 40
0.0745816116992259
 40
0.0745816116992259
 40
0.0747632917998735
 40
0.0747632917998735
 40
0.0747632917998735
 40
0.0747632917998735
 10
-35.00569879692617
 20
3.824240555168774
 30
0.0
 10
-35.00569879692347
 20
3.824240555215427
 30
0.0
 10
-35.00569638074278
 20
3.824282409042695
 30
0.0
 10
-35.00566205100443
 20
3.824878876032737
 30
0.0
 10
-35.00554151560432
 20
3.82697186995412
 30
0.0
 10
-35.00510629997855
 20
3.834896167435223
 30
0.0
 10
-35.00471949621914
 20
3.842194634058393
 30
0.0
 10
-35.00367505067087
 20
3.86419378620682
 30
0.0
 10
-35.00294276777369
 20
3.881270445061015
 30
0.0
 10
-35.00193924870181
 20
3.911194877657769
 30
0.0
 10
-35.00163735858158
 20
3.921117547467023
 30
0.0
 10
-35.00124029817031
 20
3.935985948803804
 30
0.0
 10
-35.00112869596509
 20
3.940388437033215
 30
0.0
 10
-35.00094335318248
 20
3.948145298676887
 30
0.0
 10
-35.00086776511982
 20
3.951443053129456
 30
0.0
 10
-35.00075398764487
 20
3.956645431750152
 30
0.0
 10
-35.00071459896154
 20
3.95849157552726
 30
0.0
 10
-35.00065959976669
 20
3.961139204557712
 30
0.0
 10
-35.00064340877628
 20
3.961927412565409
 30
0.0
 10
-35.00061151390144
 20
3.963497706526127
 30
0.0
 10
-35.00059557722805
 20
3.964291732927395
 30
0.0
 10
-35.00057075837825
 20
3.965541583286168
 30
0.0
 10
-35.00056112213599
 20
3.966030767088412
 30
0.0
 10
-35.00054395474353
 20
3.966907589824051
 30
0.0
 10
-35.00053629312215
 20
3.967301819320982
 30
0.0
 10
-35.00052369543148
 20
3.967952719811492
 30
0.0
 10
-35.00051861003647
 20
3.9682169974744
 30
0.0
 10
-35.00050658724681
 20
3.968843208851631
 30
0.0
 10
-35.00050261301191
 20
3.969052162235609
 30
0.0
 10
-35.00049959273956
 20
3.969210665426595
 30
0.0
 10
-35.00049915074275
 20
3.969233897376808
 30
0.0
 10
-35.00049915075214
 20
3.969233896883428
 30
0.0
  0
SPLINE
  5
A7A1
330
A784
100
AcDbEntity
  8
0
100
AcDbSpline
210
0.0
220
0.0
230
1.0
 70
     8
 71
     3
 72
    20
 73
    16
 74
     0
 42
0.000000001
 43
0.0000000001
 40
0.1034043086531181
 40
0.1034043086531181
 40
0.1034043086531181
 40
0.1034043086531181
 40
0.1036985765547987
 40
0.1036985765547987
 40
0.104171765830923
 40
0.104171765830923
 40
0.1049673783265154
 40
0.1049673783265154
 40
0.1057327928469547
 40
0.1057327928469547
 40
0.1070743069890495
 40
0.1070743069890495
 40
0.1101515869150991
 40
0.1101515869150991
 40
0.1184305725431205
 40
0.1184305725431205
 40
0.1184305725431205
 40
0.1184305725431205
 10
-35.00299632665273
 20
3.880049798737173
 30
0.0
 10
-35.00299632662861
 20
3.880049799362353
 30
0.0
 10
-35.0029948456766
 20
3.880088145057107
 30
0.0
 10
-35.0029859589128
 20
3.880318758837209
 30
0.0
 10
-35.00297531434308
 20
3.880594945762456
 30
0.0
 10
-35.00293024613947
 20
3.881774005255826
 30
0.0
 10
-35.00288311540927
 20
3.883014536761494
 30
0.0
 10
-35.00277254611988
 20
3.88600214944861
 30
0.0
 10
-35.00270997689419
 20
3.88772458974155
 30
0.0
 10
-35.00253319499768
 20
3.892731497986248
 30
0.0
 10
-35.00241470028846
 20
3.896240287370956
 30
0.0
 10
-35.00203719846281
 20
3.908073350406433
 30
0.0
 10
-35.00179170745497
 20
3.916845585299206
 30
0.0
 10
-35.00100691468334
 20
3.949636543886296
 30
0.0
 10
-35.00066597565794
 20
3.974616144506962
 30
0.0
 10
-35.00049093616214
 20
4.000003307383525
 30
0.0
  0
SPLINE
  5
A7A2
330
A784
100
AcDbEntity
  8
0
100
AcDbSpline
210
0.0
220
0.0
230
1.0
 70
     8
 71
     3
 72
    32
 73
    28
 74
     0
 42
0.000000001
 43
0.0000000001
 40
0.0
 40
0.0
 40
0.0
 40
0.0
 40
0.0062834381535811
 40
0.0062834381535811
 40
0.0147058049917523
 40
0.0147058049917523
 40
0.0373755793870817
 40
0.0373755793870817
 40
0.0501947864890608
 40
0.0501947864890608
 40
0.0667265035161498
 40
0.0667265035161498
 40
0.0742906734132381
 40
0.0742906734132381
 40
0.0802483921886052
 40
0.0802483921886052
 40
0.0850816717563768
 40
0.0850816717563768
 40
0.0887113810629735
 40
0.0887113810629735
 40
0.0911689436866483
 40
0.0911689436866483
 40
0.0929311549020106
 40
0.0929311549020106
 40
0.0957602881661631
 40
0.0957602881661631
 40
0.0967606331268923
 40
0.0967606331268923
 40
0.0967606331268923
 40
0.0967606331268923
 10
-37.56214430292084
 20
2.000020290751296
 30
0.0
 10
-37.54700960595533
 20
2.000021425462917
 30
0.0
 10
-37.52948500196966
 20
2.000028425796116
 30
0.0
 10
-37.48709187810797
 20
2.000060615576026
 30
0.0
 10
-37.46142391793329
 20
2.000092345612161
 30
0.0
 10
-37.36626722165905
 20
2.000257841536102
 30
0.0
 10
-37.29520834501161
 20
2.000490386303056
 30
0.0
 10
-37.18816022247417
 20
2.00091225318214
 30
0.0
 10
-37.15315286415692
 20
2.001031881989456
 30
0.0
 10
-37.07005262643599
 20
2.001571974329557
 30
0.0
 10
-37.01830295917471
 20
2.002077321681018
 30
0.0
 10
-36.93976339608543
 20
2.004016812789968
 30
0.0
 10
-36.91447637120639
 20
2.004811672106949
 30
0.0
 10
-36.86944309138353
 20
2.006675242080417
 30
0.0
 10
-36.84947739899175
 20
2.00765889091047
 30
0.0
 10
-36.81421215977746
 20
2.009735979562287
 30
0.0
 10
-36.79857684721265
 20
2.010784990534065
 30
0.0
 10
-36.77269140011149
 20
2.01274854959951
 30
0.0
 10
-36.76194954845558
 20
2.013641638508125
 30
0.0
 10
-36.74571513724713
 20
2.015098923777312
 30
0.0
 10
-36.73958229713562
 20
2.015681741015336
 30
0.0
 10
-36.73045851058047
 20
2.016586131843979
 30
0.0
 10
-36.72703716689509
 20
2.016937915779502
 30
0.0
 10
-36.71963202194897
 20
2.017717595592984
 30
0.0
 10
-36.71655527014592
 20
2.018062224883237
 30
0.0
 10
-36.71490106791395
 20
2.01824903466867
 30
0.0
 10
-36.71468570212858
 20
2.018273762127537
 30
0.0
 10
-36.71468571209267
 20
2.018273760984851
 30
0.0
  0
LINE
  5
A7A3
330
A784
100
AcDbEntity
  8
0
100
AcDbLine
 10
-35.00000000000001
 20
2.000000000000014
 30
0.0
 11
-31.00000000000001
 21
2.000000000000007
 31
0.0
  0
LINE
  5
A7A4
330
A784
100
AcDbEntity
  8
0
100
AcDbLine
 10
-30.99999999999998
 20
86.00000000000001
 30
0.0
 11
-34.99999999999999
 21
86.00000000000001
 31
0.0
  0
LINE
  5
A7A5
330
A784
100
AcDbEntity
  8
0
100
AcDbLine
 10
-35.0
 20
2.000000000000014
 30
0.0
 11
-34.99999999999999
 21
86.00000000000001
 31
0.0
  0
LINE
  5
A7A6
330
A784
100
AcDbEntity
  8
0
100
AcDbLine
 10
35.00000000000001
 20
2.000000000000014
 30
0.0
 11
31.00000000000001
 21
2.000000000000007
 31
0.0
  0
LINE
  5
A7A7
330
A784
100
AcDbEntity
  8
0
100
AcDbLine
 10
35.0
 20
2.000000000000014
 30
0.0
 11
34.99999999999999
 21
86.00000000000001
 31
0.0
  0
LINE
  5
A7A8
330
A784
100
AcDbEntity
  8
0
100
AcDbLine
 10
30.99999999999998
 20
86.00000000000001
 30
0.0
 11
34.99999999999999
 21
86.00000000000001
 31
0.0
  0
LINE
  5
A7A9
330
A784
100
AcDbEntity
  8
0
100
AcDbLine
 10
74.50000000000004
 20
0.0
 30
0.0
 11
37.60606060606059
 21
0.0
 31
0.0
  0
LINE
  5
A7AA
330
A784
100
AcDbEntity
  8
0
100
AcDbLine
 10
74.50000000000004
 20
1.999999999999992
 30
0.0
 11
74.50000000000004
 21
0.0
 31
0.0
  0
LINE
  5
A7AB
330
A784
100
AcDbEntity
  8
0
100
AcDbLine
 10
37.60606060606059
 20
2.000000000000007
 30
0.0
 11
74.50000000000004
 21
1.999999999999992
 31
0.0
  0
LINE
  5
A7AC
330
A784
100
AcDbEntity
  8
0
100
AcDbLine
 10
-74.50000000000004
 20
1.999999999999992
 30
0.0
 11
-37.60606060606059
 21
2.000000000000007
 31
0.0
  0
LINE
  5
A7AD
330
A784
100
AcDbEntity
  8
0
100
AcDbLine
 10
-74.50000000000004
 20
0.0
 30
0.0
 11
-74.50000000000004
 21
1.999999999999992
 31
0.0
  0
LINE
  5
A7AE
330
A784
100
AcDbEntity
  8
0
100
AcDbLine
 10
-37.60606060606059
 20
0.0
 30
0.0
 11
-74.50000000000004
 21
0.0
 31
0.0
  0
ENDBLK
  5
A786
330
A784
100
AcDbEntity
  8
0
100
AcDbBlockEnd
  0
BLOCK
  5
A7B0
330
A7AF
100
AcDbEntity
  8
0
100
AcDbBlockBegin
  2
SAE440_66_2-ISO
 70
     0
 10
0.0
 20
0.0
 30
0.0
  3
SAE440_66_2-ISO
  1

  0
LINE
  5
A7B2
330
A7AF
100
AcDbEntity
  8
0
100
AcDbLine
 10
53.51265649902142
 20
-51.16235974847447
 30
0.0
 11
52.09844293664833
 21
-51.97885632940219
 31
0.0
  0
SPLINE
  5
A7B3
330
A7AF
100
AcDbEntity
  8
0
100
AcDbSpline
210
0.0
220
0.0
230
1.0
 70
     8
 71
     3
 72
    14
 73
    10
 74
     0
 42
0.000000001
 43
0.0000000001
 40
0.0
 40
0.0
 40
0.0
 40
0.0
 40
0.3435149368906571
 40
0.3435149368906571
 40
0.3435149368906571
 40
0.7569946176686826
 40
0.7569946176686826
 40
0.7569946176686826
 40
1.0
 40
1.0
 40
1.0
 40
1.0
 10
55.35541962574995
 20
-50.1340070471166
 30
0.0
 10
55.12830433917705
 20
-50.21520416285931
 30
0.0
 10
54.83892817466394
 20
-50.23102769289295
 30
0.0
 10
54.55761771338242
 20
-50.2589009699297
 30
0.0
 10
54.21901188510887
 20
-50.29245128304191
 30
0.0
 10
53.8918252179778
 20
-50.34405656448293
 30
0.0
 10
53.69742614932897
 20
-50.5694600690437
 30
0.0
 10
53.58317623041407
 20
-50.70193154793606
 30
0.0
 10
53.5124763419192
 20
-50.86996900406851
 30
0.0
 10
53.51265649866488
 20
-51.16235974691337
 30
0.0
  0
LINE
  5
A7B4
330
A7AF
100
AcDbEntity
  8
0
100
AcDbLine
 10
54.92687006139451
 20
-49.88658384077489
 30
0.0
 11
55.35541962574997
 21
-50.13400704711663
 31
0.0
  0
ELLIPSE
  5
A7B5
330
A7AF
100
AcDbEntity
  8
0
100
AcDbEllipse
 10
53.51265649902142
 20
-50.70308042170262
 30
0.0
 11
1.999999999999996
 21
-0.000000000000119
 31
0.0
210
0.0
220
0.0
230
1.0
 40
0.5773502691896258
 41
0.7853981633976899
 42
2.356194490192619
  0
LINE
  5
A7B6
330
A7AF
100
AcDbEntity
  8
0
100
AcDbLine
 10
52.09844293664833
 20
-50.08834030913752
 30
0.0
 11
52.09844293664833
 21
-49.8865838407749
 31
0.0
  0
LINE
  5
A7B7
330
A7AF
100
AcDbEntity
  8
0
100
AcDbLine
 10
52.09844293664833
 20
-51.10316029428839
 30
0.0
 11
52.09844293664833
 21
-50.08834030913752
 31
0.0
  0
LINE
  5
A7B8
330
A7AF
100
AcDbEntity
  8
0
100
AcDbLine
 10
52.09844293664833
 20
-51.11510029355767
 30
0.0
 11
52.09844293664833
 21
-51.10316029428839
 31
0.0
  0
LINE
  5
A7B9
330
A7AF
100
AcDbEntity
  8
0
100
AcDbLine
 10
52.09844293664833
 20
-51.97885632940219
 30
0.0
 11
52.09844293664833
 21
-51.11510029355767
 31
0.0
  0
ELLIPSE
  5
A7BA
330
A7AF
100
AcDbEntity
  8
0
100
AcDbEllipse
 10
-17.90512840081986
 20
-87.49645759975825
 30
0.0
 11
-2.5
 21
-0.0000000000001492
 31
0.0
210
0.0
220
0.0
230
1.0
 40
0.5773502691896258
 41
3.742856870268575
 42
5.68192109050012
  0
ELLIPSE
  5
A7BB
330
A7AF
100
AcDbEntity
  8
0
100
AcDbEllipse
 10
-3.762992777088904
 20
-79.331491790481
 30
0.0
 11
-2.5
 21
0.0000000000000001
 31
0.0
210
0.0
220
0.0
230
1.0
 40
0.5773502691896257
 41
4.376519709032351
 42
5.681921090500463
  0
LINE
  5
A7BC
330
A7AF
100
AcDbEntity
  8
0
100
AcDbLine
 10
-8.712740245394767
 20
-107.5006238324875
 30
0.0
 11
-52.5533606789607
 21
-82.18922982372806
 31
0.0
  0
LINE
  5
A7BD
330
A7AF
100
AcDbEntity
  8
0
100
AcDbLine
 10
5.429395378336185
 20
-23.40147599693178
 30
0.0
 11
5.42939537833619
 21
-43.81389052012493
 31
0.0
  0
LINE
  5
A7BE
330
A7AF
100
AcDbEntity
  8
0
100
AcDbLine
 10
14.78645223622937
 20
-50.84918297770766
 30
0.0
 11
6.843608940709273
 21
-46.2633802629081
 31
0.0
  0
LINE
  5
A7BF
330
A7AF
100
AcDbEntity
  8
0
100
AcDbLine
 10
-52.5533606789607
 20
-80.5562366618726
 30
0.0
 11
-8.712740245394767
 21
-105.8676306706321
 31
0.0
  0
ELLIPSE
  5
A7C0
330
A7AF
100
AcDbEntity
  8
0
100
AcDbEllipse
 10
-3.762992777088904
 20
-77.69849862862554
 30
0.0
 11
-2.5
 21
0.0000000000000002
 31
0.0
210
0.0
220
0.0
230
1.0
 40
0.5773502691896259
 41
3.967723016734295
 42
7.876974031558695
  0
ELLIPSE
  5
A7C1
330
A7AF
100
AcDbEntity
  8
0
100
AcDbEllipse
 10
-17.90512840081986
 20
-85.86346443790279
 30
0.0
 11
-2.499999999999999
 21
0.0000000000001492
 31
0.0
210
0.0
220
0.0
230
1.0
 40
0.5773502691896259
 41
0.0
 42
6.283185307179586
  0
LINE
  5
A7C2
330
A7AF
100
AcDbEntity
  8
0
100
AcDbLine
 10
5.429395378336185
 20
-23.40147599693178
 30
0.0
 11
5.344153472329602
 21
-23.45069043431092
 31
0.0
  0
SPLINE
  5
A7C3
330
A7AF
100
AcDbEntity
  8
0
100
AcDbSpline
210
0.0
220
0.0
230
1.0
 70
     8
 71
     3
 72
    11
 73
     7
 74
     0
 42
0.000000001
 43
0.0000000001
 40
-1.0
 40
-1.0
 40
-1.0
 40
-1.0
 40
-0.7994286890857909
 40
-0.7994286890857909
 40
-0.7994286890857909
 40
-0.6581156081501034
 40
-0.6581156081501034
 40
-0.6581156081501034
 40
-0.6581156081501034
 10
5.429395378336185
 20
-23.40147599693178
 30
0.0
 10
5.430036613924502
 20
-23.00686391035082
 30
0.0
 10
5.396730295873157
 20
-22.64811562192133
 30
0.0
 10
5.339759176848546
 20
-22.30677889144524
 30
0.0
 10
5.299620014786805
 20
-22.06628913844801
 30
0.0
 10
5.245157238800048
 20
-21.83641295177524
 30
0.0
 10
5.178010677217672
 20
-21.61358074506248
 30
0.0
  0
ELLIPSE
  5
A7C4
330
A7AF
100
AcDbEntity
  8
0
100
AcDbEllipse
 10
1.186754691216909
 20
-20.49270692737677
 30
0.0
 11
3.999999999999998
 21
-0.0000000000000001
 31
0.0
210
0.0
220
0.0
230
1.0
 40
0.5773502691896258
 41
6.058746940109659
 42
6.283185307179586
  0
ELLIPSE
  5
A7C5
330
A7AF
100
AcDbEntity
  8
0
100
AcDbEllipse
 10
1.186754691216909
 20
-20.49270692737677
 30
0.0
 11
3.999999999999998
 21
0.0000000000000001
 31
0.0
210
0.0
220
0.0
230
1.0
 40
0.5773502691896258
 41
5.497787143782123
 42
6.058746940109657
  0
LINE
  5
A7C6
330
A7AF
100
AcDbEntity
  8
0
100
AcDbLine
 10
4.015181815963098
 20
-22.12570008923222
 30
0.0
 11
4.015181815963098
 21
-22.32012650476558
 31
0.0
  0
LINE
  5
A7C7
330
A7AF
100
AcDbEntity
  8
0
100
AcDbLine
 10
4.015181815963098
 20
-22.32012650476558
 30
0.0
 11
4.015181815963098
 21
-24.21797257785951
 31
0.0
  0
LINE
  5
A7C8
330
A7AF
100
AcDbEntity
  8
0
100
AcDbLine
 10
5.344153472329602
 20
-23.45069043431092
 30
0.0
 11
4.015181815963098
 21
-24.21797257785951
 31
0.0
  0
SPLINE
  5
A7C9
330
A7AF
100
AcDbEntity
  8
0
100
AcDbSpline
210
0.0
220
0.0
230
1.0
 70
     8
 71
     3
 72
    16
 73
    12
 74
     0
 42
0.000000001
 43
0.0000000001
 40
0.0
 40
0.0
 40
0.0
 40
0.0
 40
0.0351313006885254
 40
0.0351313006885254
 40
0.0553444814917563
 40
0.0553444814917563
 40
0.0804040102877782
 40
0.0804040102877782
 40
0.1060339374753691
 40
0.1060339374753691
 40
0.116437692336449
 40
0.116437692336449
 40
0.116437692336449
 40
0.116437692336449
 10
5.175381400191669
 20
-20.6667340374899
 30
0.0
 10
5.160183511984945
 20
-20.7828441060793
 30
0.0
 10
5.145250059829309
 20
-20.90109540450323
 30
0.0
 10
5.130397671613935
 20
-21.07848213656537
 30
0.0
 10
5.126822755136468
 20
-21.14199506341453
 30
0.0
 10
5.124581317978496
 20
-21.27309235071552
 30
0.0
 10
5.127317019506749
 20
-21.33894870306075
 30
0.0
 10
5.139183201374906
 20
-21.454394741843
 30
0.0
 10
5.14824053462735
 20
-21.5050194551895
 30
0.0
 10
5.165056535474406
 20
-21.5737892640799
 30
0.0
 10
5.170432495479975
 20
-21.5934735215547
 30
0.0
 10
5.176519693349397
 20
-21.61371836855753
 30
0.0
  0
ELLIPSE
  5
A7CA
330
A7AF
100
AcDbEntity
  8
0
100
AcDbEllipse
 10
6.843608940709282
 20
-44.63038710105265
 30
0.0
 11
1.000000000000106
 21
-1.732050807568816
 31
0.0
210
0.0
220
0.0
230
1.0
 40
0.5773502691896267
 41
3.926990816986995
 42
5.497787143781893
  0
LINE
  5
A7CB
330
A7AF
100
AcDbEntity
  8
0
100
AcDbLine
 10
6.843608940709273
 20
-46.2633802629081
 30
0.0
 11
-52.5533606789607
 21
-80.5562366618726
 31
0.0
  0
ELLIPSE
  5
A7CC
330
A7AF
100
AcDbEntity
  8
0
100
AcDbEllipse
 10
-52.5533606789607
 20
-78.92324350001715
 30
0.0
 11
2.000000000000208
 21
-3.464101615137637
 31
0.0
210
0.0
220
0.0
230
1.0
 40
0.577350269189626
 41
3.926990816986997
 42
5.497787143781893
  0
LINE
  5
A7CD
330
A7AF
100
AcDbEntity
  8
0
100
AcDbLine
 10
-53.96757424133379
 20
-78.10674691908942
 30
0.0
 11
5.42939537833619
 21
-43.81389052012493
 31
0.0
  0
LINE
  5
A7CE
330
A7AF
100
AcDbEntity
  8
0
100
AcDbLine
 10
-55.38178780370689
 20
-77.2902503381617
 30
0.0
 11
-53.96757424133379
 21
-78.10674691908942
 31
0.0
  0
LINE
  5
A7CF
330
A7AF
100
AcDbEntity
  8
0
100
AcDbLine
 10
-52.5533606789607
 20
-82.18922982372806
 30
0.0
 11
-52.5533606789607
 21
-80.5562366618726
 31
0.0
  0
ELLIPSE
  5
A7D0
330
A7AF
100
AcDbEntity
  8
0
100
AcDbEllipse
 10
-52.5533606789607
 20
-78.92324350001715
 30
0.0
 11
1.000000000000104
 21
-1.732050807568818
 31
0.0
210
0.0
220
0.0
230
1.0
 40
0.577350269189626
 41
3.926990816986995
 42
5.497787143781896
  0
LINE
  5
A7D1
330
A7AF
100
AcDbEntity
  8
0
100
AcDbLine
 10
53.5126564990214
 20
-71.5747742716676
 30
0.0
 11
53.51265649902142
 21
-51.16235974847447
 31
0.0
  0
ELLIPSE
  5
A7D2
330
A7AF
100
AcDbEntity
  8
0
100
AcDbEllipse
 10
50.68422937427524
 20
-69.94178110981216
 30
0.0
 11
1.999999999999993
 21
-3.464101615137757
 31
0.0
210
0.0
220
0.0
230
1.0
 40
0.577350269189625
 41
0.0000000000000034
 42
0.7853981633974531
  0
LINE
  5
A7D3
330
A7AF
100
AcDbEntity
  8
0
100
AcDbLine
 10
-8.712740245394767
 20
-105.8676306706321
 30
0.0
 11
-7.298526683021666
 21
-105.0511340897043
 31
0.0
  0
LINE
  5
A7D4
330
A7AF
100
AcDbEntity
  8
0
100
AcDbLine
 10
53.5126564990214
 20
-71.5747742716676
 30
0.0
 11
-5.884313120648583
 21
-105.8676306706321
 31
0.0
  0
ELLIPSE
  5
A7D5
330
A7AF
100
AcDbEntity
  8
0
100
AcDbEllipse
 10
-8.712740245394773
 20
-104.2346375087766
 30
0.0
 11
2.000000000000002
 21
-3.464101615137757
 31
0.0
210
0.0
220
0.0
230
1.0
 40
0.5773502691896259
 41
5.497787143782137
 42
7.068583470577033
  0
LINE
  5
A7D6
330
A7AF
100
AcDbEntity
  8
0
100
AcDbLine
 10
81.44337435589008
 20
-40.34378005118213
 30
0.0
 11
82.85758791826317
 21
-39.52728347025441
 31
0.0
  0
LINE
  5
A7D7
330
A7AF
100
AcDbEntity
  8
0
100
AcDbLine
 10
55.35541962574997
 20
-50.13400704711663
 30
0.0
 11
81.44337435589008
 21
-40.34378005118213
 31
0.0
  0
ELLIPSE
  5
A7D8
330
A7AF
100
AcDbEntity
  8
0
100
AcDbEllipse
 10
69.06900568512547
 20
55.79869235305761
 30
0.0
 11
-3.250000000000001
 21
5.62916512459885
 31
0.0
210
0.0
220
0.0
230
0.9999999999999998
 40
0.577350269189626
 41
0.2193254863005874
 42
2.9222671672892
  0
ELLIPSE
  5
A7D9
330
A7AF
100
AcDbEntity
  8
0
100
AcDbEllipse
 10
76.8471802781775
 20
63.55540987187102
 30
0.0
 11
1.250000000000129
 21
-2.165063509461021
 31
0.0
210
0.0
220
0.0
230
1.0
 40
0.5773502691896259
 41
3.74285687026858
 42
5.681921090500121
  0
LINE
  5
A7DA
330
A7AF
100
AcDbEntity
  8
0
100
AcDbLine
 10
56.3410836237676
 20
79.47709319996168
 30
0.0
 11
82.85758791826314
 21
64.16778230756681
 31
0.0
  0
LINE
  5
A7DB
330
A7AF
100
AcDbEntity
  8
0
100
AcDbLine
 10
82.85758791826317
 20
-39.52728347025441
 30
0.0
 11
82.85758791826314
 21
64.16778230756681
 31
0.0
  0
ELLIPSE
  5
A7DC
330
A7AF
100
AcDbEntity
  8
0
100
AcDbEllipse
 10
53.51265649902142
 20
77.84410003810624
 30
0.0
 11
3.999999999999998
 21
-0.0000000000002379
 31
0.0
210
0.0
220
0.0
230
1.0
 40
0.5773502691896258
 41
0.7853981633976926
 42
2.356194490192585
  0
ELLIPSE
  5
A7DD
330
A7AF
100
AcDbEntity
  8
0
100
AcDbEllipse
 10
26.28904542333933
 20
53.14507846504252
 30
0.0
 11
1.249999999999871
 21
2.16506350946117
 31
0.0
210
0.0
220
0.0
230
1.0
 40
0.5773502691896259
 41
3.742856870268578
 42
5.681921090500104
  0
ELLIPSE
  5
A7DE
330
A7AF
100
AcDbEntity
  8
0
100
AcDbEllipse
 10
27.70325898571242
 20
52.32858188411477
 30
0.0
 11
-1.25
 21
-2.165063509461095
 31
0.0
210
0.0
220
0.0
230
1.0
 40
0.577350269189626
 41
0.0
 42
6.283185307179586
  0
LINE
  5
A7DF
330
A7AF
100
AcDbEntity
  8
0
100
AcDbLine
 10
-7.298526683021706
 20
-84.63871956651123
 30
0.0
 11
20.98574456444021
 21
-41.36440077734179
 31
0.0
  0
LINE
  5
A7E0
330
A7AF
100
AcDbEntity
  8
0
100
AcDbLine
 10
-5.884313120648609
 20
-85.45521614743897
 30
0.0
 11
-7.298526683021706
 21
-84.63871956651123
 31
0.0
  0
LINE
  5
A7E1
330
A7AF
100
AcDbEntity
  8
0
100
AcDbLine
 10
22.39995812681331
 20
-42.18089735826952
 30
0.0
 11
-5.884313120648609
 21
-85.45521614743897
 31
0.0
  0
LINE
  5
A7E2
330
A7AF
100
AcDbEntity
  8
0
100
AcDbLine
 10
22.39995812681331
 20
-42.18089735826952
 30
0.0
 11
20.98574456444021
 21
-41.36440077734179
 31
0.0
  0
LINE
  5
A7E3
330
A7AF
100
AcDbEntity
  8
0
100
AcDbLine
 10
20.98574456444021
 20
-41.36440077734179
 30
0.0
 11
20.98574456444023
 21
62.33066500047944
 31
0.0
  0
LINE
  5
A7E4
330
A7AF
100
AcDbEntity
  8
0
100
AcDbLine
 10
22.39995812681332
 20
61.51416841955171
 30
0.0
 11
22.39995812681331
 21
-42.18089735826951
 31
0.0
  0
LINE
  5
A7E5
330
A7AF
100
AcDbEntity
  8
0
100
AcDbLine
 10
20.98574456444023
 20
62.33066500047944
 30
0.0
 11
22.39995812681332
 21
61.51416841955171
 31
0.0
  0
LINE
  5
A7E6
330
A7AF
100
AcDbEntity
  8
0
100
AcDbLine
 10
-5.884313120648609
 20
-85.45521614743897
 30
0.0
 11
-5.884313120648583
 21
-105.8676306706321
 31
0.0
  0
LINE
  5
A7E7
330
A7AF
100
AcDbEntity
  8
0
100
AcDbLine
 10
52.09844293664833
 20
-49.8865838407749
 30
0.0
 11
52.09844293664833
 21
78.66059661903394
 31
0.0
  0
LINE
  5
A7E8
330
A7AF
100
AcDbEntity
  8
0
100
AcDbLine
 10
52.09844293664833
 20
78.66059661903396
 30
0.0
 11
22.39995812681332
 21
61.51416841955171
 31
0.0
  0
LINE
  5
A7E9
330
A7AF
100
AcDbEntity
  8
0
100
AcDbLine
 10
20.98574456444023
 20
62.33066500047944
 30
0.0
 11
50.68422937427524
 21
79.47709319996168
 31
0.0
  0
LINE
  5
A7EA
330
A7AF
100
AcDbEntity
  8
0
100
AcDbLine
 10
-7.298526683021675
 20
-105.0511340897043
 30
0.0
 11
-7.298526683021706
 21
-84.63871956651123
 31
0.0
  0
LINE
  5
A7EB
330
A7AF
100
AcDbEntity
  8
0
100
AcDbLine
 10
-8.712740245394767
 20
-105.8676306706321
 30
0.0
 11
-8.712740245394767
 21
-107.5006238324875
 31
0.0
  0
LINE
  5
A7EC
330
A7AF
100
AcDbEntity
  8
0
100
AcDbLine
 10
-7.298526683021675
 20
-105.0511340897043
 30
0.0
 11
-5.884313120648583
 21
-105.8676306706321
 31
0.0
  0
ELLIPSE
  5
A7ED
330
A7AF
100
AcDbEntity
  8
0
100
AcDbEllipse
 10
-8.712740245394773
 20
-104.2346375087766
 30
0.0
 11
1.000000000000001
 21
-1.732050807568878
 31
0.0
210
0.0
220
0.0
230
1.0
 40
0.5773502691896259
 41
5.497787143782142
 42
7.068583470577038
  0
LINE
  5
A7EE
330
A7AF
100
AcDbEntity
  8
0
100
AcDbLine
 10
54.92687006139451
 20
-49.8865838407749
 30
0.0
 11
54.92687006139451
 21
78.66059661903398
 31
0.0
  0
ELLIPSE
  5
A7EF
330
A7AF
100
AcDbEntity
  8
0
100
AcDbEllipse
 10
53.51265649902142
 20
77.84410003810624
 30
0.0
 11
-1.999999999999997
 21
-0.0000000000001198
 31
0.0
210
0.0
220
0.0
230
1.0
 40
0.5773502691896258
 41
3.926990816987007
 42
5.497787143781899
  0
LINE
  5
A7F0
330
A7AF
100
AcDbEntity
  8
0
100
AcDbLine
 10
82.85758791826314
 20
64.16778230756681
 30
0.0
 11
81.44337435589006
 21
63.35128572663909
 31
0.0
  0
LINE
  5
A7F1
330
A7AF
100
AcDbEntity
  8
0
100
AcDbLine
 10
81.44337435589008
 20
-40.34378005118213
 30
0.0
 11
81.44337435589006
 21
63.35128572663908
 31
0.0
  0
LINE
  5
A7F2
330
A7AF
100
AcDbEntity
  8
0
100
AcDbLine
 10
52.09844293664833
 20
78.66059661903396
 30
0.0
 11
50.68422937427524
 21
79.47709319996168
 31
0.0
  0
LINE
  5
A7F3
330
A7AF
100
AcDbEntity
  8
0
100
AcDbLine
 10
54.92687006139451
 20
78.66059661903396
 30
0.0
 11
56.3410836237676
 21
79.47709319996168
 31
0.0
  0
LINE
  5
A7F4
330
A7AF
100
AcDbEntity
  8
0
100
AcDbLine
 10
81.44337435589006
 20
63.35128572663909
 30
0.0
 11
54.92687006139451
 21
78.66059661903396
 31
0.0
  0
ELLIPSE
  5
A7F5
330
A7AF
100
AcDbEntity
  8
0
100
AcDbEllipse
 10
67.65479212275238
 20
54.9821957721299
 30
0.0
 11
-3.25
 21
5.629165124598848
 31
0.0
210
0.0
220
0.0
230
0.9999999999999998
 40
0.577350269189626
 41
0.0
 42
6.283185307179586
  0
ELLIPSE
  5
A7F6
330
A7AF
100
AcDbEntity
  8
0
100
AcDbEllipse
 10
75.43296671580441
 20
62.7389132909433
 30
0.0
 11
-1.25
 21
2.165063509461095
 31
0.0
210
0.0
220
0.0
230
1.0
 40
0.577350269189626
 41
0.0
 42
6.283185307179586
  0
LINE
  5
A7F7
330
A7AF
100
AcDbEntity
  8
0
100
AcDbLine
 10
-6.712740245394774
 20
-107.6987391239144
 30
0.0
 11
52.68422937427522
 21
-73.40588272494992
 31
0.0
  0
ELLIPSE
  5
A7F8
330
A7AF
100
AcDbEntity
  8
0
100
AcDbEllipse
 10
69.06900568512547
 20
-25.85096573971497
 30
0.0
 11
-3.250000000000003
 21
5.629165124598854
 31
0.0
210
0.0
220
0.0
230
1.0
 40
0.5773502691896259
 41
0.2193254863005922
 42
2.9222671672892
  0
ELLIPSE
  5
A7F9
330
A7AF
100
AcDbEntity
  8
0
100
AcDbEllipse
 10
67.65479212275238
 20
-26.66746232064269
 30
0.0
 11
-3.25
 21
5.629165124598848
 31
0.0
210
0.0
220
0.0
230
0.9999999999999998
 40
0.577350269189626
 41
0.0
 42
6.283185307179586
  0
ELLIPSE
  5
A7FA
330
A7AF
100
AcDbEntity
  8
0
100
AcDbEllipse
 10
61.29083109207345
 20
-33.60768325852836
 30
0.0
 11
1.250000000000129
 21
-2.165063509461021
 31
0.0
210
0.0
220
0.0
230
1.0
 40
0.5773502691896259
 41
3.742856870268576
 42
5.681921090500121
  0
ELLIPSE
  5
A7FB
330
A7AF
100
AcDbEntity
  8
0
100
AcDbEllipse
 10
61.29083109207345
 20
-17.27775163997384
 30
0.0
 11
1.250000000000129
 21
-2.165063509461021
 31
0.0
210
0.0
220
0.0
230
1.0
 40
0.5773502691896259
 41
3.742856870268578
 42
5.681921090500121
  0
ELLIPSE
  5
A7FC
330
A7AF
100
AcDbEntity
  8
0
100
AcDbEllipse
 10
61.29083109207345
 20
-0.9478200214193233
 30
0.0
 11
1.250000000000129
 21
-2.165063509461021
 31
0.0
210
0.0
220
0.0
230
1.0
 40
0.5773502691896259
 41
3.742856870268578
 42
5.681921090500121
  0
ELLIPSE
  5
A7FD
330
A7AF
100
AcDbEntity
  8
0
100
AcDbEllipse
 10
61.29083109207345
 20
15.38211159713519
 30
0.0
 11
1.250000000000129
 21
-2.165063509461021
 31
0.0
210
0.0
220
0.0
230
1.0
 40
0.5773502691896259
 41
3.742856870268578
 42
5.681921090500121
  0
ELLIPSE
  5
A7FE
330
A7AF
100
AcDbEntity
  8
0
100
AcDbEllipse
 10
61.29083109207345
 20
31.71204321568973
 30
0.0
 11
1.250000000000129
 21
-2.165063509461021
 31
0.0
210
0.0
220
0.0
230
1.0
 40
0.5773502691896259
 41
3.742856870268576
 42
5.681921090500121
  0
ELLIPSE
  5
A7FF
330
A7AF
100
AcDbEntity
  8
0
100
AcDbEllipse
 10
61.29083109207345
 20
48.04197483424425
 30
0.0
 11
1.250000000000129
 21
-2.165063509461021
 31
0.0
210
0.0
220
0.0
230
1.0
 40
0.5773502691896259
 41
3.74285687026858
 42
5.681921090500122
  0
ELLIPSE
  5
A800
330
A7AF
100
AcDbEntity
  8
0
100
AcDbEllipse
 10
59.87661752970035
 20
-34.42417983945608
 30
0.0
 11
-1.25
 21
2.165063509461095
 31
0.0
210
0.0
220
0.0
230
1.0
 40
0.577350269189626
 41
0.0
 42
6.283185307179586
  0
ELLIPSE
  5
A801
330
A7AF
100
AcDbEntity
  8
0
100
AcDbEllipse
 10
59.87661752970035
 20
-18.09424822090157
 30
0.0
 11
-1.25
 21
2.165063509461095
 31
0.0
210
0.0
220
0.0
230
1.0
 40
0.577350269189626
 41
0.0
 42
6.283185307179586
  0
ELLIPSE
  5
A802
330
A7AF
100
AcDbEntity
  8
0
100
AcDbEllipse
 10
59.87661752970035
 20
-1.764316602347042
 30
0.0
 11
-1.25
 21
2.165063509461095
 31
0.0
210
0.0
220
0.0
230
1.0
 40
0.577350269189626
 41
0.0
 42
6.283185307179586
  0
ELLIPSE
  5
A803
330
A7AF
100
AcDbEntity
  8
0
100
AcDbEllipse
 10
59.87661752970035
 20
14.56561501620746
 30
0.0
 11
-1.25
 21
2.165063509461095
 31
0.0
210
0.0
220
0.0
230
1.0
 40
0.577350269189626
 41
0.0
 42
6.283185307179586
  0
ELLIPSE
  5
A804
330
A7AF
100
AcDbEntity
  8
0
100
AcDbEllipse
 10
59.87661752970035
 20
30.89554663476199
 30
0.0
 11
-1.25
 21
2.165063509461095
 31
0.0
210
0.0
220
0.0
230
1.0
 40
0.577350269189626
 41
0.0
 42
6.283185307179586
  0
ELLIPSE
  5
A805
330
A7AF
100
AcDbEntity
  8
0
100
AcDbEllipse
 10
59.87661752970035
 20
47.22547825331651
 30
0.0
 11
-1.25
 21
2.165063509461095
 31
0.0
210
0.0
220
0.0
230
1.0
 40
0.577350269189626
 41
0.0
 42
6.283185307179586
  0
ELLIPSE
  5
A806
330
A7AF
100
AcDbEntity
  8
0
100
AcDbEllipse
 10
61.29083109207345
 20
64.37190645279874
 30
0.0
 11
1.250000000000129
 21
-2.165063509461021
 31
0.0
210
0.0
220
0.0
230
1.0
 40
0.5773502691896259
 41
3.74285687026858
 42
5.681921090500121
  0
ELLIPSE
  5
A807
330
A7AF
100
AcDbEntity
  8
0
100
AcDbEllipse
 10
59.87661752970035
 20
63.55540987187102
 30
0.0
 11
-1.25
 21
2.165063509461095
 31
0.0
210
0.0
220
0.0
230
1.0
 40
0.577350269189626
 41
0.0
 42
6.283185307179586
  0
ELLIPSE
  5
A808
330
A7AF
100
AcDbEntity
  8
0
100
AcDbEllipse
 10
76.8471802781775
 20
-34.42417983945607
 30
0.0
 11
1.250000000000129
 21
-2.165063509461021
 31
0.0
210
0.0
220
0.0
230
1.0
 40
0.5773502691896259
 41
3.742856870268576
 42
5.681921090500121
  0
ELLIPSE
  5
A809
330
A7AF
100
AcDbEntity
  8
0
100
AcDbEllipse
 10
76.8471802781775
 20
-18.09424822090155
 30
0.0
 11
1.250000000000129
 21
-2.165063509461021
 31
0.0
210
0.0
220
0.0
230
1.0
 40
0.5773502691896259
 41
3.742856870268578
 42
5.681921090500121
  0
ELLIPSE
  5
A80A
330
A7AF
100
AcDbEntity
  8
0
100
AcDbEllipse
 10
76.8471802781775
 20
-1.764316602347042
 30
0.0
 11
1.250000000000129
 21
-2.165063509461021
 31
0.0
210
0.0
220
0.0
230
1.0
 40
0.5773502691896259
 41
3.742856870268578
 42
5.681921090500121
  0
ELLIPSE
  5
A80B
330
A7AF
100
AcDbEntity
  8
0
100
AcDbEllipse
 10
76.8471802781775
 20
14.56561501620746
 30
0.0
 11
1.250000000000129
 21
-2.165063509461021
 31
0.0
210
0.0
220
0.0
230
1.0
 40
0.5773502691896259
 41
3.742856870268578
 42
5.681921090500121
  0
ELLIPSE
  5
A80C
330
A7AF
100
AcDbEntity
  8
0
100
AcDbEllipse
 10
76.8471802781775
 20
30.89554663476199
 30
0.0
 11
1.250000000000129
 21
-2.165063509461021
 31
0.0
210
0.0
220
0.0
230
1.0
 40
0.5773502691896259
 41
3.742856870268576
 42
5.681921090500121
  0
ELLIPSE
  5
A80D
330
A7AF
100
AcDbEntity
  8
0
100
AcDbEllipse
 10
76.8471802781775
 20
47.22547825331649
 30
0.0
 11
1.250000000000129
 21
-2.165063509461021
 31
0.0
210
0.0
220
0.0
230
1.0
 40
0.5773502691896259
 41
3.74285687026858
 42
5.681921090500122
  0
ELLIPSE
  5
A80E
330
A7AF
100
AcDbEntity
  8
0
100
AcDbEllipse
 10
-17.90512840081987
 20
100.2977560136187
 30
0.0
 11
1.249999999999999
 21
-2.165063509461097
 31
0.0
210
0.0
220
0.0
230
0.9999999999999998
 40
0.5773502691896258
 41
0.0
 42
6.283185307179586
  0
ELLIPSE
  5
A80F
330
A7AF
100
AcDbEntity
  8
0
100
AcDbEllipse
 10
-16.49091483844678
 20
101.1142525945464
 30
0.0
 11
1.250000000000128
 21
-2.165063509461021
 31
0.0
210
0.0
220
0.0
230
0.9999999999999998
 40
0.5773502691896258
 41
3.742856870268589
 42
5.681921090500122
  0
ELLIPSE
  5
A810
330
A7AF
100
AcDbEntity
  8
0
100
AcDbEllipse
 10
75.43296671580441
 20
-35.2406764203838
 30
0.0
 11
-1.25
 21
2.165063509461095
 31
0.0
210
0.0
220
0.0
230
1.0
 40
0.577350269189626
 41
0.0
 42
6.283185307179586
  0
ELLIPSE
  5
A811
330
A7AF
100
AcDbEntity
  8
0
100
AcDbEllipse
 10
75.43296671580441
 20
-18.91074480182927
 30
0.0
 11
-1.25
 21
2.165063509461095
 31
0.0
210
0.0
220
0.0
230
1.0
 40
0.577350269189626
 41
0.0
 42
6.283185307179586
  0
ELLIPSE
  5
A812
330
A7AF
100
AcDbEntity
  8
0
100
AcDbEllipse
 10
75.43296671580441
 20
-2.580813183274761
 30
0.0
 11
-1.25
 21
2.165063509461095
 31
0.0
210
0.0
220
0.0
230
1.0
 40
0.577350269189626
 41
0.0
 42
6.283185307179586
  0
ELLIPSE
  5
A813
330
A7AF
100
AcDbEntity
  8
0
100
AcDbEllipse
 10
75.43296671580441
 20
13.74911843527974
 30
0.0
 11
-1.25
 21
2.165063509461095
 31
0.0
210
0.0
220
0.0
230
1.0
 40
0.577350269189626
 41
0.0
 42
6.283185307179586
  0
ELLIPSE
  5
A814
330
A7AF
100
AcDbEntity
  8
0
100
AcDbEllipse
 10
75.43296671580441
 20
30.07905005383427
 30
0.0
 11
-1.25
 21
2.165063509461095
 31
0.0
210
0.0
220
0.0
230
1.0
 40
0.577350269189626
 41
0.0
 42
6.283185307179586
  0
ELLIPSE
  5
A815
330
A7AF
100
AcDbEntity
  8
0
100
AcDbEllipse
 10
75.43296671580441
 20
46.40898167238877
 30
0.0
 11
-1.25
 21
2.165063509461095
 31
0.0
210
0.0
220
0.0
230
1.0
 40
0.577350269189626
 41
0.0
 42
6.283185307179586
  0
ELLIPSE
  5
A816
330
A7AF
100
AcDbEntity
  8
0
100
AcDbEllipse
 10
-10.12695380776785
 20
99.88950772315483
 30
0.0
 11
-3.250000000000004
 21
5.629165124598845
 31
0.0
210
0.0
220
0.0
230
0.9999999999999998
 40
0.577350269189626
 41
4.71238898038469
 42
7.853981633974483
  0
ELLIPSE
  5
A817
330
A7AF
100
AcDbEntity
  8
0
100
AcDbEllipse
 10
-8.712740245394758
 20
100.7060043040825
 30
0.0
 11
-3.249999999999999
 21
5.629165124598853
 31
0.0
210
0.0
220
0.0
230
1.0
 40
0.5773502691896255
 41
0.219325486300594
 42
1.570796326794898
  0
ELLIPSE
  5
A818
330
A7AF
100
AcDbEntity
  8
0
100
AcDbEllipse
 10
-17.90512840081987
 20
116.6276876321732
 30
0.0
 11
1.249999999999999
 21
-2.165063509461097
 31
0.0
210
0.0
220
0.0
230
0.9999999999999998
 40
0.5773502691896258
 41
0.0
 42
6.283185307179586
  0
ELLIPSE
  5
A819
330
A7AF
100
AcDbEntity
  8
0
100
AcDbEllipse
 10
-16.49091483844678
 20
117.4441842131009
 30
0.0
 11
1.250000000000128
 21
-2.165063509461021
 31
0.0
210
0.0
220
0.0
230
0.9999999999999998
 40
0.5773502691896258
 41
3.742856870268589
 42
5.681921090500122
  0
LINE
  5
A81A
330
A7AF
100
AcDbEntity
  8
0
100
AcDbLine
 10
2.600968253590001
 20
107.2379769515043
 30
0.0
 11
2.600968253590005
 21
108.8709701133598
 31
0.0
  0
ELLIPSE
  5
A81B
330
A7AF
100
AcDbEntity
  8
0
100
AcDbEllipse
 10
1.186754691216909
 20
108.0544735324321
 30
0.0
 11
1.999999999999997
 21
-0.0000000000000001
 31
0.0
210
0.0
220
0.0
230
1.0
 40
0.5773502691896258
 41
5.49778714378214
 42
7.068583470577028
  0
LINE
  5
A81C
330
A7AF
100
AcDbEntity
  8
0
100
AcDbLine
 10
4.015181815963098
 20
106.4214803705766
 30
0.0
 11
4.015181815963098
 21
-22.12570008923222
 31
0.0
  0
ELLIPSE
  5
A81D
330
A7AF
100
AcDbEntity
  8
0
100
AcDbEllipse
 10
1.186754691216909
 20
108.0544735324321
 30
0.0
 11
3.999999999999999
 21
-0.0000000000000003
 31
0.0
210
0.0
220
0.0
230
1.0
 40
0.5773502691896257
 41
5.497787143782137
 42
7.068583470577029
  0
LINE
  5
A81E
330
A7AF
100
AcDbEntity
  8
0
100
AcDbLine
 10
2.600968253590005
 20
108.8709701133598
 30
0.0
 11
4.015181815963102
 21
109.6874666942875
 31
0.0
  0
LINE
  5
A81F
330
A7AF
100
AcDbEntity
  8
0
100
AcDbLine
 10
2.600968253590001
 20
107.2379769515043
 30
0.0
 11
4.015181815963098
 21
106.4214803705766
 31
0.0
  0
LINE
  5
A820
330
A7AF
100
AcDbEntity
  8
0
100
AcDbLine
 10
5.186754691216908
 20
-20.49270692737676
 30
0.0
 11
5.186754691216908
 21
108.0544735324321
 31
0.0
  0
LINE
  5
A821
330
A7AF
100
AcDbEntity
  8
0
100
AcDbLine
 10
-23.91553604090553
 20
124.1802810057546
 30
0.0
 11
2.600968253590005
 21
108.8709701133598
 31
0.0
  0
LINE
  5
A822
330
A7AF
100
AcDbEntity
  8
0
100
AcDbLine
 10
-23.91553604090555
 20
91.92866605910943
 30
0.0
 11
-23.91553604090553
 21
124.1802810057546
 31
0.0
  0
LINE
  5
A823
330
A7AF
100
AcDbEntity
  8
0
100
AcDbLine
 10
-53.96757424133379
 20
-78.10674691908942
 30
0.0
 11
-53.9675742413338
 21
-57.6943323958963
 31
0.0
  0
LINE
  5
A824
330
A7AF
100
AcDbEntity
  8
0
100
AcDbLine
 10
-25.68330299387189
 20
89.27505217109439
 30
0.0
 11
4.015181815963098
 21
106.4214803705766
 31
0.0
  0
LINE
  5
A825
330
A7AF
100
AcDbEntity
  8
0
100
AcDbLine
 10
-55.3817878037069
 20
-56.87783581496856
 30
0.0
 11
-55.38178780370689
 21
-77.2902503381617
 31
0.0
  0
LINE
  5
A826
330
A7AF
100
AcDbEntity
  8
0
100
AcDbLine
 10
2.600968253590001
 20
107.2379769515043
 30
0.0
 11
-27.09751655624499
 21
90.09154875202211
 31
0.0
  0
LINE
  5
A827
330
A7AF
100
AcDbEntity
  8
0
100
AcDbLine
 10
4.015181815963102
 20
109.6874666942875
 30
0.0
 11
-22.50132247853244
 21
124.9967775866824
 31
0.0
  0
LINE
  5
A828
330
A7AF
100
AcDbEntity
  8
0
100
AcDbLine
 10
-22.50132247853244
 20
124.9967775866824
 30
0.0
 11
-23.91553604090553
 21
124.1802810057546
 31
0.0
  0
ELLIPSE
  5
A829
330
A7AF
100
AcDbEntity
  8
0
100
AcDbEllipse
 10
26.28904542333933
 20
-44.83451124628459
 30
0.0
 11
1.249999999999871
 21
2.16506350946117
 31
0.0
210
0.0
220
0.0
230
1.0
 40
0.5773502691896259
 41
3.742856870268578
 42
5.681921090500118
  0
ELLIPSE
  5
A82A
330
A7AF
100
AcDbEntity
  8
0
100
AcDbEllipse
 10
27.70325898571242
 20
-45.65100782721231
 30
0.0
 11
-1.25
 21
-2.165063509461095
 31
0.0
210
0.0
220
0.0
230
1.0
 40
0.577350269189626
 41
0.0
 42
6.283185307179586
  0
ELLIPSE
  5
A82B
330
A7AF
100
AcDbEntity
  8
0
100
AcDbEllipse
 10
26.28904542333933
 20
-28.50457962773008
 30
0.0
 11
1.249999999999871
 21
2.16506350946117
 31
0.0
210
0.0
220
0.0
230
1.0
 40
0.5773502691896259
 41
3.742856870268578
 42
5.681921090500118
  0
ELLIPSE
  5
A82C
330
A7AF
100
AcDbEntity
  8
0
100
AcDbEllipse
 10
27.70325898571242
 20
-29.3210762086578
 30
0.0
 11
-1.25
 21
-2.165063509461095
 31
0.0
210
0.0
220
0.0
230
1.0
 40
0.577350269189626
 41
0.0
 42
6.283185307179586
  0
ELLIPSE
  5
A82D
330
A7AF
100
AcDbEntity
  8
0
100
AcDbEllipse
 10
26.28904542333933
 20
-12.17464800917556
 30
0.0
 11
1.249999999999871
 21
2.16506350946117
 31
0.0
210
0.0
220
0.0
230
1.0
 40
0.5773502691896259
 41
3.742856870268578
 42
5.681921090500118
  0
ELLIPSE
  5
A82E
330
A7AF
100
AcDbEntity
  8
0
100
AcDbEllipse
 10
27.70325898571242
 20
-12.99114459010328
 30
0.0
 11
-1.25
 21
-2.165063509461095
 31
0.0
210
0.0
220
0.0
230
1.0
 40
0.577350269189626
 41
0.0
 42
6.283185307179586
  0
ELLIPSE
  5
A82F
330
A7AF
100
AcDbEntity
  8
0
100
AcDbEllipse
 10
26.28904542333933
 20
4.155283609378956
 30
0.0
 11
1.249999999999871
 21
2.16506350946117
 31
0.0
210
0.0
220
0.0
230
1.0
 40
0.5773502691896259
 41
3.742856870268578
 42
5.681921090500118
  0
ELLIPSE
  5
A830
330
A7AF
100
AcDbEntity
  8
0
100
AcDbEllipse
 10
27.70325898571242
 20
3.338787028451228
 30
0.0
 11
-1.25
 21
-2.165063509461095
 31
0.0
210
0.0
220
0.0
230
1.0
 40
0.577350269189626
 41
0.0
 42
6.283185307179586
  0
ELLIPSE
  5
A831
330
A7AF
100
AcDbEntity
  8
0
100
AcDbEllipse
 10
26.28904542333933
 20
20.48521522793348
 30
0.0
 11
1.249999999999871
 21
2.16506350946117
 31
0.0
210
0.0
220
0.0
230
1.0
 40
0.5773502691896259
 41
3.742856870268578
 42
5.681921090500118
  0
ELLIPSE
  5
A832
330
A7AF
100
AcDbEntity
  8
0
100
AcDbEllipse
 10
27.70325898571242
 20
19.66871864700575
 30
0.0
 11
-1.25
 21
-2.165063509461095
 31
0.0
210
0.0
220
0.0
230
1.0
 40
0.577350269189626
 41
0.0
 42
6.283185307179586
  0
ELLIPSE
  5
A833
330
A7AF
100
AcDbEntity
  8
0
100
AcDbEllipse
 10
26.28904542333933
 20
36.81514684648801
 30
0.0
 11
1.249999999999871
 21
2.16506350946117
 31
0.0
210
0.0
220
0.0
230
1.0
 40
0.5773502691896259
 41
3.742856870268578
 42
5.681921090500118
  0
ELLIPSE
  5
A834
330
A7AF
100
AcDbEntity
  8
0
100
AcDbEllipse
 10
27.70325898571242
 20
35.99865026556029
 30
0.0
 11
-1.25
 21
-2.165063509461095
 31
0.0
210
0.0
220
0.0
230
1.0
 40
0.577350269189626
 41
0.0
 42
6.283185307179586
  0
ELLIPSE
  5
A835
330
A7AF
100
AcDbEntity
  8
0
100
AcDbEllipse
 10
-21.79421569734589
 20
-25.23859330401917
 30
0.0
 11
1.24999999999987
 21
2.165063509461171
 31
0.0
210
0.0
220
0.0
230
1.0
 40
0.5773502691896258
 41
3.742856870268578
 42
5.681921090500115
  0
ELLIPSE
  5
A836
330
A7AF
100
AcDbEntity
  8
0
100
AcDbEllipse
 10
-20.38000213497279
 20
-26.0550898849469
 30
0.0
 11
1.249999999999999
 21
2.165063509461096
 31
0.0
210
0.0
220
0.0
230
1.0
 40
0.5773502691896258
 41
0.0
 42
6.283185307179586
  0
ELLIPSE
  5
A837
330
A7AF
100
AcDbEntity
  8
0
100
AcDbEllipse
 10
-21.79421569734589
 20
-8.908661685464647
 30
0.0
 11
1.24999999999987
 21
2.165063509461171
 31
0.0
210
0.0
220
0.0
230
1.0
 40
0.5773502691896258
 41
3.742856870268578
 42
5.681921090500114
  0
ELLIPSE
  5
A838
330
A7AF
100
AcDbEntity
  8
0
100
AcDbEllipse
 10
-20.38000213497279
 20
-9.725158266392375
 30
0.0
 11
1.249999999999999
 21
2.165063509461096
 31
0.0
210
0.0
220
0.0
230
1.0
 40
0.5773502691896258
 41
0.0
 42
6.283185307179586
  0
ELLIPSE
  5
A839
330
A7AF
100
AcDbEntity
  8
0
100
AcDbEllipse
 10
-21.79421569734589
 20
7.421269933089869
 30
0.0
 11
1.24999999999987
 21
2.165063509461171
 31
0.0
210
0.0
220
0.0
230
1.0
 40
0.5773502691896258
 41
3.742856870268578
 42
5.681921090500118
  0
ELLIPSE
  5
A83A
330
A7AF
100
AcDbEntity
  8
0
100
AcDbEllipse
 10
-20.38000213497279
 20
6.604773352162141
 30
0.0
 11
1.249999999999999
 21
2.165063509461096
 31
0.0
210
0.0
220
0.0
230
1.0
 40
0.5773502691896258
 41
0.0
 42
6.283185307179586
  0
ELLIPSE
  5
A83B
330
A7AF
100
AcDbEntity
  8
0
100
AcDbEllipse
 10
-21.79421569734589
 20
23.75120155164439
 30
0.0
 11
1.24999999999987
 21
2.165063509461171
 31
0.0
210
0.0
220
0.0
230
1.0
 40
0.5773502691896258
 41
3.742856870268578
 42
5.681921090500117
  0
ELLIPSE
  5
A83C
330
A7AF
100
AcDbEntity
  8
0
100
AcDbEllipse
 10
-20.38000213497279
 20
22.93470497071667
 30
0.0
 11
1.249999999999999
 21
2.165063509461096
 31
0.0
210
0.0
220
0.0
230
1.0
 40
0.5773502691896258
 41
0.0
 42
6.283185307179586
  0
ELLIPSE
  5
A83D
330
A7AF
100
AcDbEntity
  8
0
100
AcDbEllipse
 10
-21.79421569734589
 20
40.0811331701989
 30
0.0
 11
1.24999999999987
 21
2.165063509461171
 31
0.0
210
0.0
220
0.0
230
1.0
 40
0.5773502691896258
 41
3.742856870268578
 42
5.681921090500117
  0
ELLIPSE
  5
A83E
330
A7AF
100
AcDbEntity
  8
0
100
AcDbEllipse
 10
-20.38000213497279
 20
39.26463658927116
 30
0.0
 11
1.249999999999999
 21
2.165063509461096
 31
0.0
210
0.0
220
0.0
230
1.0
 40
0.5773502691896258
 41
0.0
 42
6.283185307179586
  0
ELLIPSE
  5
A83F
330
A7AF
100
AcDbEntity
  8
0
100
AcDbEllipse
 10
-21.79421569734589
 20
56.41106478875343
 30
0.0
 11
1.24999999999987
 21
2.165063509461171
 31
0.0
210
0.0
220
0.0
230
1.0
 40
0.5773502691896258
 41
3.742856870268578
 42
5.681921090500117
  0
ELLIPSE
  5
A840
330
A7AF
100
AcDbEntity
  8
0
100
AcDbEllipse
 10
-20.38000213497279
 20
55.59456820782568
 30
0.0
 11
1.249999999999999
 21
2.165063509461096
 31
0.0
210
0.0
220
0.0
230
1.0
 40
0.5773502691896258
 41
0.0
 42
6.283185307179586
  0
ELLIPSE
  5
A841
330
A7AF
100
AcDbEntity
  8
0
100
AcDbEllipse
 10
-21.79421569734589
 20
72.74099640730793
 30
0.0
 11
1.24999999999987
 21
2.16506350946117
 31
0.0
210
0.0
220
0.0
230
1.0
 40
0.5773502691896258
 41
3.742856870268584
 42
5.681921090500103
  0
ELLIPSE
  5
A842
330
A7AF
100
AcDbEntity
  8
0
100
AcDbEllipse
 10
-20.38000213497279
 20
71.92449982638021
 30
0.0
 11
1.249999999999999
 21
2.165063509461096
 31
0.0
210
0.0
220
0.0
230
1.0
 40
0.5773502691896258
 41
0.0
 42
6.283185307179586
  0
ELLIPSE
  5
A843
330
A7AF
100
AcDbEntity
  8
0
100
AcDbEllipse
 10
-21.79421569734589
 20
89.07092802586246
 30
0.0
 11
1.24999999999987
 21
2.165063509461171
 31
0.0
210
0.0
220
0.0
230
1.0
 40
0.5773502691896258
 41
3.742856870268578
 42
5.681921090500103
  0
ELLIPSE
  5
A844
330
A7AF
100
AcDbEntity
  8
0
100
AcDbEllipse
 10
-20.38000213497279
 20
88.25443144493474
 30
0.0
 11
1.249999999999999
 21
2.165063509461096
 31
0.0
210
0.0
220
0.0
230
1.0
 40
0.5773502691896258
 41
0.0
 42
6.283185307179586
  0
LINE
  5
A845
330
A7AF
100
AcDbEntity
  8
0
100
AcDbLine
 10
-25.68330299387191
 20
-14.42001360672684
 30
0.0
 11
-53.9675742413338
 21
-57.6943323958963
 31
0.0
  0
LINE
  5
A846
330
A7AF
100
AcDbEntity
  8
0
100
AcDbLine
 10
-27.09751655624501
 20
-13.60351702579911
 30
0.0
 11
-25.68330299387191
 21
-14.42001360672684
 31
0.0
  0
LINE
  5
A847
330
A7AF
100
AcDbEntity
  8
0
100
AcDbLine
 10
-55.3817878037069
 20
-56.87783581496856
 30
0.0
 11
-27.09751655624501
 21
-13.60351702579911
 31
0.0
  0
LINE
  5
A848
330
A7AF
100
AcDbEntity
  8
0
100
AcDbLine
 10
-53.9675742413338
 20
-57.6943323958963
 30
0.0
 11
-55.3817878037069
 21
-56.87783581496856
 31
0.0
  0
LINE
  5
A849
330
A7AF
100
AcDbEntity
  8
0
100
AcDbLine
 10
-25.68330299387189
 20
89.27505217109439
 30
0.0
 11
-25.68330299387191
 21
-14.42001360672684
 31
0.0
  0
LINE
  5
A84A
330
A7AF
100
AcDbEntity
  8
0
100
AcDbLine
 10
-27.09751655624499
 20
90.09154875202211
 30
0.0
 11
-25.68330299387189
 21
89.27505217109439
 31
0.0
  0
LINE
  5
A84B
330
A7AF
100
AcDbEntity
  8
0
100
AcDbLine
 10
-27.09751655624501
 20
-13.60351702579911
 30
0.0
 11
-27.09751655624499
 21
90.09154875202211
 31
0.0
  0
ENDBLK
  5
A7B1
330
A7AF
100
AcDbEntity
  8
0
100
AcDbBlockEnd
  0
ENDSEC
  0
SECTION
  2
ENTITIES
  0
INSERT
  5
A84C
330
1F
100
AcDbEntity
  8
0
100
AcDbBlockReference
  2
SAE440_66_2-Front
 10
0.0
 20
0.0
 30
0.0
  0
INSERT
  5
A84D
330
1F
100
AcDbEntity
  8
0
100
AcDbBlockReference
  2
SAE440_66_2-Left
 10
131.2
 20
0.0
 30
0.0
  0
INSERT
  5
A84E
330
1F
100
AcDbEntity
  8
0
100
AcDbBlockReference
  2
SAE440_66_2-Right
 10
-131.2
 20
0.0
 30
0.0
  0
INSERT
  5
A84F
330
1F
100
AcDbEntity
  8
0
100
AcDbBlockReference
  2
SAE440_66_2-Top
 10
0.0
 20
-58.7
 30
0.0
  0
INSERT
  5
A850
330
1F
100
AcDbEntity
  8
0
100
AcDbBlockReference
  2
SAE440_66_2-Bottom
 10
0.0
 20
243.7
 30
0.0
  0
INSERT
  5
A851
330
1F
100
AcDbEntity
  8
0
100
AcDbBlockReference
  2
SAE440_66_2-ISO
 10
186.581787803707
 20
-183.6967775866824
 30
0.0
  0
MTEXT
  5
A852
330
1F
100
AcDbEntity
  8
0
100
AcDbMText
 10
0.0
 20
-201.4
 30
0.0
 40
16.4
 41
0.0
 71
     5
 72
     5
  1
SAE440/66/2
 73
     1
 44
1.0
1001
ACAD
1000
MTEXTBEGIN
1070
    73
1070
     1
1070
    44
1040
1.0
1070
    74
1070
     0
1000
MTEXTEND
  0
ENDSEC
  0
SECTION
  2
OBJECTS
  0
DICTIONARY
  5
C
330
0
100
AcDbDictionary
281
     1
  3
ACAD_CIP_PREVIOUS_PRODUCT_INFO
350
216
  3
ACAD_COLOR
350
6B
  3
ACAD_DETAILVIEWSTYLE
350
21B
  3
ACAD_GROUP
350
D
  3
ACAD_LAYOUT
350
1A
  3
ACAD_MATERIAL
350
6A
  3
ACAD_MLEADERSTYLE
350
12D
  3
ACAD_MLINESTYLE
350
17
  3
ACAD_PLOTSETTINGS
350
19
  3
ACAD_PLOTSTYLENAME
350
E
  3
ACAD_SCALELIST
350
10C
  3
ACAD_SECTIONVIEWSTYLE
350
219
  3
ACAD_TABLESTYLE
350
7E
  3
ACAD_VISUALSTYLE
350
EF
  3
ACDB_RECOMPOSE_DATA
350
A953
  3
AcDbVariableDictionary
350
5E
  3
DWGPROPS
350
A954
  0
DICTIONARY
  5
A8A3
330
8
100
AcDbDictionary
280
     1
281
     1
  0
DICTIONARY
  5
1FF
330
2
100
AcDbDictionary
280
     1
281
     1
  3
ACAD_LAYERSTATES
360
200
  0
DICTIONARY
  5
13C
330
10
100
AcDbDictionary
280
     1
281
     1
  0
DICTIONARY
  5
1CE
330
1F
100
AcDbDictionary
280
     1
281
     1
  3
ACAD_LAYOUTSELFREF
360
A8AB
  0
DICTIONARY
  5
A856
330
D2
100
AcDbDictionary
280
     1
281
     1
  3
ACAD_LAYOUTSELFREF
360
A8B4
  0
DICTIONARY
  5
A858
330
D6
100
AcDbDictionary
280
     1
281
     1
  3
ACAD_LAYOUTSELFREF
360
A8B7
  0
XRECORD
  5
216
102
{ACAD_REACTORS
330
C
102
}
330
C
100
AcDbXrecord
280
     1
300
ACD
300
2021
300
87393ACD_2021_0F
  0
DICTIONARY
  5
6B
102
{ACAD_REACTORS
330
C
102
}
330
C
100
AcDbDictionary
281
     1
  0
DICTIONARY
  5
21B
102
{ACAD_REACTORS
330
C
102
}
330
C
100
AcDbDictionary
281
     1
  3
Metric50
350
21C
  0
DICTIONARY
  5
D
102
{ACAD_REACTORS
330
C
102
}
330
C
100
AcDbDictionary
281
     1
  0
DICTIONARY
  5
1A
102
{ACAD_REACTORS
330
C
102
}
330
C
100
AcDbDictionary
281
     1
  3
Layout1
350
D3
  3
Layout2
350
D7
  3
Model
350
22
  0
DICTIONARY
  5
6A
102
{ACAD_REACTORS
330
C
102
}
330
C
100
AcDbDictionary
281
     1
  3
ByBlock
350
ED
  3
ByLayer
350
EC
  3
Global
350
EE
  0
DICTIONARY
  5
12D
102
{ACAD_REACTORS
330
C
102
}
330
C
100
AcDbDictionary
281
     1
  3
Standard
350
12E
  0
DICTIONARY
  5
17
102
{ACAD_REACTORS
330
C
102
}
330
C
100
AcDbDictionary
281
     1
  3
Standard
350
18
  0
DICTIONARY
  5
19
102
{ACAD_REACTORS
330
C
102
}
330
C
100
AcDbDictionary
281
     1
  0
ACDBDICTIONARYWDFLT
  5
E
102
{ACAD_REACTORS
330
C
102
}
330
C
100
AcDbDictionary
281
     1
  3
Normal
350
F
100
AcDbDictionaryWithDefault
340
F
  0
DICTIONARY
  5
10C
102
{ACAD_REACTORS
330
C
102
}
330
C
100
AcDbDictionary
281
     1
  3
A0
350
10D
  3
A1
350
1BE
  3
A2
350
1BF
  3
A3
350
1C0
  3
A4
350
1C1
  3
A5
350
1C2
  3
A6
350
1C3
  3
A7
350
1C4
  3
A8
350
1C5
  3
A9
350
1C6
  3
B0
350
1C7
  3
B1
350
1C8
  3
B2
350
1C9
  3
B3
350
1CA
  3
B4
350
1CB
  3
B5
350
1CC
  3
B6
350
1CD
  0
DICTIONARY
  5
219
102
{ACAD_REACTORS
330
C
102
}
330
C
100
AcDbDictionary
281
     1
  3
Metric50
350
21A
  0
DICTIONARY
  5
7E
102
{ACAD_REACTORS
330
C
102
}
330
C
100
AcDbDictionary
281
     1
  3
Standard
350
7F
  0
DICTIONARY
  5
EF
102
{ACAD_REACTORS
330
C
102
}
330
C
100
AcDbDictionary
281
     1
  3
2dWireframe
350
F5
  3
Basic
350
F4
  3
Brighten
350
FB
  3
ColorChange
350
FF
  3
Conceptual
350
F8
  3
Dim
350
FA
  3
EdgeColorOff
350
1E6
  3
Facepattern
350
FE
  3
Flat
350
F0
  3
FlatWithEdges
350
F1
  3
Gouraud
350
F2
  3
GouraudWithEdges
350
F3
  3
Hidden
350
F7
  3
JitterOff
350
1E4
  3
Linepattern
350
FD
  3
OverhangOff
350
1E5
  3
Realistic
350
F9
  3
Shaded
350
1F3
  3
Shaded with edges
350
1F2
  3
Shades of Gray
350
1EF
  3
Sketchy
350
1F0
  3
Thicken
350
FC
  3
Wireframe
350
F6
  3
X-Ray
350
1F1
  0
XRECORD
  5
A953
102
{ACAD_REACTORS
330
C
102
}
330
C
100
AcDbXrecord
280
     1
 90
        1
330
7F
  0
DICTIONARY
  5
5E
102
{ACAD_REACTORS
330
C
102
}
330
C
100
AcDbDictionary
281
     1
  3
CANNOSCALE
350
146
  3
CENTEREXE
350
259
  3
CENTERLTYPEFILE
350
25A
  3
CMLEADERSTYLE
350
145
  3
CTABLESTYLE
350
84
  3
CVIEWDETAILSTYLE
350
227
  3
CVIEWSECTIONSTYLE
350
228
  3
DIMASSOC
350
5F
  3
HIDETEXT
350
63
  3
INDEXCTL
350
A900
  3
LAYEREVAL
350
1AE
  3
LAYERNOTIFY
350
1AF
  3
LIGHTINGUNITS
350
A8FE
  3
MSLTSCALE
350
A8FD
  3
PSOLHEIGHT
350
A950
  3
PSOLWIDTH
350
A94F
  3
SORTENTS
350
A8FF
  3
XCLIPFRAME
350
A951
  0
XRECORD
  5
A954
102
{ACAD_REACTORS
330
C
102
}
330
C
100
AcDbXrecord
280
     1
  1
DWGPROPS COOKIE
  2

  3

  4

  6

  7

  8
truole
  9

300
=
301
=
302
=
303
=
304
=
305
=
306
=
307
=
308
=
309
=
 40
0.0078703703703704
 41
2460398.356956019
 42
2460398.375497685
  1

 90
        0
  0
DICTIONARY
  5
200
102
{ACAD_REACTORS
330
1FF
102
}
330
1FF
100
AcDbDictionary
281
     1
  0
XRECORD
  5
A8AB
102
{ACAD_REACTORS
330
1CE
102
}
330
1CE
100
AcDbXrecord
280
     1
340
1F
  0
XRECORD
  5
A8B4
102
{ACAD_REACTORS
330
A856
102
}
330
A856
100
AcDbXrecord
280
     1
340
D2
  0
XRECORD
  5
A8B7
102
{ACAD_REACTORS
330
A858
102
}
330
A858
100
AcDbXrecord
280
     1
340
D6
  0
ACDBDETAILVIEWSTYLE
  5
21C
102
{ACAD_XDICTIONARY
360
A993
102
}
102
{ACAD_REACTORS
330
21B
102
}
330
21B
100
AcDbModelDocViewStyle
 70
     0
  3
Metric50
290
     0
100
AcDbDetailViewStyle
 70
     0
 71
     0
 90
        3
 71
     1
340
11
 40
5.0
340
0
 40
5.0
300

 40
0.0
280
     1
 71
     2
340
16
 90
       25
 71
     3
340
11
 40
5.0
 90
        0
 40
15.0
 90
        1
300
%<\AcVar ViewDetailId>% (%<\AcVar ViewScale \f "%sn">%)
 71
     4
340
16
 90
       25
340
16
 90
       25
280
     0
  0
LAYOUT
  5
D3
102
{ACAD_XDICTIONARY
360
A958
102
}
102
{ACAD_REACTORS
330
1A
102
}
330
1A
100
AcDbPlotSettings
  1

  2
C:\Documents and Settings\basas\Application Data\Autodesk\AutoCAD 2005\R16.1\enu\plotters\Default Windows System Printer.pc3
  4

  6

 40
0.0
 41
0.0
 42
0.0
 43
0.0
 44
0.0
 45
0.0
 46
0.0
 47
0.0
 48
0.0
 49
0.0
140
0.0
141
0.0
142
1.0
143
1.0
 70
   688
 72
     0
 73
     0
 74
     5
  7

 75
    16
147
1.0
148
0.0
149
0.0
100
AcDbLayout
  1
Layout1
 70
     1
 71
     1
 10
0.0
 20
0.0
 11
12.0
 21
9.0
 12
0.0
 22
0.0
 32
0.0
 14
0.0
 24
0.0
 34
0.0
 15
0.0
 25
0.0
 35
0.0
146
0.0
 13
0.0
 23
0.0
 33
0.0
 16
1.0
 26
0.0
 36
0.0
 17
0.0
 27
1.0
 37
0.0
 76
     0
330
D2
  0
LAYOUT
  5
D7
102
{ACAD_XDICTIONARY
360
A95A
102
}
102
{ACAD_REACTORS
330
1A
102
}
330
1A
100
AcDbPlotSettings
  1

  2
C:\Documents and Settings\basas\Application Data\Autodesk\AutoCAD 2005\R16.1\enu\plotters\Default Windows System Printer.pc3
  4

  6

 40
0.0
 41
0.0
 42
0.0
 43
0.0
 44
0.0
 45
0.0
 46
0.0
 47
0.0
 48
0.0
 49
0.0
140
0.0
141
0.0
142
1.0
143
1.0
 70
   688
 72
     0
 73
     0
 74
     5
  7

 75
    16
147
1.0
148
0.0
149
0.0
100
AcDbLayout
  1
Layout2
 70
     1
 71
     2
 10
0.0
 20
0.0
 11
12.0
 21
9.0
 12
0.0
 22
0.0
 32
0.0
 14
0.0
 24
0.0
 34
0.0
 15
0.0
 25
0.0
 35
0.0
146
0.0
 13
0.0
 23
0.0
 33
0.0
 16
1.0
 26
0.0
 36
0.0
 17
0.0
 27
1.0
 37
0.0
 76
     0
330
D6
  0
LAYOUT
  5
22
102
{ACAD_XDICTIONARY
360
A955
102
}
102
{ACAD_REACTORS
330
1A
102
}
330
1A
100
AcDbPlotSettings
  1

  2
none_device
  4
ISO_A4_(210.00_x_297.00_MM)
  6

 40
7.5
 41
20.0
 42
7.5
 43
20.0
 44
210.0
 45
297.0
 46
11.54999923706054
 47
-13.65000009536743
 48
0.0
 49
0.0
140
0.0
141
0.0
142
1.0
143
8.704084754739808
 70
 11952
 72
     1
 73
     0
 74
     0
  7

 75
     0
147
0.1148885871608098
148
0.0
149
0.0
100
AcDbLayout
  1
Model
 70
     1
 71
     0
 10
0.0
 20
0.0
 11
12.0
 21
9.0
 12
0.0
 22
0.0
 32
0.0
 14
0.0
 24
0.0
 34
0.0
 15
0.0
 25
0.0
 35
0.0
146
0.0
 13
0.0
 23
0.0
 33
0.0
 16
1.0
 26
0.0
 36
0.0
 17
0.0
 27
1.0
 37
0.0
 76
     0
330
1F
331
EA
1001
ACAD_PSEXT
1000
None
1000
None
1000
Not applicable
1000
The layout will not be plotted unless a new plotter configuration name is selected.
1070
     0
  0
MATERIAL
  5
ED
102
{ACAD_XDICTIONARY
360
1F9
102
}
102
{ACAD_REACTORS
330
6A
102
}
330
6A
100
AcDbMaterial
  1
ByBlock
  0
MATERIAL
  5
EC
102
{ACAD_XDICTIONARY
360
1F7
102
}
102
{ACAD_REACTORS
330
6A
102
}
330
6A
100
AcDbMaterial
  1
ByLayer
  0
MATERIAL
  5
EE
102
{ACAD_XDICTIONARY
360
173
102
}
102
{ACAD_REACTORS
330
6A
102
}
330
6A
100
AcDbMaterial
  1
Global
 43
0.0007999999797903
 43
0.0
 43
0.0
 43
0.0
 43
0.0
 43
0.0007999999797903
 43
0.0
 43
0.0
 43
0.0
 43
0.0
 43
1.0
 43
0.0
 43
0.0
 43
0.0
 43
0.0
 43
1.0
 49
0.0007999999797903
 49
0.0
 49
0.0
 49
0.0
 49
0.0
 49
0.0007999999797903
 49
0.0
 49
0.0
 49
0.0
 49
0.0
 49
1.0
 49
0.0
 49
0.0
 49
0.0
 49
0.0
 49
1.0
142
0.0007999999797903
142
0.0
142
0.0
142
0.0
142
0.0
142
0.0007999999797903
142
0.0
142
0.0
142
0.0
142
0.0
142
1.0
142
0.0
142
0.0
142
0.0
142
0.0
142
1.0
144
0.0007999999797903
144
0.0
144
0.0
144
0.0
144
0.0
144
0.0007999999797903
144
0.0
144
0.0
144
0.0
144
0.0
144
1.0
144
0.0
144
0.0
144
0.0
144
0.0
144
1.0
1001
ACAD
1070
    -1
1070
     3
1070
     0
1000

1071
        0
1070
     0
  0
MLEADERSTYLE
  5
12E
102
{ACAD_XDICTIONARY
360
A97F
102
}
102
{ACAD_REACTORS
330
12D
102
}
330
12D
100
AcDbMLeaderStyle
170
     2
171
     1
172
     0
 90
        2
 40
0.0
 41
0.0
173
     1
 91
-1056964608
340
14
 92
       -2
290
     1
 42
2.0
291
     1
 43
8.0
  3
Standard
 44
4.0
300

342
11
174
     1
178
     1
175
     1
176
     0
 93
-1056964608
 45
4.0
292
     0
297
     0
 46
4.0
 94
-1056964608
 47
1.0
 49
1.0
140
1.0
293
     1
141
0.0
294
     1
177
     0
142
1.0
295
     0
296
     0
143
3.75
1001
ACAD_MLEADERVER
1070
     2
  0
MLINESTYLE
  5
18
102
{ACAD_REACTORS
330
17
102
}
330
17
100
AcDbMlineStyle
  2
STANDARD
 70
     0
  3

 62
   256
 51
90.0
 52
90.0
 71
     2
 49
0.5
 62
   256
  6
BYLAYER
 49
-0.5
 62
   256
  6
BYLAYER
  0
ACDBPLACEHOLDER
  5
F
102
{ACAD_REACTORS
330
E
102
}
330
E
  0
SCALE
  5
10D
102
{ACAD_REACTORS
330
10C
102
}
330
10C
100
AcDbScale
 70
     0
300
1:1
140
1.0
141
1.0
290
     1
  0
SCALE
  5
1BE
102
{ACAD_REACTORS
330
10C
102
}
330
10C
100
AcDbScale
 70
     0
300
1:2
140
1.0
141
2.0
290
     0
  0
SCALE
  5
1BF
102
{ACAD_REACTORS
330
10C
102
}
330
10C
100
AcDbScale
 70
     0
300
1:4
140
1.0
141
4.0
290
     0
  0
SCALE
  5
1C0
102
{ACAD_REACTORS
330
10C
102
}
330
10C
100
AcDbScale
 70
     0
300
1:5
140
1.0
141
5.0
290
     0
  0
SCALE
  5
1C1
102
{ACAD_REACTORS
330
10C
102
}
330
10C
100
AcDbScale
 70
     0
300
1:8
140
1.0
141
8.0
290
     0
  0
SCALE
  5
1C2
102
{ACAD_REACTORS
330
10C
102
}
330
10C
100
AcDbScale
 70
     0
300
1:10
140
1.0
141
10.0
290
     0
  0
SCALE
  5
1C3
102
{ACAD_REACTORS
330
10C
102
}
330
10C
100
AcDbScale
 70
     0
300
1:16
140
1.0
141
16.0
290
     0
  0
SCALE
  5
1C4
102
{ACAD_REACTORS
330
10C
102
}
330
10C
100
AcDbScale
 70
     0
300
1:20
140
1.0
141
20.0
290
     0
  0
SCALE
  5
1C5
102
{ACAD_REACTORS
330
10C
102
}
330
10C
100
AcDbScale
 70
     0
300
1:30
140
1.0
141
30.0
290
     0
  0
SCALE
  5
1C6
102
{ACAD_REACTORS
330
10C
102
}
330
10C
100
AcDbScale
 70
     0
300
1:40
140
1.0
141
40.0
290
     0
  0
SCALE
  5
1C7
102
{ACAD_REACTORS
330
10C
102
}
330
10C
100
AcDbScale
 70
     0
300
1:50
140
1.0
141
50.0
290
     0
  0
SCALE
  5
1C8
102
{ACAD_REACTORS
330
10C
102
}
330
10C
100
AcDbScale
 70
     0
300
1:100
140
1.0
141
100.0
290
     0
  0
SCALE
  5
1C9
102
{ACAD_REACTORS
330
10C
102
}
330
10C
100
AcDbScale
 70
     0
300
2:1
140
2.0
141
1.0
290
     0
  0
SCALE
  5
1CA
102
{ACAD_REACTORS
330
10C
102
}
330
10C
100
AcDbScale
 70
     0
300
4:1
140
4.0
141
1.0
290
     0
  0
SCALE
  5
1CB
102
{ACAD_REACTORS
330
10C
102
}
330
10C
100
AcDbScale
 70
     0
300
8:1
140
8.0
141
1.0
290
     0
  0
SCALE
  5
1CC
102
{ACAD_REACTORS
330
10C
102
}
330
10C
100
AcDbScale
 70
     0
300
10:1
140
10.0
141
1.0
290
     0
  0
SCALE
  5
1CD
102
{ACAD_REACTORS
330
10C
102
}
330
10C
100
AcDbScale
 70
     0
300
100:1
140
100.0
141
1.0
290
     0
  0
ACDBSECTIONVIEWSTYLE
  5
21A
102
{ACAD_XDICTIONARY
360
A991
102
}
102
{ACAD_REACTORS
330
219
102
}
330
219
100
AcDbModelDocViewStyle
 70
     0
  3
Metric50
290
     0
100
AcDbSectionViewStyle
 70
     0
 71
     0
 90
      102
 71
     1
340
11
 40
5.0
340
0
340
0
 40
5.0
300
I, O, Q, S, X, Z
 40
10.0
 90
        0
 40
2.5
 90
        0
 71
     2
340
16
 90
       25
340
16
 90
       50
 40
5.0
 40
2.5
 40
5.0
 71
     3
340
11
 40
5.0
 90
        0
 40
15.0
 90
        1
300
%<\AcVar ViewSectionStartId>%-%<\AcVar ViewSectionEndId>% (%<\AcVar ViewScale \f "%sn">%)
 71
     4
300
ANSI31
 40
1.0
 90
        0
290
     0
290
     0
 90
        6
 40
0.0
 40
1.570796326794896
 40
0.2617993877991494
 40
1.308996938995747
 40
-0.2617993877991494
 40
1.832595714594046
  0
TABLESTYLE
  5
7F
102
{ACAD_XDICTIONARY
360
162
102
}
102
{ACAD_REACTORS
330
7E
102
}
330
7E
100
AcDbTableStyle
  3
Standard
 70
     0
 71
     0
 40
1.5
 41
1.5
280
     0
281
     0
  7
Standard
140
4.5
170
     2
 62
     0
 63
     7
283
     0
274
    -2
284
     1
 64
     0
275
    -2
285
     1
 65
     0
276
    -2
286
     1
 66
     0
277
    -2
287
     1
 67
     0
278
    -2
288
     1
 68
     0
279
    -2
289
     1
 69
     0
  7
Standard
140
6.0
170
     5
 62
     0
 63
     7
283
     0
274
    -2
284
     1
 64
     0
275
    -2
285
     1
 65
     0
276
    -2
286
     1
 66
     0
277
    -2
287
     1
 67
     0
278
    -2
288
     1
 68
     0
279
    -2
289
     1
 69
     0
  7
Standard
140
4.5
170
     5
 62
     0
 63
     7
283
     0
274
    -2
284
     1
 64
     0
275
    -2
285
     1
 65
     0
276
    -2
286
     1
 66
     0
277
    -2
287
     1
 67
     0
278
    -2
288
     1
 68
     0
279
    -2
289
     1
 69
     0
  0
VISUALSTYLE
  5
F5
102
{ACAD_XDICTIONARY
360
A969
102
}
102
{ACAD_REACTORS
330
EF
102
}
330
EF
100
AcDbVisualStyle
  2
2dWireframe
 70
     4
 71
     0
 72
     2
 73
     1
 90
        0
 40
-0.6
 41
-30.0
 62
     5
 63
     7
 74
     1
 91
        4
 64
     7
 65
   257
 75
     1
175
     1
 42
1.0
 92
        0
 66
   257
 43
1.0
 76
     1
 77
     6
 78
     2
 67
     7
 79
     5
170
     0
171
     0
290
     0
174
     0
 93
        1
 44
0.0
173
     0
291
     0
 45
0.0
1001
ACAD
1000
AcDbSavedByObjectVersion
1070
     0
  0
VISUALSTYLE
  5
F4
102
{ACAD_XDICTIONARY
360
A967
102
}
102
{ACAD_REACTORS
330
EF
102
}
330
EF
100
AcDbVisualStyle
  2
Basic
 70
     7
 71
     1
 72
     0
 73
     1
 90
        0
 40
-0.6
 41
-30.0
 62
     5
 63
     7
 74
     0
 91
        4
 64
     7
 65
   257
 75
     1
175
     1
 42
1.0
 92
        8
 66
     7
 43
1.0
 76
     1
 77
     6
 78
     2
 67
     7
 79
     5
170
     0
171
     0
290
     0
174
     0
 93
        1
 44
0.0
173
     0
291
     1
 45
0.0
1001
ACAD
1000
AcDbSavedByObjectVersion
1070
     0
  0
VISUALSTYLE
  5
FB
102
{ACAD_XDICTIONARY
360
A975
102
}
102
{ACAD_REACTORS
330
EF
102
}
330
EF
100
AcDbVisualStyle
  2
Brighten
 70
    12
 71
     2
 72
     2
 73
     1
 90
        0
 40
-0.6
 41
-30.0
 62
     5
 63
     7
 74
     1
 91
        4
 64
     7
 65
   257
 75
     1
175
     1
 42
1.0
 92
        8
 66
     7
 43
1.0
 76
     1
 77
     6
 78
     2
 67
     7
 79
     5
170
     0
171
     0
290
     0
174
     0
 93
        1
 44
50.0
173
     0
291
     1
 45
0.0
1001
ACAD
1000
AcDbSavedByObjectVersion
1070
     0
  0
VISUALSTYLE
  5
FF
102
{ACAD_XDICTIONARY
360
A97D
102
}
102
{ACAD_REACTORS
330
EF
102
}
330
EF
100
AcDbVisualStyle
  2
ColorChange
 70
    16
 71
     2
 72
     2
 73
     3
 90
        0
 40
-0.6
 41
-30.0
 62
     5
 63
     8
 74
     1
 91
        4
 64
     7
 65
   257
 75
     1
175
     1
 42
1.0
 92
        8
 66
     8
 43
1.0
 76
     1
 77
     6
 78
     2
 67
     7
 79
     5
170
     0
171
     0
290
     0
174
     0
 93
        1
 44
0.0
173
     0
291
     1
 45
0.0
1001
ACAD
1000
AcDbSavedByObjectVersion
1070
     0
  0
VISUALSTYLE
  5
F8
102
{ACAD_XDICTIONARY
360
A96F
102
}
102
{ACAD_REACTORS
330
EF
102
}
330
EF
100
AcDbVisualStyle
  2
Conceptual
 70
     9
 71
     3
 72
     2
 73
     1
 90
        0
 40
-0.6
 41
-30.0
 62
     5
 63
     7
 74
     2
 91
        2
 64
     7
 65
   257
 75
     1
175
     1
 42
40.0
 92
        8
 66
     7
 43
1.0
 76
     1
 77
     6
 78
     2
 67
     7
 79
     3
170
     0
171
     0
290
     0
174
     0
 93
        1
 44
0.0
173
     0
291
     0
 45
0.0
1001
ACAD
1000
AcDbSavedByObjectVersion
1070
     0
  0
VISUALSTYLE
  5
FA
102
{ACAD_XDICTIONARY
360
A973
102
}
102
{ACAD_REACTORS
330
EF
102
}
330
EF
100
AcDbVisualStyle
  2
Dim
 70
    11
 71
     2
 72
     2
 73
     1
 90
        0
 40
-0.6
 41
-30.0
 62
     5
 63
     7
 74
     1
 91
        4
 64
     7
 65
   257
 75
     1
175
     1
 42
1.0
 92
        8
 66
     7
 43
1.0
 76
     1
 77
     6
 78
     2
 67
     7
 79
     5
170
     0
171
     0
290
     0
174
     0
 93
        1
 44
-50.0
173
     0
291
     1
 45
0.0
1001
ACAD
1000
AcDbSavedByObjectVersion
1070
     0
  0
VISUALSTYLE
  5
1E6
102
{ACAD_XDICTIONARY
360
A985
102
}
102
{ACAD_REACTORS
330
EF
102
}
330
EF
100
AcDbVisualStyle
  2
EdgeColorOff
 70
    22
 71
     2
 72
     2
 73
     0
 90
        0
 40
-0.6
 41
-30.0
 62
     5
 63
     7
 74
     1
 91
        4
 64
     7
 65
   257
 75
     1
175
     1
 42
1.0
 92
        8
 66
     7
 43
1.0
 76
     1
 77
     6
 78
     2
 67
     7
 79
     5
170
     0
171
     0
290
     0
174
     0
 93
        1
 44
0.0
173
     0
291
     1
 45
0.0
1001
ACAD
1000
AcDbSavedByObjectVersion
1070
     0
  0
VISUALSTYLE
  5
FE
102
{ACAD_XDICTIONARY
360
A97B
102
}
102
{ACAD_REACTORS
330
EF
102
}
330
EF
100
AcDbVisualStyle
  2
Facepattern
 70
    15
 71
     2
 72
     2
 73
     1
 90
        0
 40
-0.6
 41
-30.0
 62
     5
 63
     7
 74
     1
 91
        4
 64
     7
 65
   257
 75
     1
175
     1
 42
1.0
 92
        8
 66
     7
 43
1.0
 76
     1
 77
     6
 78
     2
 67
     7
 79
     5
170
     0
171
     0
290
     0
174
     0
 93
        1
 44
0.0
173
     0
291
     1
 45
0.0
1001
ACAD
1000
AcDbSavedByObjectVersion
1070
     0
  0
VISUALSTYLE
  5
F0
102
{ACAD_XDICTIONARY
360
A95F
102
}
102
{ACAD_REACTORS
330
EF
102
}
330
EF
100
AcDbVisualStyle
  2
Flat
 70
     0
 71
     2
 72
     1
 73
     1
 90
        2
 40
-0.6
 41
30.0
 62
     5
 63
     7
 74
     0
 91
        0
 64
     7
 65
   257
 75
     1
175
     1
 42
1.0
 92
        8
 66
     7
 43
1.0
 76
     1
 77
     6
 78
     2
 67
     7
 79
     5
170
     0
171
     0
290
     0
174
     0
 93
       13
 44
0.0
173
     0
291
     1
 45
0.0
1001
ACAD
1000
AcDbSavedByObjectVersion
1070
     0
  0
VISUALSTYLE
  5
F1
102
{ACAD_XDICTIONARY
360
A961
102
}
102
{ACAD_REACTORS
330
EF
102
}
330
EF
100
AcDbVisualStyle
  2
FlatWithEdges
 70
     1
 71
     2
 72
     1
 73
     1
 90
        2
 40
-0.6
 41
30.0
 62
     5
 63
     7
 74
     1
 91
        0
 64
     7
 65
   257
 75
     1
175
     1
 42
1.0
 92
        0
 66
   257
 43
1.0
 76
     1
 77
     6
 78
     2
 67
     7
 79
     5
170
     0
171
     0
290
     0
174
     0
 93
       13
 44
0.0
173
     0
291
     1
 45
0.0
1001
ACAD
1000
AcDbSavedByObjectVersion
1070
     0
  0
VISUALSTYLE
  5
F2
102
{ACAD_XDICTIONARY
360
A963
102
}
102
{ACAD_REACTORS
330
EF
102
}
330
EF
100
AcDbVisualStyle
  2
Gouraud
 70
     2
 71
     2
 72
     2
 73
     1
 90
        2
 40
-0.6
 41
30.0
 62
     5
 63
     7
 74
     0
 91
        0
 64
     7
 65
   257
 75
     1
175
     1
 42
1.0
 92
        0
 66
     7
 43
1.0
 76
     1
 77
     6
 78
     2
 67
     7
 79
     5
170
     0
171
     0
290
     0
174
     0
 93
       13
 44
0.0
173
     0
291
     1
 45
0.0
1001
ACAD
1000
AcDbSavedByObjectVersion
1070
     0
  0
VISUALSTYLE
  5
F3
102
{ACAD_XDICTIONARY
360
A965
102
}
102
{ACAD_REACTORS
330
EF
102
}
330
EF
100
AcDbVisualStyle
  2
GouraudWithEdges
 70
     3
 71
     2
 72
     2
 73
     1
 90
        2
 40
-0.6
 41
30.0
 62
     5
 63
     7
 74
     1
 91
        0
 64
     7
 65
   257
 75
     1
175
     1
 42
1.0
 92
        0
 66
   257
 43
1.0
 76
     1
 77
     6
 78
     2
 67
     7
 79
     5
170
     0
171
     0
290
     0
174
     0
 93
       13
 44
0.0
173
     0
291
     1
 45
0.0
1001
ACAD
1000
AcDbSavedByObjectVersion
1070
     0
  0
VISUALSTYLE
  5
F7
102
{ACAD_XDICTIONARY
360
A96D
102
}
102
{ACAD_REACTORS
330
EF
102
}
330
EF
100
AcDbVisualStyle
  2
Hidden
 70
     6
 71
     1
 72
     2
 73
     2
 90
        0
 40
-0.6
 41
-30.0
 62
     5
 63
     7
 74
     2
 91
        2
 64
     7
 65
   257
 75
     2
175
     1
 42
40.0
 92
        0
 66
   257
 43
1.0
 76
     1
 77
     6
 78
     2
 67
     7
 79
     3
170
     0
171
     0
290
     0
174
     0
 93
        1
 44
0.0
173
     0
291
     0
 45
0.0
1001
ACAD
1000
AcDbSavedByObjectVersion
1070
     0
  0
VISUALSTYLE
  5
1E4
102
{ACAD_XDICTIONARY
360
A981
102
}
102
{ACAD_REACTORS
330
EF
102
}
330
EF
100
AcDbVisualStyle
  2
JitterOff
 70
    20
 71
     2
 72
     2
 73
     0
 90
        0
 40
-0.6
 41
-30.0
 62
     5
 63
     7
 74
     1
 91
        4
 64
     7
 65
   257
 75
     1
175
     1
 42
1.0
 92
       10
 66
     7
 43
1.0
 76
     1
 77
     6
 78
     2
 67
     7
 79
     5
170
     0
171
     0
290
     0
174
     0
 93
        1
 44
0.0
173
     0
291
     1
 45
0.0
1001
ACAD
1000
AcDbSavedByObjectVersion
1070
     0
  0
VISUALSTYLE
  5
FD
102
{ACAD_XDICTIONARY
360
A979
102
}
102
{ACAD_REACTORS
330
EF
102
}
330
EF
100
AcDbVisualStyle
  2
Linepattern
 70
    14
 71
     2
 72
     2
 73
     1
 90
        0
 40
-0.6
 41
-30.0
 62
     5
 63
     7
 74
     1
 91
        4
 64
     7
 65
   257
 75
     7
175
     7
 42
1.0
 92
        8
 66
     7
 43
1.0
 76
     1
 77
     6
 78
     2
 67
     7
 79
     5
170
     0
171
     0
290
     0
174
     0
 93
        1
 44
0.0
173
     0
291
     1
 45
0.0
1001
ACAD
1000
AcDbSavedByObjectVersion
1070
     0
  0
VISUALSTYLE
  5
1E5
102
{ACAD_XDICTIONARY
360
A983
102
}
102
{ACAD_REACTORS
330
EF
102
}
330
EF
100
AcDbVisualStyle
  2
OverhangOff
 70
    21
 71
     2
 72
     2
 73
     0
 90
        0
 40
-0.6
 41
-30.0
 62
     5
 63
     7
 74
     1
 91
        4
 64
     7
 65
   257
 75
     1
175
     1
 42
1.0
 92
        9
 66
     7
 43
1.0
 76
     1
 77
     6
 78
     2
 67
     7
 79
     5
170
     0
171
     0
290
     0
174
     0
 93
        1
 44
0.0
173
     0
291
     1
 45
0.0
1001
ACAD
1000
AcDbSavedByObjectVersion
1070
     0
  0
VISUALSTYLE
  5
F9
102
{ACAD_XDICTIONARY
360
A971
102
}
102
{ACAD_REACTORS
330
EF
102
}
330
EF
100
AcDbVisualStyle
  2
Realistic
 70
     8
 71
     2
 72
     2
 73
     0
 90
        2
 40
-0.6
 41
30.0
 62
     5
 63
     7
 74
     0
 91
        0
 64
     7
 65
   257
 75
     1
175
     1
 42
1.0
 92
        8
 66
   257
 43
1.0
 76
     1
 77
     6
 78
     2
 67
     7
 79
     3
170
     0
171
     0
290
     0
174
     0
 93
       13
 44
0.0
173
     0
291
     0
 45
0.0
1001
ACAD
1000
AcDbSavedByObjectVersion
1070
     0
  0
VISUALSTYLE
  5
1F3
102
{ACAD_XDICTIONARY
360
A98F
102
}
102
{ACAD_REACTORS
330
EF
102
}
330
EF
100
AcDbVisualStyle
  2
Shaded
 70
    27
 71
     2
 72
     2
 73
     1
 90
        2
 40
-0.6
 41
30.0
 62
     5
 63
     7
 74
     0
 91
        4
 64
     7
 65
   257
 75
     1
175
     1
 42
1.0
 92
        8
 66
   257
 43
1.0
 76
     1
 77
     6
 78
     2
 67
     8
 79
     3
170
     0
171
     0
290
     0
174
     0
 93
        5
 44
0.0
173
     0
291
     0
 45
0.0
1001
ACAD
1000
AcDbSavedByObjectVersion
1070
     0
  0
VISUALSTYLE
  5
1F2
102
{ACAD_XDICTIONARY
360
A98D
102
}
102
{ACAD_REACTORS
330
EF
102
}
330
EF
100
AcDbVisualStyle
  2
Shaded with edges
 70
    26
 71
     2
 72
     2
 73
     1
 90
        2
 40
-0.6
 41
30.0
 62
     5
 63
     7
 74
     1
 91
        2
 64
     7
 65
   257
 75
     2
175
     1
 42
1.0
 92
        8
 66
   257
 43
1.0
 76
     1
 77
     6
 78
     2
 67
     7
 79
     3
170
     0
171
     0
290
     0
174
     0
 93
        5
 44
0.0
173
     0
291
     0
 45
0.0
1001
ACAD
1000
AcDbSavedByObjectVersion
1070
     0
  0
VISUALSTYLE
  5
1EF
102
{ACAD_XDICTIONARY
360
A987
102
}
102
{ACAD_REACTORS
330
EF
102
}
330
EF
100
AcDbVisualStyle
  2
Shades of Gray
 70
    23
 71
     2
 72
     2
 73
     3
 90
        0
 40
-0.6
 41
-30.0
 62
     5
 63
     7
 74
     2
 91
        2
 64
     7
 65
     7
 75
     1
175
     1
 42
40.0
 92
        8
 66
     7
 43
1.0
 76
     1
 77
     6
 78
     2
 67
     7
 79
     3
170
     0
171
     0
290
     0
174
     0
 93
        1
 44
0.0
173
     0
291
     0
 45
0.0
1001
ACAD
1000
AcDbSavedByObjectVersion
1070
     0
  0
VISUALSTYLE
  5
1F0
102
{ACAD_XDICTIONARY
360
A989
102
}
102
{ACAD_REACTORS
330
EF
102
}
330
EF
100
AcDbVisualStyle
  2
Sketchy
 70
    24
 71
     1
 72
     2
 73
     2
 90
        0
 40
-0.6
 41
-30.0
 62
     5
 63
     7
 74
     2
 91
        2
 64
     7
 65
     7
 75
     1
175
     1
 42
40.0
 92
       11
 66
     7
 43
1.0
 76
     1
 77
     6
 78
     2
 67
     7
 79
     6
170
     0
171
     0
290
     0
174
     0
 93
        1
 44
0.0
173
     0
291
     0
 45
0.0
1001
ACAD
1000
AcDbSavedByObjectVersion
1070
     0
  0
VISUALSTYLE
  5
FC
102
{ACAD_XDICTIONARY
360
A977
102
}
102
{ACAD_REACTORS
330
EF
102
}
330
EF
100
AcDbVisualStyle
  2
Thicken
 70
    13
 71
     2
 72
     2
 73
     1
 90
        0
 40
-0.6
 41
-30.0
 62
     5
 63
     7
 74
     1
 91
        4
 64
     7
 65
   257
 75
     1
175
     1
 42
1.0
 92
       12
 66
     7
 43
1.0
 76
     1
 77
     6
 78
     2
 67
     7
 79
     5
170
     0
171
     0
290
     0
174
     0
 93
        1
 44
0.0
173
     0
291
     1
 45
0.0
1001
ACAD
1000
AcDbSavedByObjectVersion
1070
     0
  0
VISUALSTYLE
  5
F6
102
{ACAD_XDICTIONARY
360
A96B
102
}
102
{ACAD_REACTORS
330
EF
102
}
330
EF
100
AcDbVisualStyle
  2
Wireframe
 70
     5
 71
     0
 72
     2
 73
     0
 90
        0
 40
-0.6
 41
-30.0
 62
     5
 63
     7
 74
     1
 91
        4
 64
     7
 65
   257
 75
     1
175
     1
 42
1.0
 92
        0
 66
   257
 43
1.0
 76
     1
 77
     6
 78
     2
 67
     7
 79
     3
170
     0
171
     0
290
     0
174
     0
 93
        1
 44
0.0
173
     0
291
     0
 45
0.0
1001
ACAD
1000
AcDbSavedByObjectVersion
1070
     0
  0
VISUALSTYLE
  5
1F1
102
{ACAD_XDICTIONARY
360
A98B
102
}
102
{ACAD_REACTORS
330
EF
102
}
330
EF
100
AcDbVisualStyle
  2
X-Ray
 70
    25
 71
     2
 72
     2
 73
     1
 90
        1
 40
0.5
 41
-30.0
 62
     5
 63
     7
 74
     1
 91
        0
 64
     7
 65
   257
 75
     1
175
     1
 42
1.0
 92
        8
 66
     7
 43
1.0
 76
     1
 77
     6
 78
     2
 67
     7
 79
     3
170
     0
171
     0
290
     0
174
     0
 93
       13
 44
0.0
173
     0
291
     0
 45
0.0
1001
ACAD
1000
AcDbSavedByObjectVersion
1070
     0
  0
DICTIONARYVAR
  5
146
102
{ACAD_REACTORS
330
5E
102
}
330
5E
100
DictionaryVariables
280
     0
  1
1:1
  0
DICTIONARYVAR
  5
259
102
{ACAD_REACTORS
330
5E
102
}
330
5E
100
DictionaryVariables
280
     0
  1
3.500000
  0
DICTIONARYVAR
  5
25A
102
{ACAD_REACTORS
330
5E
102
}
330
5E
100
DictionaryVariables
280
     0
  1
acadiso.lin
  0
DICTIONARYVAR
  5
145
102
{ACAD_REACTORS
330
5E
102
}
330
5E
100
DictionaryVariables
280
     0
  1
STANDARD
  0
DICTIONARYVAR
  5
84
102
{ACAD_REACTORS
330
5E
102
}
330
5E
100
DictionaryVariables
280
     0
  1
STANDARD
  0
DICTIONARYVAR
  5
227
102
{ACAD_REACTORS
330
5E
102
}
330
5E
100
DictionaryVariables
280
     0
  1
Metric50
  0
DICTIONARYVAR
  5
228
102
{ACAD_REACTORS
330
5E
102
}
330
5E
100
DictionaryVariables
280
     0
  1
Metric50
  0
DICTIONARYVAR
  5
5F
102
{ACAD_REACTORS
330
5E
102
}
330
5E
100
DictionaryVariables
280
     0
  1
2
  0
DICTIONARYVAR
  5
63
102
{ACAD_REACTORS
330
5E
102
}
330
5E
100
DictionaryVariables
280
     0
  1
1
  0
DICTIONARYVAR
  5
A900
102
{ACAD_REACTORS
330
5E
102
}
330
5E
100
DictionaryVariables
280
     0
  1
0
  0
DICTIONARYVAR
  5
1AE
102
{ACAD_REACTORS
330
5E
102
}
330
5E
100
DictionaryVariables
280
     0
  1
0
  0
DICTIONARYVAR
  5
1AF
102
{ACAD_REACTORS
330
5E
102
}
330
5E
100
DictionaryVariables
280
     0
  1
0
  0
DICTIONARYVAR
  5
A8FE
102
{ACAD_REACTORS
330
5E
102
}
330
5E
100
DictionaryVariables
280
     0
  1
2
  0
DICTIONARYVAR
  5
A8FD
102
{ACAD_REACTORS
330
5E
102
}
330
5E
100
DictionaryVariables
280
     0
  1
1
  0
DICTIONARYVAR
  5
A950
102
{ACAD_REACTORS
330
5E
102
}
330
5E
100
DictionaryVariables
280
     0
  1
80.000000
  0
DICTIONARYVAR
  5
A94F
102
{ACAD_REACTORS
330
5E
102
}
330
5E
100
DictionaryVariables
280
     0
  1
5.000000
  0
DICTIONARYVAR
  5
A8FF
102
{ACAD_REACTORS
330
5E
102
}
330
5E
100
DictionaryVariables
280
     0
  1
127
  0
DICTIONARYVAR
  5
A951
102
{ACAD_REACTORS
330
5E
102
}
330
5E
100
DictionaryVariables
280
     0
  1
2
  0
DICTIONARY
  5
A993
330
21C
100
AcDbDictionary
280
     1
281
     1
  3
ACAD_XREC_ROUNDTRIP
360
A994
  0
DICTIONARY
  5
A958
330
D3
100
AcDbDictionary
280
     1
281
     1
  3
ACAD_XREC_ROUNDTRIP
360
A959
  0
DICTIONARY
  5
A95A
330
D7
100
AcDbDictionary
280
     1
281
     1
  3
ACAD_XREC_ROUNDTRIP
360
A95B
  0
DICTIONARY
  5
A955
330
22
100
AcDbDictionary
280
     1
281
     1
  3
ACAD_XREC_ROUNDTRIP
360
A956
  0
DICTIONARY
  5
1F9
330
ED
100
AcDbDictionary
280
     1
281
     1
  3
ACAD_XREC_ROUNDTRIP
360
A95D
  3
FBXASSET
360
1FA
  0
DICTIONARY
  5
1F7
330
EC
100
AcDbDictionary
280
     1
281
     1
  3
ACAD_XREC_ROUNDTRIP
360
A95C
  3
FBXASSET
360
1F8
  0
DICTIONARY
  5
173
330
EE
100
AcDbDictionary
280
     1
281
     1
  3
ACAD_XREC_ROUNDTRIP
360
A95E
  3
BUMPTILE
360
175
  3
DIFFUSETILE
360
174
  3
FBXASSET
360
1FB
  3
OPACITYTILE
360
176
  3
REFLECTIONTILE
360
177
  0
DICTIONARY
  5
A97F
330
12E
100
AcDbDictionary
280
     1
281
     1
  3
ACAD_XREC_ROUNDTRIP
360
A980
  0
DICTIONARY
  5
A991
330
21A
100
AcDbDictionary
280
     1
281
     1
  3
ACAD_XREC_ROUNDTRIP
360
A992
  0
DICTIONARY
  5
162
330
7F
100
AcDbDictionary
280
     1
281
     1
  3
ACAD_ROUNDTRIP_2008_TABLESTYLE_CELLSTYLEMAP
360
A952
  3
ACAD_XREC_ROUNDTRIP
360
A957
  0
DICTIONARY
  5
A969
330
F5
100
AcDbDictionary
280
     1
281
     1
  3
ACAD_XREC_ROUNDTRIP
360
A96A
  0
DICTIONARY
  5
A967
330
F4
100
AcDbDictionary
280
     1
281
     1
  3
ACAD_XREC_ROUNDTRIP
360
A968
  0
DICTIONARY
  5
A975
330
FB
100
AcDbDictionary
280
     1
281
     1
  3
ACAD_XREC_ROUNDTRIP
360
A976
  0
DICTIONARY
  5
A97D
330
FF
100
AcDbDictionary
280
     1
281
     1
  3
ACAD_XREC_ROUNDTRIP
360
A97E
  0
DICTIONARY
  5
A96F
330
F8
100
AcDbDictionary
280
     1
281
     1
  3
ACAD_XREC_ROUNDTRIP
360
A970
  0
DICTIONARY
  5
A973
330
FA
100
AcDbDictionary
280
     1
281
     1
  3
ACAD_XREC_ROUNDTRIP
360
A974
  0
DICTIONARY
  5
A985
330
1E6
100
AcDbDictionary
280
     1
281
     1
  3
ACAD_XREC_ROUNDTRIP
360
A986
  0
DICTIONARY
  5
A97B
330
FE
100
AcDbDictionary
280
     1
281
     1
  3
ACAD_XREC_ROUNDTRIP
360
A97C
  0
DICTIONARY
  5
A95F
330
F0
100
AcDbDictionary
280
     1
281
     1
  3
ACAD_XREC_ROUNDTRIP
360
A960
  0
DICTIONARY
  5
A961
330
F1
100
AcDbDictionary
280
     1
281
     1
  3
ACAD_XREC_ROUNDTRIP
360
A962
  0
DICTIONARY
  5
A963
330
F2
100
AcDbDictionary
280
     1
281
     1
  3
ACAD_XREC_ROUNDTRIP
360
A964
  0
DICTIONARY
  5
A965
330
F3
100
AcDbDictionary
280
     1
281
     1
  3
ACAD_XREC_ROUNDTRIP
360
A966
  0
DICTIONARY
  5
A96D
330
F7
100
AcDbDictionary
280
     1
281
     1
  3
ACAD_XREC_ROUNDTRIP
360
A96E
  0
DICTIONARY
  5
A981
330
1E4
100
AcDbDictionary
280
     1
281
     1
  3
ACAD_XREC_ROUNDTRIP
360
A982
  0
DICTIONARY
  5
A979
330
FD
100
AcDbDictionary
280
     1
281
     1
  3
ACAD_XREC_ROUNDTRIP
360
A97A
  0
DICTIONARY
  5
A983
330
1E5
100
AcDbDictionary
280
     1
281
     1
  3
ACAD_XREC_ROUNDTRIP
360
A984
  0
DICTIONARY
  5
A971
330
F9
100
AcDbDictionary
280
     1
281
     1
  3
ACAD_XREC_ROUNDTRIP
360
A972
  0
DICTIONARY
  5
A98F
330
1F3
100
AcDbDictionary
280
     1
281
     1
  3
ACAD_XREC_ROUNDTRIP
360
A990
  0
DICTIONARY
  5
A98D
330
1F2
100
AcDbDictionary
280
     1
281
     1
  3
ACAD_XREC_ROUNDTRIP
360
A98E
  0
DICTIONARY
  5
A987
330
1EF
100
AcDbDictionary
280
     1
281
     1
  3
ACAD_XREC_ROUNDTRIP
360
A988
  0
DICTIONARY
  5
A989
330
1F0
100
AcDbDictionary
280
     1
281
     1
  3
ACAD_XREC_ROUNDTRIP
360
A98A
  0
DICTIONARY
  5
A977
330
FC
100
AcDbDictionary
280
     1
281
     1
  3
ACAD_XREC_ROUNDTRIP
360
A978
  0
DICTIONARY
  5
A96B
330
F6
100
AcDbDictionary
280
     1
281
     1
  3
ACAD_XREC_ROUNDTRIP
360
A96C
  0
DICTIONARY
  5
A98B
330
1F1
100
AcDbDictionary
280
     1
281
     1
  3
ACAD_XREC_ROUNDTRIP
360
A98C
  0
XRECORD
  5
A994
102
{ACAD_REACTORS
330
A993
102
}
330
A993
100
AcDbXrecord
280
     1
102
DISPLAYNAME
  1
Metric50
102
FLAGS
 90
        0
  0
XRECORD
  5
A959
102
{ACAD_REACTORS
330
A958
102
}
330
A958
100
AcDbXrecord
280
     1
102
SHADEPLOT
 70
     0
102
SHADEPLOTRESLEVEL
 70
     2
102
SHADEPLOTCUSTOMDPI
 70
   300
  0
XRECORD
  5
A95B
102
{ACAD_REACTORS
330
A95A
102
}
330
A95A
100
AcDbXrecord
280
     1
102
SHADEPLOT
 70
     0
102
SHADEPLOTRESLEVEL
 70
     2
102
SHADEPLOTCUSTOMDPI
 70
   300
  0
XRECORD
  5
A956
102
{ACAD_REACTORS
330
A955
102
}
330
A955
100
AcDbXrecord
280
     1
102
SHADEPLOT
 70
     0
102
SHADEPLOTRESLEVEL
 70
     2
102
SHADEPLOTCUSTOMDPI
 70
   300
  0
XRECORD
  5
A95D
102
{ACAD_REACTORS
330
1F9
102
}
330
1F9
100
AcDbXrecord
280
     1
102
MATERIAL
148
0.0
149
0.0
149
0.0
 93
        0
 94
       63
282
     0
 72
     1
 77
     1
171
     1
175
     1
179
     1
273
     0
  0
XRECORD
  5
1FA
102
{ACAD_REACTORS
330
1F9
102
}
330
1F9
100
AcDbXrecord
280
     1
 70
     1
 90
429727718
  1
D62C5603-E3A1-4AEA-B7FB-FE5D8D0755AF
310
504B03040A0000080000CC70623B3DEE336E79000000790000001B0000006175746F6465736B2D64657369676E2D7061636B6167652E786D6C3C3F786D6C2076657273696F6E3D22312E302220656E636F64696E673D227574662D3822203F3E3C666F726D6174733E3C666F726D61743E687474703A2F2F736368656D612E
310
6175746F6465736B2E636F6D2F64657369676E2D7061636B6167652F323030393C2F666F726D61743E3C2F666F726D6174733E504B0304140006080800CC70623BD486FD9CA0000000F4000000130000005B436F6E74656E745F54797065735D2E786D6C7D8EC10E82300C865F65E91D8A1E8C310C0EEA1BF002731658846E
310
D98AC1B77784ABF1D8FE5FBFBF75BBCE937A534CCEB38643598122B6FEE978D0B0485F9C41B54DDD7D022595594E1A469170414C76A4D9A4D207E29CF43ECE46F218070CC6BECC4078ACAA135ACF422C856C0E68EA1BF5669944DDD7BCDE7B1F8E415D77AECB980613C2E4AC91FC167A2B244592486606FC29C8FD7F045B9A
310
EF7053A7E60B504B0304140006080800CC70623B853B8169EB0000007C01000008000000636F72652E786D6C8D90416EC3201045AF62CDB6C206821CC7C244919D9CA01740401C94182C03558F5F9C3852BBEB6A467FFE9B197D7EFC9E1EC5975982F5AE035262288C535E5B377690E21535501C055FBC8FBF6C503839990E
310
5619041F179FE64D52DE45E362569DD7661365082642A11EB9E920A89B99642953CC8E702F67A9EE7234257977194EC9EAE275C4EABCCF5EAD5940D4AC6F0E35A568B8F43562CD7046CD199FD07E60174276A7BE677B5EADB0E0D14EEFFB6A31321A0D82627C4084204C3F096B71DD52F6819B16635EADF63F509AF53FA164
310
5DDCD1EDDD17164090FCC8732078B56691CB33A85CD7DCC40F504B0304140006080800CC70623B55019EA25F0000007C00000007000000636E782E786D6C4DCB3B0E80201045D1AD90E915ED2CF8AC45050C11660C8261F98AB1B07AC9C97D42D718D865D3E909258CFD00CCE24AC6E326A164D74DC0B4128928FF32603847
310
2BA13128B1252AC747C6BAB984FC68F0B87FE8960A5C09FE86CFB69FBA01504B0304140006080800CC70623BDBABAAF470010000D40300000C0000006662782F636F72652E786D6CC553D16E823014FD95A6AF4B694182CC941A83FA05FB810A9511A125A5257EFE2E82712ECEB8A7F100CD39F7F69E734AF9FADC366850B6
310
AF8DCE7018308C942E4C59EB2AC3DE1D498AD15A706B8CFB56869196ADCAF00863C12B6B7C374385D14E6907A836A59A41D9F7CA615434B0C8705F7CAA5606D23BA8E84F41278B93AC54100640439DE0BDB320004D43C63716C7C399D30917DCFBBA9CD9BA8469F5B156168B24CED3F7248AC8769F27244EB73B92EED8862C
310
B7F13E0C179B3C8F979C8ECD82BBBABDAA2BAC924E9558448CBD9330242CFA08E3154B5651FCC6D215639C8EE5774DBE2B5F6CF2B5768B68963BB5F5588420E442FC700B1139D4CB01F450C1E918227C2E09DF070D8140C84E1E9AAB8F1340832A9CB13130A5F1376A908D57309505ECF2A0DF179C4E9D30F5B239B87E3823
310
7A79C6F31DE1A8A5AEC08474B03C7837EAE4938639B44E5932B833D2C6B6B279CDC613877FA26EE21F4A2A4C63EC7F29A2F301D1F9F7A0E37D145F504B0304140006080800CC70623B9C113CC27E0000009D0000000B0000006662782F636E782E786D6C4DCCDF0A83201C86E15B91DFB94BFB330DD428C8FB886521330DA7
310
6397BF1A1DECE883878F57749FCDA1B7892F1BBC047A23808C7F84D9FA55424E0BE6803A256208E9EF06C84F9B91703228B1C690F78B66B34CD9A5439DF5CF0BFBF65E35BCA1B8D6A5C6F540381E886698B5741C695F9503EBA150A2F8958E3DC3EA0B504B0304140006080800CC70623B7DF2F77C2A010000120200003100
310
00006662782F41393633353835312D344632462D344230382D423046372D3739314545314133324237412F636F72652E786D6C8D51DB8EC22014FC15C2939B0D2DB4B45643319AE817EC0F6041255A68B86CFCFC856D4D76DF7CE190393373060EDB3DC707F856CE6B6B7A480A0C81328395DA5C7B18C3057510EC3873D686
310
3F34088C18550F330C39BB3A1BA7051AAC09CA84841A2BD5020AEF55806078A44B0FFD7053A328440C89E1EFC52486BBB8AA8214A99D789CF9E05200300FC927E4FB4D5B375D43103D5527440FB843077C5AA3F5861C8F645F5787F59E95B390B318B55CE45AA638FAA2957BD7248B390B7A7CC51F9C124149C82B8C378810
310
84AB2F42B7B8DD56F413775B8C5999E9FF4471926F8AA236A1AE96B8B3CC434E5839373893369E1FAF30EA395917409EB7F26AF8801C171837A4A6AC9C89E9F9C9B1A58BA30FD6A5EF5DDDCF894B9AD9B6A59C957943A9FCAE2FD5BC4DFE03504B0304140006080800CC70623BAD7543B64E01000033030000300000006662
310
782F41393633353835312D344632462D344230382D423046372D3739314545314133324237412F636E782E786D6CD593CD6EC32010845F0571AD6CE3D48AD20813A9873E410FBD12D82434182C7EAAE6EDBB2424CD25871E7B41D6EC30B3FA84F9E67BB2E40B4234DE8DB46F1925E094D7C6ED479AD3AE5951B2113C789FEE
310
6C943839C1488B4C05DF079FE72A69D8C96C13AAD6B8631503449F83828872B949AC57D26200B826A308D316B4064D6E46FCDA41C05550DC9E483A00797BFD207EFB092A45DE9514C1BBD22178396BD39D891265658C238DEA00936C654E5E433CB65A26D9F6EDB5EBC14EBF49A45CB856E66048291F6939A9A81BB5C89177
310
38143CA680F4AA299D66A042CEB3354A2684DC9D8D178FE0D9B8B41CAAD720F880EE7EF93C0C18769E099ECC04D5A102C8049A8A05632F4DDF376CF1DE0F6BB65C2F8627B65A33C6BB62177CEBBDAD973006829F89F22E814B54F4BC2BE347F8AA8F681390B50FA73F804400B5F542E796F19FF974E7F78DB802FE05E20750
310
4B0304140006080800CC70623BE75B7789680500003C100000340000006662782F41393633353835312D344632462D344230382D423046372D3739314545314133324237412F6F626A656374732E786D6CAD575B8F9B3818FD2B887D06C22499CB8AA1CA655245D5B455A356FB305264C061D8018C6C3393D95FBFC7600890
310
A4CD5EF210B0B1BFEBF98E3F7B1FF6596ABC522E1296DF9BAE3D320D9A872C4AF2F8DE2CE5CEBA358D0FBEC719939D65A691938CDE9B6ADAF4BD98B3B2D05311DD91329583D9D5FC0F438434A7A611A644887B5384CF34233629258BA878B12322891DEFF6B66BD70BFB62634E8AE781D082709A4B588AF91C528CDA28B73F
310
1C998EEF39EABBEFA97FBD6A7C7E9553F9D3D79FE442923C3C523610337627CB87ABE99D359D4CC6D6E4FACAB5E6ABF9D2726FC6A3C5F56271377BB88362213924694B38DD99FE47C48627A1E7D49F5A8BB5E1A74C0A599ED3B0F21F1E56366B89112D681E218F0915D0D6F17AD41FBA2A369DCF6335D62ABBD39779D5DDD1
310
11D4D8DE3CBB96B2E04FB8202E41051754A1AA8E8F76B4C6DFE810B580B1547F4B84911149794252234D024EF8BBE963A95AE27B3D310A9D5C215C7960FAEE415ED75694C6AFB17BCACA5D99A60A9AA65F217B0BFC53292ACB92BF283FAD0D3621576592CB5BED907C2FA8E9DF794E35E97BEA31BED21FEB401ABB94C44839
310
DCACBF0E1C5DA8DA5B2F4DFFD32AD86F543D9E565E7056502E157C00AD2671CD534549AB752FCA9CDA00677A313F04E51B22FF19E57B300579E3C97EB29F682D92935CEC18CF901B7B54FD8C51F362B56FC72FE0B3C1EAE335EDCCBF5AEC39ADB17DC238973F804BA5E6F6BFE7AF1FB32E523BE9F3BD571418E3631DCA4D48
310
5250CF639223210A9446CA30052EDF057BD35F8329C1ECD84552BF0DC8D18BE7BCE23BFE6BD960AB4A7DE79923A103BEBD80F911CBAA2C60DB19B01CF164A5583B772EE6D3FFA56666CBCDA74DC97724A48F9A58967497E489C4D979006FD7A05E227A1EBDD0F737C623387A9C844D3709995625106D157315F8B8392CD4E0
310
A0B9A720C4BE9829CEF37EA1E13111214D53925356365ADA634861B52519DD27A00AEB808EAF0628E6F435519D446F45CF2C9CF5214F0A15B2F6D06B79DA3EE3CBF7F56780D2F4E7EF73A0F5E5B02A38D07DC852C6B7C1FBB6664213E0C39E3EBA7FF4E1AD23EA2829407C85E586727488B751B2DB9502BC7B228A3FD68B6E
310
A65A22397E690AA8D158D7E404EC8CDA235CC3B7D1898680131CEC2CDF2638C65196279577750F15884AEE19F94199155B92B13297978469D4F8D358DF0AEF7631E28DC8F0D9F437D5D39A83B2231A1D52D543813A824EF8D44BCFF2FA6A31BD1E8DAD87F1CCB526B3879935BF59CDADD5C37479BB1CDD4CA7B3556B516589
310
EF352754B706114D9C885EC9131DE6EFEB43D99AFE2391C2F958179413D7CFEF6B1B6DB1E7600F00DE6E5C67454A339A4BA2E0FBA85ED26F045D454F463DBFCE484C2F90F2E5E3666003662ED8F755951A7D1BECD5B30B550B2785C8E7320B7292A4838DDA71BBC863ED7613CAF659337A3354231D4FF4A182A54904C2898C
310
98B28C4AD0CE056CCF332A80986E571EE9DBC305BB5FEB7E509220A58D25CF042D712A806AC0AD0C657FDEF80D2D9CEAA2EE4D1C76F60BFE74219A06527D6F82DF6412526107381E55E353090704D085B52408A8913C4ED159D79BDA71BB4BC506F4831350EB6F975CD22D69BF7AC49B91A2C0A9DDA3D5CA36AD20FC478E37
310
E61844E2352865EBCB61A275A65283CAAA9DD27703B4102F5AF51EF5F573B75CBB5AD38BC845F7A49F82A0966A49C2E3EA5EA0ECD326CD965F1DB402C6FA8B51A4658C5C5E2EC9E214602E55810345408596591009A82E7E7FFACA19EEA299B14A0081A705CB3296EBC14CDF658DCD336EA6D1136881AAEB87B81AB9EE53D5
310
F5EB8BC8362082DA24122F98680A4E7930C01A0079749CEA14382A0783E5EBA5A10F8C098456A03D6A4AEB6BB881E2513747552A5DB22C7EDAF83BD5528081A365F7FF06504B0304140006080000CC70623B000000000000000000000000350000006662782F41393633353835312D344632462D344230382D423046372D37
310
39314545314133324237412F76657274696365732E62696E504B0304140006080800CC70623BF270F1330600000004000000360000006662782F41393633353835312D344632462D344230382D423046372D3739314545314133324237412F747269616E676C65732E62696E636660600000504B0304140006080000CC7062
310
3B000000000000000000000000370000006662782F41393633353835312D344632462D344230382D423046372D3739314545314133324237412F617474726962757465732E62696E504B0304140006080800CC70623B08DA0BD19000000041010000360000006662782F41393633353835312D344632462D344230382D4230
310
46372D3739314545314133324237412F6469726563746F72792E786D6C858F410AC3201045AF22B36F53E9A60B35CBEEBAE80D244E44489C6234F4F835464A48035D0DF398FF9F8AF63D0E6CC63039F212F8F9020C7D47C6792B21C5FE7403D62A1188E2E60C98D7234A5830286103A55745067B9D86B8A3CF9C7F90C11DE6
310
07FB144396D7B6A82D282E9A152AD114D5EF2CB866EEE831B8EEA07A7BB5A8D7D61A2BAAEB7FD5F70921FF497D00504B0304140006080800CC70623BEDD1DC58FD000000A00100003B0000006662782F41393633353835312D344632462D344230382D423046372D3739314545314133324237412F7265736F75726365732F
310
636F72652E786D6C8D504B6E833010BD0A9A6D65B00922041947112427E8052C33A156828DFCA97AFC9A40A576D7CDCCE87D344F8F9FBFE667F689CE6B6B3A6039850C8DB2A336530731DC4903D95970676DF82583CCC8193B5861107C72362E3BA4AC096842428D1D7107A5F7182053CF7474E0D507CE32973124857FE48B
310
540F3961CEF244279DE03EB81420DB9EAC1384436FA353E879B1B182C7A8C75DA3C7F453DF353A1075D537A7BA6464B8F535A99AE14A9A2BBD90E350DD183B5CFABE3AF262350B1EF4FC9351399401471025A527C218A1E53BAB5A5AB765F5469B96525EACF23FA6B88CFF34456DC2A1DCE36E360F82A5202F42F062ED2BAD
310
579969AFDD8A6F504B010214000A0000080000CC70623B3DEE336E79000000790000001B00000000000000000000000000000000006175746F6465736B2D64657369676E2D7061636B6167652E786D6C504B01021400140006080800CC70623BD486FD9CA0000000F40000001300000000000000000000000000B20000005B
310
436F6E74656E745F54797065735D2E786D6C504B01021400140006080800CC70623B853B8169EB0000007C010000080000000000000000000000000083010000636F72652E786D6C504B01021400140006080800CC70623B55019EA25F0000007C000000070000000000000000000000000094020000636E782E786D6C504B
310
01021400140006080800CC70623BDBABAAF470010000D40300000C00000000000000000000000000180300006662782F636F72652E786D6C504B01021400140006080800CC70623B9C113CC27E0000009D0000000B00000000000000000000000000B20400006662782F636E782E786D6C504B01021400140006080800CC70
310
623B7DF2F77C2A010000120200003100000000000000000000000000590500006662782F41393633353835312D344632462D344230382D423046372D3739314545314133324237412F636F72652E786D6C504B01021400140006080800CC70623BAD7543B64E010000330300003000000000000000000000000000D2060000
310
6662782F41393633353835312D344632462D344230382D423046372D3739314545314133324237412F636E782E786D6C504B01021400140006080800CC70623BE75B7789680500003C10000034000000000000000000000000006E0800006662782F41393633353835312D344632462D344230382D423046372D3739314545
310
314133324237412F6F626A656374732E786D6C504B01021400140006080000CC70623B0000000000000000000000003500000000000000000000000000280E00006662782F41393633353835312D344632462D344230382D423046372D3739314545314133324237412F76657274696365732E62696E504B01021400140006
310
080800CC70623BF270F133060000000400000036000000000000000000000000007B0E00006662782F41393633353835312D344632462D344230382D423046372D3739314545314133324237412F747269616E676C65732E62696E504B01021400140006080000CC70623B0000000000000000000000003700000000000000
310
000000000000D50E00006662782F41393633353835312D344632462D344230382D423046372D3739314545314133324237412F617474726962757465732E62696E504B01021400140006080800CC70623B08DA0BD1900000004101000036000000000000000000000000002A0F00006662782F41393633353835312D344632
310
462D344230382D423046372D3739314545314133324237412F6469726563746F72792E786D6C504B01021400140006080800CC70623BEDD1DC58FD000000A00100003B000000000000000000000000000E1000006662782F41393633353835312D344632462D344230382D423046372D3739314545314133324237412F7265
310
736F75726365732F636F72652E786D6C504B0506000000000E000E0080040000641100000000
  0
XRECORD
  5
A95C
102
{ACAD_REACTORS
330
1F7
102
}
330
1F7
100
AcDbXrecord
280
     1
102
MATERIAL
148
0.0
149
0.0
149
0.0
 93
        0
 94
       63
282
     0
 72
     1
 77
     1
171
     1
175
     1
179
     1
273
     0
  0
XRECORD
  5
1F8
102
{ACAD_REACTORS
330
1F7
102
}
330
1F7
100
AcDbXrecord
280
     1
 70
     1
 90
429727718
  1
30362254-06B7-45E0-A893-8CFA70E3D6BC
310
504B03040A0000080000CC70623B3DEE336E79000000790000001B0000006175746F6465736B2D64657369676E2D7061636B6167652E786D6C3C3F786D6C2076657273696F6E3D22312E302220656E636F64696E673D227574662D3822203F3E3C666F726D6174733E3C666F726D61743E687474703A2F2F736368656D612E
310
6175746F6465736B2E636F6D2F64657369676E2D7061636B6167652F323030393C2F666F726D61743E3C2F666F726D6174733E504B0304140006080800CC70623BD486FD9CA0000000F4000000130000005B436F6E74656E745F54797065735D2E786D6C7D8EC10E82300C865F65E91D8A1E8C310C0EEA1BF002731658846E
310
D98AC1B77784ABF1D8FE5FBFBF75BBCE937A534CCEB38643598122B6FEE978D0B0485F9C41B54DDD7D022595594E1A469170414C76A4D9A4D207E29CF43ECE46F218070CC6BECC4078ACAA135ACF422C856C0E68EA1BF5669944DDD7BCDE7B1F8E415D77AECB980613C2E4AC91FC167A2B244592486606FC29C8FD7F045B9A
310
EF7053A7E60B504B0304140006080800CC70623B1EC5D7A3EB0000007C01000008000000636F72652E786D6C8D90416EC3201045AF82665B6103C6756C6122AB4D4ED00B204C5C94182C03558F5F9C3852BBEB6A467FFE9B197D71FC9E6FE8CBACC17AD7032D0820E3B41FAD9B7A48F1820F808E52ACDEC75F36404ECDA687
310
4D0629A6D5A76597B477D1B89855E747B38B2A041301E95B6E7A08FAD3CCAA50296647B8168BD2573599823EBB0CA76447F43862C7BCCF5EAC59410E4DDD9C7973C2755553CCCFA4C603E3040F1565ED3B1FDE4E432BCA0D9622DAF9795FAF464533826484B498524CD807E51D79ED187F21878E10516EF63F505AC67F42C9
310
BA58B1FDDD071640D2FCC87D2045B96591CB3DA85CB7DCE40F504B0304140006080800CC70623B55019EA25F0000007C00000007000000636E782E786D6C4DCB3B0E80201045D1AD90E915ED2CF8AC45050C11660C8261F98AB1B07AC9C97D42D718D865D3E909258CFD00CCE24AC6E326A164D74DC0B4128928FF32603847
310
2BA13128B1252AC747C6BAB984FC68F0B87FE8960A5C09FE86CFB69FBA01504B0304140006080800CC70623B8C9102E971010000D40300000C0000006662782F636F72652E786D6CC5535B6E833010BC8AE5DF0A6C08340F1947A84D4ED00B38C6A128602363A31CBFCB234A53A551FA553EC09AD9F5CE8C31DB9E9B1AF5CA
310
7695D1198E428A91D2D214952E33ECDD315861B4E5CC1AE3BE9561A445A3323CC098B3D21ADFCE9034DA29ED00D5A6503328BA4E398C640D8B0C77F253352214DE4145770A5B214FA2546114020D759C75CE8200340D19DE981F0F6746269C33EFAB6266AB02A655C74A59CCF365BADC27CB5D902ED22848F6340DF238A141
310
BE88E2F57B92BFEDF23523433367AE6A2EEAA455C2A902F398D2751045018D3FA264435F3771F242571B4A1919CA6F9A7C5B3CD9E42BED16F12C776AEB308F40C848FC700B1139D4891EF410CEC810227CC6846F8386402064270EF5C5C709A05E49676C024C61FC95EA45ED154CA5211D1FF4FB8291A913A68E9B83EBBB33
310
E2A7673CDE118E5AE8124C0807CB8377834E366998436B950D7A7746DAD846D4CFD978E0F04FD455FC5D49D2D4C6FE9722321F10997F0F32DC47FE05504B0304140006080800CC70623BFFEA85907E0000009D0000000B0000006662782F636E782E786D6C4DCCD10A83201886E15B91FFDC95D95A811AB6F23E625948A6C3
310
E9D8E5AF46073BFAE0E1E365ED67B3E8ADC3CB78C7815C7240DA3DFC64DCC221C519D7805AC182F7F1EF06C88D9BE6703008B6049F9E274D7A1E938DBB5AE3D6131B2589BA0D3D965551E0B2EA732C9B9A624AAEB41E3A557677029960D9AFB4EF11165F504B0304140006080800CC70623B4FEEA4082C0100001202000031
310
0000006662782F39464131463745442D413632322D343644302D413938332D3331353338454246344243312F636F72652E786D6C8D515B6EC32010BC0AE2AB55850DD871ED0813254D72825EC00192A2C460F1A872FC42ED48ED5F7E00CDCECCCEB26C731F6FE05B39AFADE921293004CA082BB5B9F43086336A21D870E6AC
310
0D7F68109861543DCC30E4ECE26C9C164858139409093556AA051CBC570102714B8F1E7AF1A5C6A11862480C7F2DA6415C878B2A4891CA89C7990F2E050073937C42DE1DB7E4F87ED8A36D4329AA9B3D46DBAEAD504556557BD81DEBDD0761E52CE42C462D17B996298E3E6BE59E35C962CE821E1FF18553435012728A7187
310
0841987E927A8D9B35ADDF70BBC6989599FE4F1427F9A4286A132ABAC49D651EF234CD5CE04CDA78BA3DC2A8FB645D00B9DF8B57E215725C60BCA2A463E54C4CE327C7A65E1C7DB02E7DEFCBF594B864C5CA6CDBD49C957943E9FA5D5FBAF336F90F504B0304140006080800CC70623BAD7543B64E01000033030000300000
310
006662782F39464131463745442D413632322D343644302D413938332D3331353338454246344243312F636E782E786D6CD593CD6EC32010845F0571AD6CE3D48AD20813A9873E410FBD12D82434182C7EAAE6EDBB2424CD25871E7B41D6EC30B3FA84F9E67BB2E40B4234DE8DB46F1925E094D7C6ED479AD3AE5951B2113C
310
789FEE6C943839C1488B4C05DF079FE72A69D8C96C13AAD6B8631503449F83828872B949AC57D26200B826A308D316B4064D6E46FCDA41C05550DC9E483A00797BFD207EFB092A45DE9514C1BBD22178396BD39D891265658C238DEA00936C654E5E433CB65A26D9F6EDB5EBC14EBF49A45CB856E66048291F6939A9A81BB5
310
C8917738143CA680F4AA299D66A042CEB3354A2684DC9D8D178FE0D9B8B41CAAD720F880EE7EF93C0C18769E099ECC04D5A102C8049A8A05632F4DDF376CF1DE0F6BB65C2F8627B65A33C6BB62177CEBBDAD973006829F89F22E814B54F4BC2BE347F8AA8F681390B50FA73F804400B5F542E796F19FF974E7F78DB802FE05
310
E207504B0304140006080800CC70623B16AB87BA640500003C100000340000006662782F39464131463745442D413632322D343644302D413938332D3331353338454246344243312F6F626A656374732E786D6CAD575B6FA33818FD2B887DE6924B3BED8A326A92B68A663B534DD4D13E548A0C38942D60649B369D5FBFC7
310
600890A493BDE42160637FD7F31D7FF63E6FB3D478A55C242CBF3247B66B1A340F5994E4F19559CA8D75611A9F7D8F33263BCB4C232719BD32D5B4E97B316765A1A722BA21652A07B3B7B33F0D11D29C9A46981221AE4C113ED38CD8A4942CA2E2C58E882476BCD9DA23BB5ED8171B73523C0F841684D35CC252CCE79062D4
310
468DFA43D7747CCF51DF7D4FFDEB5593E3AB9CCA9FBEFE241792E4E19EB28198C968BAB8199F5D5A67D3E9C49A9E8F47D6EC76B6B0469F26EEFC7C3EBFBCBEB98462213924694B38DD98FE1D62C393D073EA4FADC5DAF04326852CCF6958F90F0F2B9BB5C48816348F90C7840A68EB78EDF68723159BCEE7891A6B95DDE9D3
310
BCEAEEE8086A6C6F9E5D4B59F0175C10A7A0820BAA5055C7473B5AE3CFDD452D602CD5DF12616444529E90D448938013FE6EFA58AA96F85E4F8C42275708571E98FE6827AF6B2B4AE3D7D83D64E5A64C53054DD3AF90BD06FEA9149565C94FCA0F6B834DC85599E4F2423B24DF0B6AFA979E534DFA9E7A4CC6FA631D486393
310
921829879BF5D781A373557BCB85E97FB90DB62B558F8795179C15944B051F40AB495CF35451D26A4727654E6D8033BD98EF82F21D91FF8AF2DD9982BCF1643BDD4EB516C9492E368C67C88DED563FC36D5EACF66DFF057C3658BDBFA69DF9578B3DA735B64F18C7F20770A9D45CFCF7FCF563D6456A277DBEF78A02637CA2
310
43B90A490AEAB94F72244481D24819A6C0E59B606BFA4B3025981DBB48EAB701D97BF19C577CC77F2D1B6C55A9EF3C732474C0B727303F625995056C3B02963D9EAC146BE78EC5FCEC7FA999EBC5EACBAAE41B12D27B4D2C0BBA49F244E2ECDC81B76B502F113D8F5EE8FB1BE3111CDD4FC2AA9B844CAB1288B68AB90A7CDC
310
1C166AB0D3DC5310625FCC14E779BFD0709F8890A629C9292B1B2DED31A4B0DA928CEE135085754027E3018A397D4D5427D15BD1330B677DC8934285AC3DF45A9EB68FF8F2B8FC0A509AFEECFD0FF2DE25CC6047F7214B195F07EFEB9A094D800F7BFAE8FED187B78EA8A3A400F115961BCAD1215E47C966530AF0EE8128FE
310
58CEBB996A8964FFA529A046635D9353B0336A8F700DDF46271A024E70B0B37C9DE01847591E54DED53D54202AB947E4076556AC49C6CA5C9E1226B7F1A7B1BE15DEED62C41B91E1B3E9AFAAA735036547343A925075041DF0A9979E893B391F8FCFA6967B3EFB644DCF6E5CEBFAE272625DCC6FAF3FB93793C5F90CE1EF57
310
407342756B10D1C489E8953CD1617E5CEECAD6F4EF8914CE5D5D504E5C3F1F9736DA62CFC11E00BCDDB8CC8A9466349744C1F75EBDA4DF09BA8A9E8C7A7E9991989E20E5DBDD6A6003664ED8F7A04A8DBE0DF6EAD9B9AA858342E47399053949D2C146EDB85DE4B176BB0965FBAC19BD19AA918E27FA50C1D22402E144464C
310
59462568E704B6E71915404CB72B8FF4EDE184DDAF753F284990D2C6926782963815403548A70C657FDEF80D2D9CEAA2AE4C1C76F60BFE74219A06527D6582DF6412526107381E55E353090704D085B52408D0933C4ED159D79BDA71BB4BC506F4831350EB6F979CD22D69BF7AC49B91A2C0A9DDA3D5CA36AD20FC478E37E6
310
1844E2352865EBCB6EA275A652E3836BE04EFB400BF1A2556F515F1FBB35B2AB35BD889C744FFA1004B5544B121E57F70215746DD2F5E2C1412B602CBF19455AC6C8E5E9922C4E01E65215385004546899059180EAFCF7A707CE7017CD8CDB0410789AB32C63B91E5CEBBBACB17AC6CD347A022D5075FD106377347AAABA7E
310
7D11590744509B44E205134DC1290F06580320F78E537D3D73540E06CB970B431F185308AD40BBD794D6D77003C5A36E8EAA54BA64597CD8F83BD552A080A365F7FF06504B0304140006080000CC70623B000000000000000000000000350000006662782F39464131463745442D413632322D343644302D413938332D3331
310
353338454246344243312F76657274696365732E62696E504B0304140006080800CC70623BF270F1330600000004000000360000006662782F39464131463745442D413632322D343644302D413938332D3331353338454246344243312F747269616E676C65732E62696E636660600000504B0304140006080000CC70623B
310
000000000000000000000000370000006662782F39464131463745442D413632322D343644302D413938332D3331353338454246344243312F617474726962757465732E62696E504B0304140006080800CC70623B08DA0BD19000000041010000360000006662782F39464131463745442D413632322D343644302D413938
310
332D3331353338454246344243312F6469726563746F72792E786D6C858F410AC3201045AF22B36F53E9A60B35CBEEBAE80D244E44489C6234F4F835464A48035D0DF398FF9F8AF63D0E6CC63039F212F8F9020C7D47C6792B21C5FE7403D62A1188E2E60C98D7234A5830286103A55745067B9D86B8A3CF9C7F90C11DE607
310
FB144396D7B6A82D282E9A152AD114D5EF2CB866EEE831B8EEA07A7BB5A8D7D61A2BAAEB7FD5F70921FF497D00504B0304140006080800CC70623B0D6EF93BFE000000A00100003B0000006662782F39464131463745442D413632322D343644302D413938332D3331353338454246344243312F7265736F75726365732F63
310
6F72652E786D6C8D50596E833010BD0A9ADFCA60B334011947A8694ED00B586642AC041B79A97AFC9A40A5F6AF3F33A3B7689E1E3F7DCD8FEC139DD7D6F4C0720A191A65476DA61E62B892236427C19DB5E1970C322367EC618541F0C9D9B8EC90B226A009093576C41D94DE63804C3DD2D18357379C652E63480A7FCF17A9
310
EE72C29CE5894E3AC17D702940B63D59270887DE46A7D0F36263058F518FBB468FE9A7BE6A7420864373B8D4873369AA8691FA421B3294352543C5CAF65C0F6FEF43CB8BD52C78D0F34F46E550061C419494B6843142CB0F5677F4B52BEB177AEC28E5C52AFF638ACBF84F53D42654E51E77B379102C05791282176B5F693D
310
CB4C7BED567C03504B010214000A0000080000CC70623B3DEE336E79000000790000001B00000000000000000000000000000000006175746F6465736B2D64657369676E2D7061636B6167652E786D6C504B01021400140006080800CC70623BD486FD9CA0000000F40000001300000000000000000000000000B20000005B
310
436F6E74656E745F54797065735D2E786D6C504B01021400140006080800CC70623B1EC5D7A3EB0000007C010000080000000000000000000000000083010000636F72652E786D6C504B01021400140006080800CC70623B55019EA25F0000007C000000070000000000000000000000000094020000636E782E786D6C504B
310
01021400140006080800CC70623B8C9102E971010000D40300000C00000000000000000000000000180300006662782F636F72652E786D6C504B01021400140006080800CC70623BFFEA85907E0000009D0000000B00000000000000000000000000B30400006662782F636E782E786D6C504B01021400140006080800CC70
310
623B4FEEA4082C0100001202000031000000000000000000000000005A0500006662782F39464131463745442D413632322D343644302D413938332D3331353338454246344243312F636F72652E786D6C504B01021400140006080800CC70623BAD7543B64E010000330300003000000000000000000000000000D5060000
310
6662782F39464131463745442D413632322D343644302D413938332D3331353338454246344243312F636E782E786D6C504B01021400140006080800CC70623B16AB87BA640500003C1000003400000000000000000000000000710800006662782F39464131463745442D413632322D343644302D413938332D3331353338
310
454246344243312F6F626A656374732E786D6C504B01021400140006080000CC70623B0000000000000000000000003500000000000000000000000000270E00006662782F39464131463745442D413632322D343644302D413938332D3331353338454246344243312F76657274696365732E62696E504B01021400140006
310
080800CC70623BF270F133060000000400000036000000000000000000000000007A0E00006662782F39464131463745442D413632322D343644302D413938332D3331353338454246344243312F747269616E676C65732E62696E504B01021400140006080000CC70623B0000000000000000000000003700000000000000
310
000000000000D40E00006662782F39464131463745442D413632322D343644302D413938332D3331353338454246344243312F617474726962757465732E62696E504B01021400140006080800CC70623B08DA0BD190000000410100003600000000000000000000000000290F00006662782F39464131463745442D413632
310
322D343644302D413938332D3331353338454246344243312F6469726563746F72792E786D6C504B01021400140006080800CC70623B0D6EF93BFE000000A00100003B000000000000000000000000000D1000006662782F39464131463745442D413632322D343644302D413938332D3331353338454246344243312F7265
310
736F75726365732F636F72652E786D6C504B0506000000000E000E0080040000641100000000
  0
XRECORD
  5
A95E
102
{ACAD_REACTORS
330
173
102
}
330
173
100
AcDbXrecord
280
     1
102
MATERIAL
148
0.0
149
0.0
149
0.0
 93
        0
 94
       63
282
     0
 72
     1
 77
     1
171
     1
175
     1
179
     1
273
     0
  0
XRECORD
  5
175
102
{ACAD_REACTORS
330
173
102
}
330
173
100
AcDbXrecord
280
     1
270
     1
271
     1
  0
XRECORD
  5
174
102
{ACAD_REACTORS
330
173
102
}
330
173
100
AcDbXrecord
280
     1
270
     1
271
     1
  0
XRECORD
  5
1FB
102
{ACAD_REACTORS
330
173
102
}
330
173
100
AcDbXrecord
280
     1
 70
     0
 90
1673772943
  1
ECE7A1D2-D628-4531-984C-D00F80459256
310
504B03040A0000080000CC70623B3DEE336E79000000790000001B0000006175746F6465736B2D64657369676E2D7061636B6167652E786D6C3C3F786D6C2076657273696F6E3D22312E302220656E636F64696E673D227574662D3822203F3E3C666F726D6174733E3C666F726D61743E687474703A2F2F736368656D612E
310
6175746F6465736B2E636F6D2F64657369676E2D7061636B6167652F323030393C2F666F726D61743E3C2F666F726D6174733E504B0304140006080800CC70623BD486FD9CA0000000F4000000130000005B436F6E74656E745F54797065735D2E786D6C7D8EC10E82300C865F65E91D8A1E8C310C0EEA1BF002731658846E
310
D98AC1B77784ABF1D8FE5FBFBF75BBCE937A534CCEB38643598122B6FEE978D0B0485F9C41B54DDD7D022595594E1A469170414C76A4D9A4D207E29CF43ECE46F218070CC6BECC4078ACAA135ACF422C856C0E68EA1BF5669944DDD7BCDE7B1F8E415D77AECB980613C2E4AC91FC167A2B244592486606FC29C8FD7F045B9A
310
EF7053A7E60B504B0304140006080800CC70623BD9DDAED0EC0000007C01000008000000636F72652E786D6C8D90416EC3201045AF82665B61836D9CD8C2444DD39CA01740405C94182C03558F5F9C3852BBEB6A467FFE9B197D7EF89E6EE8CB2CC17A37002D0820E394D7D68D03A478C17B4007C117EFE32F1B20272733C0
310
2A83E0E3E2D3BC49CABB685CCCAAF3DA6CA20CC14440EA969B0182FA34932C648AD911AEC52CD5558EA6A0CF2EC329598D1E47ACCEFBECC59A050463A7EA5833865FEBDD0E37353BE3EE8DBDE3F6786A48D375FBF6CC78B9C282473B3DEFABC5C86834888A900E538A49F5419B9EB47DD5BC907D4F082F57FB1F28CDFA9F50
310
B22ED6D5F6EE030B20687EE43E10BC5CB3C8E51E54AE6B6EE207504B0304140006080800CC70623B55019EA25F0000007C00000007000000636E782E786D6C4DCB3B0E80201045D1AD90E915ED2CF8AC45050C11660C8261F98AB1B07AC9C97D42D718D865D3E909258CFD00CCE24AC6E326A164D74DC0B4128928FF326038
310
472BA13128B1252AC747C6BAB984FC68F0B87FE8960A5C09FE86CFB69FBA01504B0304140006080800CC70623BA24EB22D72010000D40300000C0000006662782F636F72652E786D6CC5535B6E833010BC8AE5DF0A6C5E49888CA3A6694ED00B38E05014B091B1518EDFE511A5A9D228FD2A1F60CDEC7A67C6986DCE4D8D7A
310
69BA4AAB0C073EC548AA5C17952A33ECECD15B61B4E1CC686DBF9561A44423333CC098B3D268D7CE50AE9595CA02AA74216750749DB418E5352C32DCE59FB211BE70162ABA93DF8AFC244AE9073ED050C759670D0840D390E18DF9F1706664C23973AE2A66B62A605A75ACA4C13C4976E1364A12EF355A2EBD384AF65EFA96
310
BC7B8BED2EA6719AAE16FB8491A199335B351775B991C2CA02F390D2D40B028F861F41BCA68B7518BFD0D59A524686F29B26D7164F36B94AD9289CE54E6D1DE6010819891F6E21228B3AD1831EC219194284CF98F06DD01008846CC5A1BEF83801D4CBDC6A1303536877A57A513B0953A94FC707FDBE6064EA84A9E3E6E0FA
310
EE8CF0E9198F7784A316AA0413C2C2F2E0ECA0934D1AE6D05A69BCDE9E91D2A611F573361E38FC1375157F5752AE6B6DFE4B11990F88CCBF0719EE23FF02504B0304140006080800CC70623B408A7D3B7C0000009D0000000B0000006662782F636E782E786D6C4DCCD10A83201886E15B91FFDC552A92A0064DBC8F581632
310
D3703A76F9ABD1C18E3E78F878E5F0D9027ABBFCF2292AE86E2D20171F69F6715550CB827B40839639A5F2770314A7CD293819B45C73AAFB45B35BA61ACAA1C1C7E7855C58C15BC331339661262CC762340413D68D77DA5B42298546CBE6573AF60CEB2F504B0304140006080800CC70623B449FB9BD290100001202000031
310
0000006662782F36394639363044362D344446342D343946362D394244322D3234314243333846323333332F636F72652E786D6C8D515B6EC32010BC0AE22B55850D98B871848994463E412FE002495162B07854397EA176A4F62F3F2C9A9D991D587EB84F37F0AD7D30CEF6905418026DA553C65E7A98E219ED203808EE9D
310
8B7F6810D871D23D2C3014FCE25D9A57483A1BB58D19B54EE9151C43D0110279CB971E06F9A5A7B11A53CC8C70ADE6515EC78BAE4895DB992778883E0700CB907242D17643D7E2538BD869608875438BBAE38922CAC8F1BDD90DB4691A5E2F42C153326A951B95E398B3D1FE599322163C9AE9115F7A3D46ADA0A018778810
310
84E907617BDCEE297BC5BB3DC6BC2EF47FA234AB2745C9D8D8D035EE220B50105E2F0DC1954B9FB747187D9F9D8FA0CCDB042D5FA0C015C65B42DF78BD10F3F3B363CB56C7109DCFDFBBB97E662ED92EB62D13BC2E1BCAE5777DB9966D8A1F504B0304140006080800CC70623BAD7543B64E01000033030000300000006662
310
782F36394639363044362D344446342D343946362D394244322D3234314243333846323333332F636E782E786D6CD593CD6EC32010845F0571AD6CE3D48AD20813A9873E410FBD12D82434182C7EAAE6EDBB2424CD25871E7B41D6EC30B3FA84F9E67BB2E40B4234DE8DB46F1925E094D7C6ED479AD3AE5951B2113C789FEE
310
6C943839C1488B4C05DF079FE72A69D8C96C13AAD6B8631503449F83828872B949AC57D26200B826A308D316B4064D6E46FCDA41C05550DC9E483A00797BFD207EFB092A45DE9514C1BBD22178396BD39D891265658C238DEA00936C654E5E433CB65A26D9F6EDB5EBC14EBF49A45CB856E66048291F6939A9A81BB5C89177
310
38143CA680F4AA299D66A042CEB3354A2684DC9D8D178FE0D9B8B41CAAD720F880EE7EF93C0C18769E099ECC04D5A102C8049A8A05632F4DDF376CF1DE0F6BB65C2F8627B65A33C6BB62177CEBBDAD973006829F89F22E814B54F4BC2BE347F8AA8F681390B50FA73F804400B5F542E796F19FF974E7F78DB802FE05E20750
310
4B0304140006080800CC70623B8D05915C650500003B100000340000006662782F36394639363044362D344446342D343946362D394244322D3234314243333846323333332F6F626A656374732E786D6CAD575B6FA33814FE2B887D06429276DA1565D4266D158D3A339A6846FB502932E050B66023DB74D2FDF5FB190C01
310
9276B2973C046C8ECFF53B17071F77456EBD502133CEAE6CDF9DD81665314F32965ED995DA3A17B6F5310C04E7AA47665B8C14F4CAD6DB7618A48257A5D94AE89654B91AEDDEDDFC61C998326A5B714EA4BCB265FC440BE2924AF184CA6737218AB8E976E7FA6E4338649B0A523E8D98964450A6A029F619B8588D52FE7039
310
B1BD30F0F4F730D0FF866AF6369557DB33949F31A9088B0F848DD8CCFCF9F2767A76E99CCDE733677E3EF59D9BBB9BA5E37F984D16E78BC5E5F5ED25044B25C0C96822E8D60EEFE11B91C581D77CEA34368A1F5329E68CD1B8B61F16D63A1B8E092D294B10C78C4A48EB593D192E7DED9BDEE7995E1B91FDEDD3ACEA9FE831
310
6A756F9F7D4D79F4274C90A7A04248AA51D5F8C718DAE06FB2F75AC4796EBE65D22A88A22223B995679120E2D50E41AA49C260C046A35368846B0BECD0DFF3EBEB8AD4F835768F69B9ADF25C43D30E6B646F807FAA64AD59F61715C7A54127C4AACA98BA3006A9D792DAE165E0D59B61A01FB3A9F9D838D2DAE62445C86166
310
F37564E842E7DE6A69879FEEA2DD5AE7E371E1A5E025154AC307D06A03D73EB5978C58FFA4C8E9033066E0F3BD53BEC1F39F91BE7B55103791EDE6BBB991A2046172CB4581D8B893FA674DDA17A77B3B7C413D1B511FD2743BFF8A38F03A658705E3ADF8015C3A3417FF3D7E439FF591DA0B5F18BC20C1B8981957AE6392A3
310
F43C640C01D1A0B4728E2DD4F26DB4B3C3152A252A3B4E913CEC1C72F012782FF88EFF8637AA552DBEF76408E8A8DE9E50F9E1CB3A2DA0DB1B6039A893B56063DC5B3E3FFB5F72E67AB9FEB4AEC496C4F4C1149625DD662C53E89D7BF0F6151A046260D1337DFDC94502430F83B0EE07A130A224BCAD7DAE1D9FB6CD422FF6
310
920702629C4BB9AE79C12F243C6432A6794E18E5552BA56B431AAB5D91317302B2B071E86C3A42B1A02F999E24061403B5D0EB639195DA655DD3EBEAB4FB862DDF579F014AD0E73C22F99E28DA57FB98E75C6CA2D74D53086D600F4786E0FE3144B771A8A7B900F03594DB8A633CBC49B2EDB69228BB479CF863B5E807AAAB
310
23872F6DFEB4129B949CA33823F58830E86D65621E10047D9DB34D862E8EAC3C2ABC2F7B2C40D67CDFE01F5545B92105AF983AC54D93D69E56FB8E797F88913F898A9FEC705D3F9D1B54EC8426FB500D40A03BD0119B06E1B95DDC7EB8F6975367793EBD70E66733DFB9BC982F9CE564727731999F5D4ECFCE3B8D6A4DC2A0
310
6D50FD148437D110834A64C6CDDF57FBACB5C307A2A477DFE4939736CFEF2B175371E0E10CF0DD1D5C15654E0BCA14D1E87DD02FF93782A162C0A3D95F1524A52770F972BF1EE9809D13CE7DD599467F8ECE9ADD85CE85A34CD45355448C64F9E8A031DC2D596ACC6E5DD93D9B82DE2EF5CAF81363A8E47996A0DE24564A79
310
4115AACE09C55E14540231FDA13C319787134EBF34E3A022514E5B4D9E0826E25C02D5805B15ABE1BEF51B26383D445DD9E875EE33FE4C22DA16427D65A3BCA92CA6D28DD01DF5DC53330704308475351050232CCD31583787BA75774AFB06E5070DD0C8EF484E19968C5D83BA5B90B244D31E54D55A372320FE4786B7EA58
310
44E135AA5467CB7EA333A61683CC6A8C3257034C10CF46F40EF9F5BE59BE5BD30C3C72D235E95D10345C1D45445A5F0BB47E46A5EBE5570F9380B5FA629579952296A773720405982B9DE04011506178964401AA8BDF1FBF0A8EAB6861DD6580C0E38217056766716DAEB2D6FA0917D3E4116581EADB879C4E7CFFB11EFACD
310
3D641311495D92C8676CB409A72D18610D803CE8A626049E8EC1887CB5B44CC39883690DDA8399B4B9855B481E7D71D4A9D22F96E5BB73BF5793020C02137BF837504B0304140006080000CC70623B000000000000000000000000350000006662782F36394639363044362D344446342D343946362D394244322D32343142
310
43333846323333332F76657274696365732E62696E504B0304140006080800CC70623BF270F1330600000004000000360000006662782F36394639363044362D344446342D343946362D394244322D3234314243333846323333332F747269616E676C65732E62696E636660600000504B0304140006080000CC70623B0000
310
00000000000000000000370000006662782F36394639363044362D344446342D343946362D394244322D3234314243333846323333332F617474726962757465732E62696E504B0304140006080800CC70623B08DA0BD19000000041010000360000006662782F36394639363044362D344446342D343946362D394244322D
310
3234314243333846323333332F6469726563746F72792E786D6C858F410AC3201045AF22B36F53E9A60B35CBEEBAE80D244E44489C6234F4F835464A48035D0DF398FF9F8AF63D0E6CC63039F212F8F9020C7D47C6792B21C5FE7403D62A1188E2E60C98D7234A5830286103A55745067B9D86B8A3CF9C7F90C11DE607FB14
310
4396D7B6A82D282E9A152AD114D5EF2CB866EEE831B8EEA07A7BB5A8D7D61A2BAAEB7FD5F70921FF497D00504B0304140006080800CC70623BCA768048FE000000A00100003B0000006662782F36394639363044362D344446342D343946362D394244322D3234314243333846323333332F7265736F75726365732F636F72
310
652E786D6C8D50596E833010BD0A9ADFCA60D600328E9AA639412F609909B1126CE4A5EAF16B0295DABFFECC8CDEA2797AECF8353F924FB44E193D409E5248504B332A3D0D10FC95B4901C39B3C6F85F3248B49871801506CE266BC2B243D2688FDA47549B11775038871E12F988C7004EDE7016A9083E2ADC3D5D84BC8B09
310
D33C8D74D471E6BC8D0192EDC93A815B742658898E651BCB59086ADC356A8C3FD555A1055ED7E7E254D615792D0F075295F585746FF53B694EE78A565DD736979A65AB9933AFE69F8CD2A2F038022F28ED489E135A7CE4554F9BBEA85E68DB53CAB255FEC71496F19FA6A0B42F8B3DEE6673C0F318E4497096AD7DC5F52C33
310
EEB55BFE0D504B010214000A0000080000CC70623B3DEE336E79000000790000001B00000000000000000000000000000000006175746F6465736B2D64657369676E2D7061636B6167652E786D6C504B01021400140006080800CC70623BD486FD9CA0000000F40000001300000000000000000000000000B20000005B436F
310
6E74656E745F54797065735D2E786D6C504B01021400140006080800CC70623BD9DDAED0EC0000007C010000080000000000000000000000000083010000636F72652E786D6C504B01021400140006080800CC70623B55019EA25F0000007C000000070000000000000000000000000095020000636E782E786D6C504B0102
310
1400140006080800CC70623BA24EB22D72010000D40300000C00000000000000000000000000190300006662782F636F72652E786D6C504B01021400140006080800CC70623B408A7D3B7C0000009D0000000B00000000000000000000000000B50400006662782F636E782E786D6C504B01021400140006080800CC70623B
310
449FB9BD290100001202000031000000000000000000000000005A0500006662782F36394639363044362D344446342D343946362D394244322D3234314243333846323333332F636F72652E786D6C504B01021400140006080800CC70623BAD7543B64E010000330300003000000000000000000000000000D20600006662
310
782F36394639363044362D344446342D343946362D394244322D3234314243333846323333332F636E782E786D6C504B01021400140006080800CC70623B8D05915C650500003B10000034000000000000000000000000006E0800006662782F36394639363044362D344446342D343946362D394244322D32343142433338
310
46323333332F6F626A656374732E786D6C504B01021400140006080000CC70623B0000000000000000000000003500000000000000000000000000250E00006662782F36394639363044362D344446342D343946362D394244322D3234314243333846323333332F76657274696365732E62696E504B010214001400060808
310
00CC70623BF270F13306000000040000003600000000000000000000000000780E00006662782F36394639363044362D344446342D343946362D394244322D3234314243333846323333332F747269616E676C65732E62696E504B01021400140006080000CC70623B00000000000000000000000037000000000000000000
310
00000000D20E00006662782F36394639363044362D344446342D343946362D394244322D3234314243333846323333332F617474726962757465732E62696E504B01021400140006080800CC70623B08DA0BD190000000410100003600000000000000000000000000270F00006662782F36394639363044362D344446342D
310
343946362D394244322D3234314243333846323333332F6469726563746F72792E786D6C504B01021400140006080800CC70623BCA768048FE000000A00100003B000000000000000000000000000B1000006662782F36394639363044362D344446342D343946362D394244322D3234314243333846323333332F7265736F
310
75726365732F636F72652E786D6C504B0506000000000E000E0080040000621100000000
  0
XRECORD
  5
176
102
{ACAD_REACTORS
330
173
102
}
330
173
100
AcDbXrecord
280
     1
270
     1
271
     1
  0
XRECORD
  5
177
102
{ACAD_REACTORS
330
173
102
}
330
173
100
AcDbXrecord
280
     1
270
     1
271
     1
  0
XRECORD
  5
A980
102
{ACAD_REACTORS
330
A97F
102
}
330
A97F
100
AcDbXrecord
280
     1
102
ACAD_ROUNDTRIP_2012_MLEADER_STYLE
298
     1
  0
XRECORD
  5
A992
102
{ACAD_REACTORS
330
A991
102
}
330
A991
100
AcDbXrecord
280
     1
102
DISPLAYNAME
  1
Metric50
102
FLAGS
 90
        0
  0
CELLSTYLEMAP
  5
A952
102
{ACAD_REACTORS
330
162
102
}
330
162
100
AcDbCellStyleMap
 90
        3
300
CELLSTYLE
  1
TABLEFORMAT_BEGIN
 90
        5
170
     1
 91
        0
 92
    32768
 62
   257
 93
        1
300
CONTENTFORMAT
  1
CONTENTFORMAT_BEGIN
 90
        0
 91
        0
 92
      512
 93
        0
300

 40
0.0
140
1.0
 94
        5
 62
     0
340
11
144
6.0
309
CONTENTFORMAT_END
171
     1
301
MARGIN
  1
CELLMARGIN_BEGIN
 40
1.5
 40
1.5
 40
1.5
 40
1.5
 40
4.5
 40
4.5
309
CELLMARGIN_END
 94
        6
 95
        1
302
GRIDFORMAT
  1
GRIDFORMAT_BEGIN
 90
        0
 91
        1
 62
     0
 92
       -2
340
14
 93
        0
 40
1.125
309
GRIDFORMAT_END
 95
        2
302
GRIDFORMAT
  1
GRIDFORMAT_BEGIN
 90
        0
 91
        1
 62
     0
 92
       -2
340
14
 93
        0
 40
1.125
309
GRIDFORMAT_END
 95
        4
302
GRIDFORMAT
  1
GRIDFORMAT_BEGIN
 90
        0
 91
        1
 62
     0
 92
       -2
340
14
 93
        0
 40
1.125
309
GRIDFORMAT_END
 95
        8
302
GRIDFORMAT
  1
GRIDFORMAT_BEGIN
 90
        0
 91
        1
 62
     0
 92
       -2
340
14
 93
        0
 40
1.125
309
GRIDFORMAT_END
 95
       16
302
GRIDFORMAT
  1
GRIDFORMAT_BEGIN
 90
        0
 91
        1
 62
     0
 92
       -2
340
14
 93
        0
 40
1.125
309
GRIDFORMAT_END
 95
       32
302
GRIDFORMAT
  1
GRIDFORMAT_BEGIN
 90
        0
 91
        1
 62
     0
 92
       -2
340
14
 93
        0
 40
1.125
309
GRIDFORMAT_END
309
TABLEFORMAT_END
  1
CELLSTYLE_BEGIN
 90
        1
 91
        1
300
_TITLE
309
CELLSTYLE_END
300
CELLSTYLE
  1
TABLEFORMAT_BEGIN
 90
        5
170
     1
 91
        0
 92
        0
 62
   257
 93
        1
300
CONTENTFORMAT
  1
CONTENTFORMAT_BEGIN
 90
        0
 91
        0
 92
      512
 93
        0
300

 40
0.0
140
1.0
 94
        5
 62
     0
340
11
144
4.5
309
CONTENTFORMAT_END
171
     1
301
MARGIN
  1
CELLMARGIN_BEGIN
 40
1.5
 40
1.5
 40
1.5
 40
1.5
 40
4.5
 40
4.5
309
CELLMARGIN_END
 94
        6
 95
        1
302
GRIDFORMAT
  1
GRIDFORMAT_BEGIN
 90
        0
 91
        1
 62
     0
 92
       -2
340
14
 93
        0
 40
1.125
309
GRIDFORMAT_END
 95
        2
302
GRIDFORMAT
  1
GRIDFORMAT_BEGIN
 90
        0
 91
        1
 62
     0
 92
       -2
340
14
 93
        0
 40
1.125
309
GRIDFORMAT_END
 95
        4
302
GRIDFORMAT
  1
GRIDFORMAT_BEGIN
 90
        0
 91
        1
 62
     0
 92
       -2
340
14
 93
        0
 40
1.125
309
GRIDFORMAT_END
 95
        8
302
GRIDFORMAT
  1
GRIDFORMAT_BEGIN
 90
        0
 91
        1
 62
     0
 92
       -2
340
14
 93
        0
 40
1.125
309
GRIDFORMAT_END
 95
       16
302
GRIDFORMAT
  1
GRIDFORMAT_BEGIN
 90
        0
 91
        1
 62
     0
 92
       -2
340
14
 93
        0
 40
1.125
309
GRIDFORMAT_END
 95
       32
302
GRIDFORMAT
  1
GRIDFORMAT_BEGIN
 90
        0
 91
        1
 62
     0
 92
       -2
340
14
 93
        0
 40
1.125
309
GRIDFORMAT_END
309
TABLEFORMAT_END
  1
CELLSTYLE_BEGIN
 90
        2
 91
        1
300
_HEADER
309
CELLSTYLE_END
300
CELLSTYLE
  1
TABLEFORMAT_BEGIN
 90
        5
170
     1
 91
        0
 92
        0
 62
   257
 93
        1
300
CONTENTFORMAT
  1
CONTENTFORMAT_BEGIN
 90
        0
 91
        0
 92
      512
 93
        0
300

 40
0.0
140
1.0
 94
        2
 62
     0
340
11
144
4.5
309
CONTENTFORMAT_END
171
     1
301
MARGIN
  1
CELLMARGIN_BEGIN
 40
1.5
 40
1.5
 40
1.5
 40
1.5
 40
4.5
 40
4.5
309
CELLMARGIN_END
 94
        6
 95
        1
302
GRIDFORMAT
  1
GRIDFORMAT_BEGIN
 90
        0
 91
        1
 62
     0
 92
       -2
340
14
 93
        0
 40
1.125
309
GRIDFORMAT_END
 95
        2
302
GRIDFORMAT
  1
GRIDFORMAT_BEGIN
 90
        0
 91
        1
 62
     0
 92
       -2
340
14
 93
        0
 40
1.125
309
GRIDFORMAT_END
 95
        4
302
GRIDFORMAT
  1
GRIDFORMAT_BEGIN
 90
        0
 91
        1
 62
     0
 92
       -2
340
14
 93
        0
 40
1.125
309
GRIDFORMAT_END
 95
        8
302
GRIDFORMAT
  1
GRIDFORMAT_BEGIN
 90
        0
 91
        1
 62
     0
 92
       -2
340
14
 93
        0
 40
1.125
309
GRIDFORMAT_END
 95
       16
302
GRIDFORMAT
  1
GRIDFORMAT_BEGIN
 90
        0
 91
        1
 62
     0
 92
       -2
340
14
 93
        0
 40
1.125
309
GRIDFORMAT_END
 95
       32
302
GRIDFORMAT
  1
GRIDFORMAT_BEGIN
 90
        0
 91
        1
 62
     0
 92
       -2
340
14
 93
        0
 40
1.125
309
GRIDFORMAT_END
309
TABLEFORMAT_END
  1
CELLSTYLE_BEGIN
 90
        3
 91
        2
300
_DATA
309
CELLSTYLE_END
  0
XRECORD
  5
A957
102
{ACAD_REACTORS
330
162
102
}
330
162
100
AcDbXrecord
280
     1
102
ACAD_ROUNDTRIP_PRE2007_TABLESTYLE
 90
      512
 91
        0
  1

 92
      512
 93
        0
  2

 94
      512
 95
        0
  3

  0
XRECORD
  5
A96A
102
{ACAD_REACTORS
330
A969
102
}
330
A969
100
AcDbXrecord
280
     1
102
RTVSPost2010Prop28
280
     1
102
RTVSPost2010PropOp28
 70
     1
102
RTVSPost2010Prop29
280
     1
102
RTVSPost2010PropOp29
 70
     1
102
RTVSPost2010Prop30
280
     0
102
RTVSPost2010PropOp30
 70
     1
102
RTVSPost2010Prop31
280
     0
102
RTVSPost2010PropOp31
 70
     1
102
RTVSPost2010Prop32
280
     0
102
RTVSPost2010PropOp32
 70
     1
102
RTVSPost2010Prop33
280
     0
102
RTVSPost2010PropOp33
 70
     1
102
RTVSPost2010Prop34
280
     0
102
RTVSPost2010PropOp34
 70
     1
102
RTVSPost2010Prop35
280
     0
102
RTVSPost2010PropOp35
 70
     1
102
RTVSPost2010Prop36
280
     0
102
RTVSPost2010PropOp36
 70
     1
102
RTVSPost2010Prop37
 90
       50
102
RTVSPost2010PropOp37
 70
     1
102
RTVSPost2010Prop38
140
0.0
102
RTVSPost2010PropOp38
 70
     1
102
RTVSPost2010Prop39
140
1.0
102
RTVSPost2010PropOp39
 70
     1
102
RTVSPost2010Prop40
 90
        0
102
RTVSPost2010PropOp40
 70
     1
102
RTVSPost2010Prop41ColorIndex
 90
       18
102
RTVSPost2010Prop41ColorRGB
 90
        0
102
RTVSPost2010PropOp41
 70
     1
102
RTVSPost2010Prop42
 90
       50
102
RTVSPost2010PropOp42
 70
     1
102
RTVSPost2010Prop43
 90
        3
102
RTVSPost2010PropOp43
 70
     1
102
RTVSPost2010Prop44ColorIndex
 90
        5
102
RTVSPost2010Prop44ColorRGB
 90
      255
102
RTVSPost2010PropOp44
 70
     1
102
RTVSPost2010Prop45
280
     0
102
RTVSPost2010PropOp45
 70
     1
102
RTVSPost2010Prop46
 90
       50
102
RTVSPost2010PropOp46
 70
     1
102
RTVSPost2010Prop47
 90
       50
102
RTVSPost2010PropOp47
 70
     1
102
RTVSPost2010Prop48
 90
       50
102
RTVSPost2010PropOp48
 70
     1
102
RTVSPost2010Prop49
280
     0
102
RTVSPost2010PropOp49
 70
     1
102
RTVSPost2010Prop50
 90
       50
102
RTVSPost2010PropOp50
 70
     1
102
RTVSPost2010Prop51ColorIndex
 90
      256
102
RTVSPost2010Prop51ColorRGB
 90
-16777216
102
RTVSPost2010PropOp51
 70
     0
102
RTVSPost2010Prop52
140
1.0
102
RTVSPost2010PropOp52
 70
     0
102
RTVSPost2010Prop53
 90
        2
102
RTVSPost2010PropOp53
 70
     1
102
RTVSPost2010Prop54
  1
strokes_ogs.tif
102
RTVSPost2010PropOp54
 70
     1
102
RTVSPost2010Prop55
280
     0
102
RTVSPost2010PropOp55
 70
     1
102
RTVSPost2010Prop56
140
1.0
102
RTVSPost2010PropOp56
 70
     1
102
RTVSPost2010Prop57
140
1.0
102
RTVSPost2010PropOp57
 70
     1
102
RTVSPropertyOp0
 70
     1
102
RTVSPropertyOp1
 70
     1
102
RTVSPropertyOp2
 70
     1
102
RTVSPropertyOp3
 70
     1
102
RTVSPropertyOp4
 70
     1
102
RTVSPropertyOp5
 70
     1
102
RTVSPropertyOp6
 70
     1
102
RTVSPropertyOp7
 70
     1
102
RTVSPropertyOp8
 70
     1
102
RTVSPropertyOp9
 70
     1
102
RTVSPropertyOp10
 70
     1
102
RTVSPropertyOp11
 70
     1
102
RTVSPropertyOp12
 70
     1
102
RTVSPropertyOp13
 70
     1
102
RTVSPropertyOp14
 70
     1
102
RTVSPropertyOp15
 70
     1
102
RTVSPropertyOp16
 70
     1
102
RTVSPropertyOp17
 70
     1
102
RTVSPropertyOp18
 70
     1
102
RTVSPropertyOp19
 70
     1
102
RTVSPropertyOp20
 70
     1
102
RTVSPropertyOp21
 70
     1
102
RTVSPropertyOp22
 70
     1
102
RTVSPropertyOp23
 70
     1
102
RTVSPropertyOp24
 70
     1
102
RTVSPropertyOp25
 70
     1
102
RTVSPropertyOp26
 70
     1
102
RTVSPropertyOp27
 70
     1
102
RTVSPropertyOp28
 70
     1
102
RTVSPropertyOp29
 70
     1
102
RTVSPropertyOp30
 70
     1
102
RTVSPropertyOp31
 70
     1
102
RTVSPropertyOp32
 70
     1
102
RTVSPropertyOp33
 70
     1
102
RTVSPropertyOp34
 70
     1
102
RTVSPropertyOp35
 70
     1
102
RTVSPropertyOp36
 70
     1
102
RTVSPropertyOp37
 70
     1
102
RTVSPropertyOp38
 70
     1
102
RTVSPropertyOp39
 70
     1
102
RTVSPropertyOp40
 70
     1
102
RTVSPropertyOp41
 70
     1
102
RTVSPropertyOp42
 70
     1
102
RTVSPropertyOp43
 70
     1
102
RTVSPropertyOp44
 70
     1
102
RTVSPropertyOp45
 70
     1
102
RTVSPropertyOp46
 70
     1
102
RTVSPropertyOp47
 70
     1
102
RTVSPropertyOp48
 70
     1
102
RTVSPropertyOp49
 70
     1
102
RTVSPropertyOp50
 70
     1
102
RTVSPropertyOp51
 70
     0
102
RTVSPropertyOp52
 70
     0
102
RTVSPropertyOp53
 70
     1
102
RTVSPropertyOp54
 70
     1
102
RTVSPropertyOp55
 70
     1
102
RTVSPropertyOp56
 70
     1
102
RTVSPropertyOp57
 70
     1
102
RTVSPropertyOp58
 70
     1
102
RTVSPropertyOp59
 70
     1
102
RTVSPropertyOp60
 70
     1
102
RTVSPropertyOp61
 70
     1
102
RTVSPropertyOp62
 70
     1
  0
XRECORD
  5
A968
102
{ACAD_REACTORS
330
A967
102
}
330
A967
100
AcDbXrecord
280
     1
102
RTVSPost2010Prop28
280
     0
102
RTVSPost2010PropOp28
 70
     1
102
RTVSPost2010Prop29
280
     1
102
RTVSPost2010PropOp29
 70
     1
102
RTVSPost2010Prop30
280
     1
102
RTVSPost2010PropOp30
 70
     1
102
RTVSPost2010Prop31
280
     0
102
RTVSPost2010PropOp31
 70
     1
102
RTVSPost2010Prop32
280
     0
102
RTVSPost2010PropOp32
 70
     1
102
RTVSPost2010Prop33
280
     0
102
RTVSPost2010PropOp33
 70
     1
102
RTVSPost2010Prop34
280
     0
102
RTVSPost2010PropOp34
 70
     1
102
RTVSPost2010Prop35
280
     0
102
RTVSPost2010PropOp35
 70
     1
102
RTVSPost2010Prop36
280
     0
102
RTVSPost2010PropOp36
 70
     1
102
RTVSPost2010Prop37
 90
       50
102
RTVSPost2010PropOp37
 70
     1
102
RTVSPost2010Prop38
140
0.0
102
RTVSPost2010PropOp38
 70
     1
102
RTVSPost2010Prop39
140
1.0
102
RTVSPost2010PropOp39
 70
     1
102
RTVSPost2010Prop40
 90
        0
102
RTVSPost2010PropOp40
 70
     1
102
RTVSPost2010Prop41ColorIndex
 90
       18
102
RTVSPost2010Prop41ColorRGB
 90
        0
102
RTVSPost2010PropOp41
 70
     1
102
RTVSPost2010Prop42
 90
       50
102
RTVSPost2010PropOp42
 70
     1
102
RTVSPost2010Prop43
 90
        3
102
RTVSPost2010PropOp43
 70
     1
102
RTVSPost2010Prop44ColorIndex
 90
        5
102
RTVSPost2010Prop44ColorRGB
 90
      255
102
RTVSPost2010PropOp44
 70
     1
102
RTVSPost2010Prop45
280
     0
102
RTVSPost2010PropOp45
 70
     1
102
RTVSPost2010Prop46
 90
       50
102
RTVSPost2010PropOp46
 70
     1
102
RTVSPost2010Prop47
 90
       50
102
RTVSPost2010PropOp47
 70
     1
102
RTVSPost2010Prop48
 90
       50
102
RTVSPost2010PropOp48
 70
     1
102
RTVSPost2010Prop49
280
     0
102
RTVSPost2010PropOp49
 70
     1
102
RTVSPost2010Prop50
 90
       50
102
RTVSPost2010PropOp50
 70
     1
102
RTVSPost2010Prop51ColorIndex
 90
      256
102
RTVSPost2010Prop51ColorRGB
 90
-16777216
102
RTVSPost2010PropOp51
 70
     0
102
RTVSPost2010Prop52
140
1.0
102
RTVSPost2010PropOp52
 70
     0
102
RTVSPost2010Prop53
 90
        2
102
RTVSPost2010PropOp53
 70
     1
102
RTVSPost2010Prop54
  1
strokes_ogs.tif
102
RTVSPost2010PropOp54
 70
     1
102
RTVSPost2010Prop55
280
     0
102
RTVSPost2010PropOp55
 70
     1
102
RTVSPost2010Prop56
140
1.0
102
RTVSPost2010PropOp56
 70
     1
102
RTVSPost2010Prop57
140
1.0
102
RTVSPost2010PropOp57
 70
     1
102
RTVSPropertyOp0
 70
     1
102
RTVSPropertyOp1
 70
     1
102
RTVSPropertyOp2
 70
     1
102
RTVSPropertyOp3
 70
     1
102
RTVSPropertyOp4
 70
     1
102
RTVSPropertyOp5
 70
     1
102
RTVSPropertyOp6
 70
     1
102
RTVSPropertyOp7
 70
     1
102
RTVSPropertyOp8
 70
     1
102
RTVSPropertyOp9
 70
     1
102
RTVSPropertyOp10
 70
     1
102
RTVSPropertyOp11
 70
     1
102
RTVSPropertyOp12
 70
     1
102
RTVSPropertyOp13
 70
     1
102
RTVSPropertyOp14
 70
     1
102
RTVSPropertyOp15
 70
     1
102
RTVSPropertyOp16
 70
     1
102
RTVSPropertyOp17
 70
     1
102
RTVSPropertyOp18
 70
     1
102
RTVSPropertyOp19
 70
     1
102
RTVSPropertyOp20
 70
     1
102
RTVSPropertyOp21
 70
     1
102
RTVSPropertyOp22
 70
     1
102
RTVSPropertyOp23
 70
     1
102
RTVSPropertyOp24
 70
     1
102
RTVSPropertyOp25
 70
     1
102
RTVSPropertyOp26
 70
     1
102
RTVSPropertyOp27
 70
     1
102
RTVSPropertyOp28
 70
     1
102
RTVSPropertyOp29
 70
     1
102
RTVSPropertyOp30
 70
     1
102
RTVSPropertyOp31
 70
     1
102
RTVSPropertyOp32
 70
     1
102
RTVSPropertyOp33
 70
     1
102
RTVSPropertyOp34
 70
     1
102
RTVSPropertyOp35
 70
     1
102
RTVSPropertyOp36
 70
     1
102
RTVSPropertyOp37
 70
     1
102
RTVSPropertyOp38
 70
     1
102
RTVSPropertyOp39
 70
     1
102
RTVSPropertyOp40
 70
     1
102
RTVSPropertyOp41
 70
     1
102
RTVSPropertyOp42
 70
     1
102
RTVSPropertyOp43
 70
     1
102
RTVSPropertyOp44
 70
     1
102
RTVSPropertyOp45
 70
     1
102
RTVSPropertyOp46
 70
     1
102
RTVSPropertyOp47
 70
     1
102
RTVSPropertyOp48
 70
     1
102
RTVSPropertyOp49
 70
     1
102
RTVSPropertyOp50
 70
     1
102
RTVSPropertyOp51
 70
     0
102
RTVSPropertyOp52
 70
     0
102
RTVSPropertyOp53
 70
     1
102
RTVSPropertyOp54
 70
     1
102
RTVSPropertyOp55
 70
     1
102
RTVSPropertyOp56
 70
     1
102
RTVSPropertyOp57
 70
     1
102
RTVSPropertyOp58
 70
     1
102
RTVSPropertyOp59
 70
     1
102
RTVSPropertyOp60
 70
     1
102
RTVSPropertyOp61
 70
     1
102
RTVSPropertyOp62
 70
     1
  0
XRECORD
  5
A976
102
{ACAD_REACTORS
330
A975
102
}
330
A975
100
AcDbXrecord
280
     1
102
RTVSPost2010Prop28
280
     0
102
RTVSPost2010PropOp28
 70
     1
102
RTVSPost2010Prop29
280
     1
102
RTVSPost2010PropOp29
 70
     1
102
RTVSPost2010Prop30
280
     1
102
RTVSPost2010PropOp30
 70
     1
102
RTVSPost2010Prop31
280
     0
102
RTVSPost2010PropOp31
 70
     1
102
RTVSPost2010Prop32
280
     0
102
RTVSPost2010PropOp32
 70
     1
102
RTVSPost2010Prop33
280
     0
102
RTVSPost2010PropOp33
 70
     1
102
RTVSPost2010Prop34
280
     0
102
RTVSPost2010PropOp34
 70
     1
102
RTVSPost2010Prop35
280
     0
102
RTVSPost2010PropOp35
 70
     1
102
RTVSPost2010Prop36
280
     0
102
RTVSPost2010PropOp36
 70
     1
102
RTVSPost2010Prop37
 90
       50
102
RTVSPost2010PropOp37
 70
     1
102
RTVSPost2010Prop38
140
0.0
102
RTVSPost2010PropOp38
 70
     1
102
RTVSPost2010Prop39
140
1.0
102
RTVSPost2010PropOp39
 70
     1
102
RTVSPost2010Prop40
 90
        0
102
RTVSPost2010PropOp40
 70
     1
102
RTVSPost2010Prop41ColorIndex
 90
       18
102
RTVSPost2010Prop41ColorRGB
 90
        0
102
RTVSPost2010PropOp41
 70
     1
102
RTVSPost2010Prop42
 90
       50
102
RTVSPost2010PropOp42
 70
     1
102
RTVSPost2010Prop43
 90
        3
102
RTVSPost2010PropOp43
 70
     1
102
RTVSPost2010Prop44ColorIndex
 90
        5
102
RTVSPost2010Prop44ColorRGB
 90
      255
102
RTVSPost2010PropOp44
 70
     1
102
RTVSPost2010Prop45
280
     0
102
RTVSPost2010PropOp45
 70
     1
102
RTVSPost2010Prop46
 90
       50
102
RTVSPost2010PropOp46
 70
     1
102
RTVSPost2010Prop47
 90
       50
102
RTVSPost2010PropOp47
 70
     1
102
RTVSPost2010Prop48
 90
       50
102
RTVSPost2010PropOp48
 70
     1
102
RTVSPost2010Prop49
280
     0
102
RTVSPost2010PropOp49
 70
     1
102
RTVSPost2010Prop50
 90
       50
102
RTVSPost2010PropOp50
 70
     1
102
RTVSPost2010Prop51ColorIndex
 90
      256
102
RTVSPost2010Prop51ColorRGB
 90
-16777216
102
RTVSPost2010PropOp51
 70
     0
102
RTVSPost2010Prop52
140
1.0
102
RTVSPost2010PropOp52
 70
     0
102
RTVSPost2010Prop53
 90
        2
102
RTVSPost2010PropOp53
 70
     1
102
RTVSPost2010Prop54
  1
strokes_ogs.tif
102
RTVSPost2010PropOp54
 70
     1
102
RTVSPost2010Prop55
280
     0
102
RTVSPost2010PropOp55
 70
     1
102
RTVSPost2010Prop56
140
1.0
102
RTVSPost2010PropOp56
 70
     1
102
RTVSPost2010Prop57
140
1.0
102
RTVSPost2010PropOp57
 70
     1
102
RTVSPropertyOp0
 70
     1
102
RTVSPropertyOp1
 70
     1
102
RTVSPropertyOp2
 70
     1
102
RTVSPropertyOp3
 70
     1
102
RTVSPropertyOp4
 70
     1
102
RTVSPropertyOp5
 70
     1
102
RTVSPropertyOp6
 70
     1
102
RTVSPropertyOp7
 70
     1
102
RTVSPropertyOp8
 70
     1
102
RTVSPropertyOp9
 70
     1
102
RTVSPropertyOp10
 70
     1
102
RTVSPropertyOp11
 70
     1
102
RTVSPropertyOp12
 70
     1
102
RTVSPropertyOp13
 70
     1
102
RTVSPropertyOp14
 70
     1
102
RTVSPropertyOp15
 70
     1
102
RTVSPropertyOp16
 70
     1
102
RTVSPropertyOp17
 70
     1
102
RTVSPropertyOp18
 70
     1
102
RTVSPropertyOp19
 70
     1
102
RTVSPropertyOp20
 70
     1
102
RTVSPropertyOp21
 70
     1
102
RTVSPropertyOp22
 70
     1
102
RTVSPropertyOp23
 70
     1
102
RTVSPropertyOp24
 70
     1
102
RTVSPropertyOp25
 70
     1
102
RTVSPropertyOp26
 70
     1
102
RTVSPropertyOp27
 70
     1
102
RTVSPropertyOp28
 70
     1
102
RTVSPropertyOp29
 70
     1
102
RTVSPropertyOp30
 70
     1
102
RTVSPropertyOp31
 70
     1
102
RTVSPropertyOp32
 70
     1
102
RTVSPropertyOp33
 70
     1
102
RTVSPropertyOp34
 70
     1
102
RTVSPropertyOp35
 70
     1
102
RTVSPropertyOp36
 70
     1
102
RTVSPropertyOp37
 70
     1
102
RTVSPropertyOp38
 70
     1
102
RTVSPropertyOp39
 70
     1
102
RTVSPropertyOp40
 70
     1
102
RTVSPropertyOp41
 70
     1
102
RTVSPropertyOp42
 70
     1
102
RTVSPropertyOp43
 70
     1
102
RTVSPropertyOp44
 70
     1
102
RTVSPropertyOp45
 70
     1
102
RTVSPropertyOp46
 70
     1
102
RTVSPropertyOp47
 70
     1
102
RTVSPropertyOp48
 70
     1
102
RTVSPropertyOp49
 70
     1
102
RTVSPropertyOp50
 70
     1
102
RTVSPropertyOp51
 70
     0
102
RTVSPropertyOp52
 70
     0
102
RTVSPropertyOp53
 70
     1
102
RTVSPropertyOp54
 70
     1
102
RTVSPropertyOp55
 70
     1
102
RTVSPropertyOp56
 70
     1
102
RTVSPropertyOp57
 70
     1
102
RTVSPropertyOp58
 70
     1
102
RTVSPropertyOp59
 70
     1
102
RTVSPropertyOp60
 70
     1
102
RTVSPropertyOp61
 70
     1
102
RTVSPropertyOp62
 70
     1
  0
XRECORD
  5
A97E
102
{ACAD_REACTORS
330
A97D
102
}
330
A97D
100
AcDbXrecord
280
     1
102
RTVSPost2010Prop28
280
     0
102
RTVSPost2010PropOp28
 70
     1
102
RTVSPost2010Prop29
280
     1
102
RTVSPost2010PropOp29
 70
     1
102
RTVSPost2010Prop30
280
     1
102
RTVSPost2010PropOp30
 70
     1
102
RTVSPost2010Prop31
280
     0
102
RTVSPost2010PropOp31
 70
     1
102
RTVSPost2010Prop32
280
     0
102
RTVSPost2010PropOp32
 70
     1
102
RTVSPost2010Prop33
280
     0
102
RTVSPost2010PropOp33
 70
     1
102
RTVSPost2010Prop34
280
     0
102
RTVSPost2010PropOp34
 70
     1
102
RTVSPost2010Prop35
280
     0
102
RTVSPost2010PropOp35
 70
     1
102
RTVSPost2010Prop36
280
     0
102
RTVSPost2010PropOp36
 70
     1
102
RTVSPost2010Prop37
 90
       50
102
RTVSPost2010PropOp37
 70
     1
102
RTVSPost2010Prop38
140
0.0
102
RTVSPost2010PropOp38
 70
     1
102
RTVSPost2010Prop39
140
1.0
102
RTVSPost2010PropOp39
 70
     1
102
RTVSPost2010Prop40
 90
        0
102
RTVSPost2010PropOp40
 70
     1
102
RTVSPost2010Prop41ColorIndex
 90
       18
102
RTVSPost2010Prop41ColorRGB
 90
        0
102
RTVSPost2010PropOp41
 70
     1
102
RTVSPost2010Prop42
 90
       50
102
RTVSPost2010PropOp42
 70
     1
102
RTVSPost2010Prop43
 90
        3
102
RTVSPost2010PropOp43
 70
     1
102
RTVSPost2010Prop44ColorIndex
 90
        5
102
RTVSPost2010Prop44ColorRGB
 90
      255
102
RTVSPost2010PropOp44
 70
     1
102
RTVSPost2010Prop45
280
     0
102
RTVSPost2010PropOp45
 70
     1
102
RTVSPost2010Prop46
 90
       50
102
RTVSPost2010PropOp46
 70
     1
102
RTVSPost2010Prop47
 90
       50
102
RTVSPost2010PropOp47
 70
     1
102
RTVSPost2010Prop48
 90
       50
102
RTVSPost2010PropOp48
 70
     1
102
RTVSPost2010Prop49
280
     0
102
RTVSPost2010PropOp49
 70
     1
102
RTVSPost2010Prop50
 90
       50
102
RTVSPost2010PropOp50
 70
     1
102
RTVSPost2010Prop51ColorIndex
 90
      256
102
RTVSPost2010Prop51ColorRGB
 90
-16777216
102
RTVSPost2010PropOp51
 70
     0
102
RTVSPost2010Prop52
140
1.0
102
RTVSPost2010PropOp52
 70
     0
102
RTVSPost2010Prop53
 90
        2
102
RTVSPost2010PropOp53
 70
     1
102
RTVSPost2010Prop54
  1
strokes_ogs.tif
102
RTVSPost2010PropOp54
 70
     1
102
RTVSPost2010Prop55
280
     0
102
RTVSPost2010PropOp55
 70
     1
102
RTVSPost2010Prop56
140
1.0
102
RTVSPost2010PropOp56
 70
     1
102
RTVSPost2010Prop57
140
1.0
102
RTVSPost2010PropOp57
 70
     1
102
RTVSPropertyOp0
 70
     1
102
RTVSPropertyOp1
 70
     1
102
RTVSPropertyOp2
 70
     1
102
RTVSPropertyOp3
 70
     1
102
RTVSPropertyOp4
 70
     1
102
RTVSPropertyOp5
 70
     1
102
RTVSPropertyOp6
 70
     1
102
RTVSPropertyOp7
 70
     1
102
RTVSPropertyOp8
 70
     1
102
RTVSPropertyOp9
 70
     1
102
RTVSPropertyOp10
 70
     1
102
RTVSPropertyOp11
 70
     1
102
RTVSPropertyOp12
 70
     1
102
RTVSPropertyOp13
 70
     1
102
RTVSPropertyOp14
 70
     1
102
RTVSPropertyOp15
 70
     1
102
RTVSPropertyOp16
 70
     1
102
RTVSPropertyOp17
 70
     1
102
RTVSPropertyOp18
 70
     1
102
RTVSPropertyOp19
 70
     1
102
RTVSPropertyOp20
 70
     1
102
RTVSPropertyOp21
 70
     1
102
RTVSPropertyOp22
 70
     1
102
RTVSPropertyOp23
 70
     1
102
RTVSPropertyOp24
 70
     1
102
RTVSPropertyOp25
 70
     1
102
RTVSPropertyOp26
 70
     1
102
RTVSPropertyOp27
 70
     1
102
RTVSPropertyOp28
 70
     1
102
RTVSPropertyOp29
 70
     1
102
RTVSPropertyOp30
 70
     1
102
RTVSPropertyOp31
 70
     1
102
RTVSPropertyOp32
 70
     1
102
RTVSPropertyOp33
 70
     1
102
RTVSPropertyOp34
 70
     1
102
RTVSPropertyOp35
 70
     1
102
RTVSPropertyOp36
 70
     1
102
RTVSPropertyOp37
 70
     1
102
RTVSPropertyOp38
 70
     1
102
RTVSPropertyOp39
 70
     1
102
RTVSPropertyOp40
 70
     1
102
RTVSPropertyOp41
 70
     1
102
RTVSPropertyOp42
 70
     1
102
RTVSPropertyOp43
 70
     1
102
RTVSPropertyOp44
 70
     1
102
RTVSPropertyOp45
 70
     1
102
RTVSPropertyOp46
 70
     1
102
RTVSPropertyOp47
 70
     1
102
RTVSPropertyOp48
 70
     1
102
RTVSPropertyOp49
 70
     1
102
RTVSPropertyOp50
 70
     1
102
RTVSPropertyOp51
 70
     0
102
RTVSPropertyOp52
 70
     0
102
RTVSPropertyOp53
 70
     1
102
RTVSPropertyOp54
 70
     1
102
RTVSPropertyOp55
 70
     1
102
RTVSPropertyOp56
 70
     1
102
RTVSPropertyOp57
 70
     1
102
RTVSPropertyOp58
 70
     1
102
RTVSPropertyOp59
 70
     1
102
RTVSPropertyOp60
 70
     1
102
RTVSPropertyOp61
 70
     1
102
RTVSPropertyOp62
 70
     1
  0
XRECORD
  5
A970
102
{ACAD_REACTORS
330
A96F
102
}
330
A96F
100
AcDbXrecord
280
     1
102
RTVSPost2010Prop28
280
     0
102
RTVSPost2010PropOp28
 70
     1
102
RTVSPost2010Prop29
280
     1
102
RTVSPost2010PropOp29
 70
     1
102
RTVSPost2010Prop30
280
     1
102
RTVSPost2010PropOp30
 70
     1
102
RTVSPost2010Prop31
280
     0
102
RTVSPost2010PropOp31
 70
     1
102
RTVSPost2010Prop32
280
     0
102
RTVSPost2010PropOp32
 70
     1
102
RTVSPost2010Prop33
280
     0
102
RTVSPost2010PropOp33
 70
     1
102
RTVSPost2010Prop34
280
     0
102
RTVSPost2010PropOp34
 70
     1
102
RTVSPost2010Prop35
280
     0
102
RTVSPost2010PropOp35
 70
     1
102
RTVSPost2010Prop36
280
     0
102
RTVSPost2010PropOp36
 70
     1
102
RTVSPost2010Prop37
 90
       50
102
RTVSPost2010PropOp37
 70
     1
102
RTVSPost2010Prop38
140
0.0
102
RTVSPost2010PropOp38
 70
     1
102
RTVSPost2010Prop39
140
1.0
102
RTVSPost2010PropOp39
 70
     1
102
RTVSPost2010Prop40
 90
        0
102
RTVSPost2010PropOp40
 70
     1
102
RTVSPost2010Prop41ColorIndex
 90
       18
102
RTVSPost2010Prop41ColorRGB
 90
        0
102
RTVSPost2010PropOp41
 70
     1
102
RTVSPost2010Prop42
 90
       50
102
RTVSPost2010PropOp42
 70
     1
102
RTVSPost2010Prop43
 90
        3
102
RTVSPost2010PropOp43
 70
     1
102
RTVSPost2010Prop44ColorIndex
 90
        5
102
RTVSPost2010Prop44ColorRGB
 90
      255
102
RTVSPost2010PropOp44
 70
     1
102
RTVSPost2010Prop45
280
     0
102
RTVSPost2010PropOp45
 70
     1
102
RTVSPost2010Prop46
 90
       50
102
RTVSPost2010PropOp46
 70
     1
102
RTVSPost2010Prop47
 90
       50
102
RTVSPost2010PropOp47
 70
     1
102
RTVSPost2010Prop48
 90
       50
102
RTVSPost2010PropOp48
 70
     1
102
RTVSPost2010Prop49
280
     0
102
RTVSPost2010PropOp49
 70
     1
102
RTVSPost2010Prop50
 90
       50
102
RTVSPost2010PropOp50
 70
     1
102
RTVSPost2010Prop51ColorIndex
 90
      256
102
RTVSPost2010Prop51ColorRGB
 90
-16777216
102
RTVSPost2010PropOp51
 70
     0
102
RTVSPost2010Prop52
140
1.0
102
RTVSPost2010PropOp52
 70
     0
102
RTVSPost2010Prop53
 90
        2
102
RTVSPost2010PropOp53
 70
     1
102
RTVSPost2010Prop54
  1
strokes_ogs.tif
102
RTVSPost2010PropOp54
 70
     1
102
RTVSPost2010Prop55
280
     0
102
RTVSPost2010PropOp55
 70
     1
102
RTVSPost2010Prop56
140
1.0
102
RTVSPost2010PropOp56
 70
     1
102
RTVSPost2010Prop57
140
1.0
102
RTVSPost2010PropOp57
 70
     1
102
RTVSPropertyOp0
 70
     1
102
RTVSPropertyOp1
 70
     1
102
RTVSPropertyOp2
 70
     1
102
RTVSPropertyOp3
 70
     1
102
RTVSPropertyOp4
 70
     1
102
RTVSPropertyOp5
 70
     1
102
RTVSPropertyOp6
 70
     1
102
RTVSPropertyOp7
 70
     1
102
RTVSPropertyOp8
 70
     1
102
RTVSPropertyOp9
 70
     1
102
RTVSPropertyOp10
 70
     1
102
RTVSPropertyOp11
 70
     1
102
RTVSPropertyOp12
 70
     1
102
RTVSPropertyOp13
 70
     1
102
RTVSPropertyOp14
 70
     1
102
RTVSPropertyOp15
 70
     1
102
RTVSPropertyOp16
 70
     1
102
RTVSPropertyOp17
 70
     1
102
RTVSPropertyOp18
 70
     1
102
RTVSPropertyOp19
 70
     1
102
RTVSPropertyOp20
 70
     1
102
RTVSPropertyOp21
 70
     1
102
RTVSPropertyOp22
 70
     1
102
RTVSPropertyOp23
 70
     1
102
RTVSPropertyOp24
 70
     1
102
RTVSPropertyOp25
 70
     1
102
RTVSPropertyOp26
 70
     1
102
RTVSPropertyOp27
 70
     1
102
RTVSPropertyOp28
 70
     1
102
RTVSPropertyOp29
 70
     1
102
RTVSPropertyOp30
 70
     1
102
RTVSPropertyOp31
 70
     1
102
RTVSPropertyOp32
 70
     1
102
RTVSPropertyOp33
 70
     1
102
RTVSPropertyOp34
 70
     1
102
RTVSPropertyOp35
 70
     1
102
RTVSPropertyOp36
 70
     1
102
RTVSPropertyOp37
 70
     1
102
RTVSPropertyOp38
 70
     1
102
RTVSPropertyOp39
 70
     1
102
RTVSPropertyOp40
 70
     1
102
RTVSPropertyOp41
 70
     1
102
RTVSPropertyOp42
 70
     1
102
RTVSPropertyOp43
 70
     1
102
RTVSPropertyOp44
 70
     1
102
RTVSPropertyOp45
 70
     1
102
RTVSPropertyOp46
 70
     1
102
RTVSPropertyOp47
 70
     1
102
RTVSPropertyOp48
 70
     1
102
RTVSPropertyOp49
 70
     1
102
RTVSPropertyOp50
 70
     1
102
RTVSPropertyOp51
 70
     0
102
RTVSPropertyOp52
 70
     0
102
RTVSPropertyOp53
 70
     1
102
RTVSPropertyOp54
 70
     1
102
RTVSPropertyOp55
 70
     1
102
RTVSPropertyOp56
 70
     1
102
RTVSPropertyOp57
 70
     1
102
RTVSPropertyOp58
 70
     1
102
RTVSPropertyOp59
 70
     1
102
RTVSPropertyOp60
 70
     1
102
RTVSPropertyOp61
 70
     1
102
RTVSPropertyOp62
 70
     1
  0
XRECORD
  5
A974
102
{ACAD_REACTORS
330
A973
102
}
330
A973
100
AcDbXrecord
280
     1
102
RTVSPost2010Prop28
280
     0
102
RTVSPost2010PropOp28
 70
     1
102
RTVSPost2010Prop29
280
     1
102
RTVSPost2010PropOp29
 70
     1
102
RTVSPost2010Prop30
280
     1
102
RTVSPost2010PropOp30
 70
     1
102
RTVSPost2010Prop31
280
     0
102
RTVSPost2010PropOp31
 70
     1
102
RTVSPost2010Prop32
280
     0
102
RTVSPost2010PropOp32
 70
     1
102
RTVSPost2010Prop33
280
     0
102
RTVSPost2010PropOp33
 70
     1
102
RTVSPost2010Prop34
280
     0
102
RTVSPost2010PropOp34
 70
     1
102
RTVSPost2010Prop35
280
     0
102
RTVSPost2010PropOp35
 70
     1
102
RTVSPost2010Prop36
280
     0
102
RTVSPost2010PropOp36
 70
     1
102
RTVSPost2010Prop37
 90
       50
102
RTVSPost2010PropOp37
 70
     1
102
RTVSPost2010Prop38
140
0.0
102
RTVSPost2010PropOp38
 70
     1
102
RTVSPost2010Prop39
140
1.0
102
RTVSPost2010PropOp39
 70
     1
102
RTVSPost2010Prop40
 90
        0
102
RTVSPost2010PropOp40
 70
     1
102
RTVSPost2010Prop41ColorIndex
 90
       18
102
RTVSPost2010Prop41ColorRGB
 90
        0
102
RTVSPost2010PropOp41
 70
     1
102
RTVSPost2010Prop42
 90
       50
102
RTVSPost2010PropOp42
 70
     1
102
RTVSPost2010Prop43
 90
        3
102
RTVSPost2010PropOp43
 70
     1
102
RTVSPost2010Prop44ColorIndex
 90
        5
102
RTVSPost2010Prop44ColorRGB
 90
      255
102
RTVSPost2010PropOp44
 70
     1
102
RTVSPost2010Prop45
280
     0
102
RTVSPost2010PropOp45
 70
     1
102
RTVSPost2010Prop46
 90
       50
102
RTVSPost2010PropOp46
 70
     1
102
RTVSPost2010Prop47
 90
       50
102
RTVSPost2010PropOp47
 70
     1
102
RTVSPost2010Prop48
 90
       50
102
RTVSPost2010PropOp48
 70
     1
102
RTVSPost2010Prop49
280
     0
102
RTVSPost2010PropOp49
 70
     1
102
RTVSPost2010Prop50
 90
       50
102
RTVSPost2010PropOp50
 70
     1
102
RTVSPost2010Prop51ColorIndex
 90
      256
102
RTVSPost2010Prop51ColorRGB
 90
-16777216
102
RTVSPost2010PropOp51
 70
     0
102
RTVSPost2010Prop52
140
1.0
102
RTVSPost2010PropOp52
 70
     0
102
RTVSPost2010Prop53
 90
        2
102
RTVSPost2010PropOp53
 70
     1
102
RTVSPost2010Prop54
  1
strokes_ogs.tif
102
RTVSPost2010PropOp54
 70
     1
102
RTVSPost2010Prop55
280
     0
102
RTVSPost2010PropOp55
 70
     1
102
RTVSPost2010Prop56
140
1.0
102
RTVSPost2010PropOp56
 70
     1
102
RTVSPost2010Prop57
140
1.0
102
RTVSPost2010PropOp57
 70
     1
102
RTVSPropertyOp0
 70
     1
102
RTVSPropertyOp1
 70
     1
102
RTVSPropertyOp2
 70
     1
102
RTVSPropertyOp3
 70
     1
102
RTVSPropertyOp4
 70
     1
102
RTVSPropertyOp5
 70
     1
102
RTVSPropertyOp6
 70
     1
102
RTVSPropertyOp7
 70
     1
102
RTVSPropertyOp8
 70
     1
102
RTVSPropertyOp9
 70
     1
102
RTVSPropertyOp10
 70
     1
102
RTVSPropertyOp11
 70
     1
102
RTVSPropertyOp12
 70
     1
102
RTVSPropertyOp13
 70
     1
102
RTVSPropertyOp14
 70
     1
102
RTVSPropertyOp15
 70
     1
102
RTVSPropertyOp16
 70
     1
102
RTVSPropertyOp17
 70
     1
102
RTVSPropertyOp18
 70
     1
102
RTVSPropertyOp19
 70
     1
102
RTVSPropertyOp20
 70
     1
102
RTVSPropertyOp21
 70
     1
102
RTVSPropertyOp22
 70
     1
102
RTVSPropertyOp23
 70
     1
102
RTVSPropertyOp24
 70
     1
102
RTVSPropertyOp25
 70
     1
102
RTVSPropertyOp26
 70
     1
102
RTVSPropertyOp27
 70
     1
102
RTVSPropertyOp28
 70
     1
102
RTVSPropertyOp29
 70
     1
102
RTVSPropertyOp30
 70
     1
102
RTVSPropertyOp31
 70
     1
102
RTVSPropertyOp32
 70
     1
102
RTVSPropertyOp33
 70
     1
102
RTVSPropertyOp34
 70
     1
102
RTVSPropertyOp35
 70
     1
102
RTVSPropertyOp36
 70
     1
102
RTVSPropertyOp37
 70
     1
102
RTVSPropertyOp38
 70
     1
102
RTVSPropertyOp39
 70
     1
102
RTVSPropertyOp40
 70
     1
102
RTVSPropertyOp41
 70
     1
102
RTVSPropertyOp42
 70
     1
102
RTVSPropertyOp43
 70
     1
102
RTVSPropertyOp44
 70
     1
102
RTVSPropertyOp45
 70
     1
102
RTVSPropertyOp46
 70
     1
102
RTVSPropertyOp47
 70
     1
102
RTVSPropertyOp48
 70
     1
102
RTVSPropertyOp49
 70
     1
102
RTVSPropertyOp50
 70
     1
102
RTVSPropertyOp51
 70
     0
102
RTVSPropertyOp52
 70
     0
102
RTVSPropertyOp53
 70
     1
102
RTVSPropertyOp54
 70
     1
102
RTVSPropertyOp55
 70
     1
102
RTVSPropertyOp56
 70
     1
102
RTVSPropertyOp57
 70
     1
102
RTVSPropertyOp58
 70
     1
102
RTVSPropertyOp59
 70
     1
102
RTVSPropertyOp60
 70
     1
102
RTVSPropertyOp61
 70
     1
102
RTVSPropertyOp62
 70
     1
  0
XRECORD
  5
A986
102
{ACAD_REACTORS
330
A985
102
}
330
A985
100
AcDbXrecord
280
     1
102
RTVSPost2010Prop28
280
     0
102
RTVSPost2010PropOp28
 70
     1
102
RTVSPost2010Prop29
280
     1
102
RTVSPost2010PropOp29
 70
     1
102
RTVSPost2010Prop30
280
     1
102
RTVSPost2010PropOp30
 70
     1
102
RTVSPost2010Prop31
280
     0
102
RTVSPost2010PropOp31
 70
     1
102
RTVSPost2010Prop32
280
     0
102
RTVSPost2010PropOp32
 70
     1
102
RTVSPost2010Prop33
280
     0
102
RTVSPost2010PropOp33
 70
     1
102
RTVSPost2010Prop34
280
     0
102
RTVSPost2010PropOp34
 70
     1
102
RTVSPost2010Prop35
280
     0
102
RTVSPost2010PropOp35
 70
     1
102
RTVSPost2010Prop36
280
     0
102
RTVSPost2010PropOp36
 70
     1
102
RTVSPost2010Prop37
 90
       50
102
RTVSPost2010PropOp37
 70
     1
102
RTVSPost2010Prop38
140
0.0
102
RTVSPost2010PropOp38
 70
     1
102
RTVSPost2010Prop39
140
1.0
102
RTVSPost2010PropOp39
 70
     1
102
RTVSPost2010Prop40
 90
        0
102
RTVSPost2010PropOp40
 70
     1
102
RTVSPost2010Prop41ColorIndex
 90
       18
102
RTVSPost2010Prop41ColorRGB
 90
        0
102
RTVSPost2010PropOp41
 70
     1
102
RTVSPost2010Prop42
 90
       50
102
RTVSPost2010PropOp42
 70
     1
102
RTVSPost2010Prop43
 90
        3
102
RTVSPost2010PropOp43
 70
     1
102
RTVSPost2010Prop44ColorIndex
 90
        5
102
RTVSPost2010Prop44ColorRGB
 90
      255
102
RTVSPost2010PropOp44
 70
     1
102
RTVSPost2010Prop45
280
     0
102
RTVSPost2010PropOp45
 70
     1
102
RTVSPost2010Prop46
 90
       50
102
RTVSPost2010PropOp46
 70
     1
102
RTVSPost2010Prop47
 90
       50
102
RTVSPost2010PropOp47
 70
     1
102
RTVSPost2010Prop48
 90
       50
102
RTVSPost2010PropOp48
 70
     1
102
RTVSPost2010Prop49
280
     0
102
RTVSPost2010PropOp49
 70
     1
102
RTVSPost2010Prop50
 90
       50
102
RTVSPost2010PropOp50
 70
     1
102
RTVSPost2010Prop51ColorIndex
 90
      256
102
RTVSPost2010Prop51ColorRGB
 90
-16777216
102
RTVSPost2010PropOp51
 70
     0
102
RTVSPost2010Prop52
140
1.0
102
RTVSPost2010PropOp52
 70
     0
102
RTVSPost2010Prop53
 90
        2
102
RTVSPost2010PropOp53
 70
     1
102
RTVSPost2010Prop54
  1
strokes_ogs.tif
102
RTVSPost2010PropOp54
 70
     1
102
RTVSPost2010Prop55
280
     0
102
RTVSPost2010PropOp55
 70
     1
102
RTVSPost2010Prop56
140
1.0
102
RTVSPost2010PropOp56
 70
     1
102
RTVSPost2010Prop57
140
1.0
102
RTVSPost2010PropOp57
 70
     1
102
RTVSPropertyOp0
 70
     0
102
RTVSPropertyOp1
 70
     0
102
RTVSPropertyOp2
 70
     0
102
RTVSPropertyOp3
 70
     0
102
RTVSPropertyOp4
 70
     0
102
RTVSPropertyOp5
 70
     0
102
RTVSPropertyOp6
 70
     0
102
RTVSPropertyOp7
 70
     0
102
RTVSPropertyOp8
 70
     0
102
RTVSPropertyOp9
 70
     0
102
RTVSPropertyOp10
 70
     0
102
RTVSPropertyOp11
 70
     0
102
RTVSPropertyOp12
 70
     0
102
RTVSPropertyOp13
 70
     0
102
RTVSPropertyOp14
 70
     2
102
RTVSPropertyOp15
 70
     0
102
RTVSPropertyOp16
 70
     0
102
RTVSPropertyOp17
 70
     0
102
RTVSPropertyOp18
 70
     0
102
RTVSPropertyOp19
 70
     0
102
RTVSPropertyOp20
 70
     0
102
RTVSPropertyOp21
 70
     0
102
RTVSPropertyOp22
 70
     0
102
RTVSPropertyOp23
 70
     0
102
RTVSPropertyOp24
 70
     0
102
RTVSPropertyOp25
 70
     0
102
RTVSPropertyOp26
 70
     0
102
RTVSPropertyOp27
 70
     0
102
RTVSPropertyOp28
 70
     1
102
RTVSPropertyOp29
 70
     1
102
RTVSPropertyOp30
 70
     1
102
RTVSPropertyOp31
 70
     1
102
RTVSPropertyOp32
 70
     1
102
RTVSPropertyOp33
 70
     1
102
RTVSPropertyOp34
 70
     1
102
RTVSPropertyOp35
 70
     1
102
RTVSPropertyOp36
 70
     1
102
RTVSPropertyOp37
 70
     1
102
RTVSPropertyOp38
 70
     1
102
RTVSPropertyOp39
 70
     1
102
RTVSPropertyOp40
 70
     1
102
RTVSPropertyOp41
 70
     1
102
RTVSPropertyOp42
 70
     1
102
RTVSPropertyOp43
 70
     1
102
RTVSPropertyOp44
 70
     1
102
RTVSPropertyOp45
 70
     1
102
RTVSPropertyOp46
 70
     1
102
RTVSPropertyOp47
 70
     1
102
RTVSPropertyOp48
 70
     1
102
RTVSPropertyOp49
 70
     1
102
RTVSPropertyOp50
 70
     1
102
RTVSPropertyOp51
 70
     0
102
RTVSPropertyOp52
 70
     0
102
RTVSPropertyOp53
 70
     1
102
RTVSPropertyOp54
 70
     1
102
RTVSPropertyOp55
 70
     1
102
RTVSPropertyOp56
 70
     1
102
RTVSPropertyOp57
 70
     1
102
RTVSPropertyOp58
 70
     1
102
RTVSPropertyOp59
 70
     1
102
RTVSPropertyOp60
 70
     1
102
RTVSPropertyOp61
 70
     1
102
RTVSPropertyOp62
 70
     1
  0
XRECORD
  5
A97C
102
{ACAD_REACTORS
330
A97B
102
}
330
A97B
100
AcDbXrecord
280
     1
102
RTVSPost2010Prop28
280
     0
102
RTVSPost2010PropOp28
 70
     1
102
RTVSPost2010Prop29
280
     1
102
RTVSPost2010PropOp29
 70
     1
102
RTVSPost2010Prop30
280
     1
102
RTVSPost2010PropOp30
 70
     1
102
RTVSPost2010Prop31
280
     0
102
RTVSPost2010PropOp31
 70
     1
102
RTVSPost2010Prop32
280
     0
102
RTVSPost2010PropOp32
 70
     1
102
RTVSPost2010Prop33
280
     0
102
RTVSPost2010PropOp33
 70
     1
102
RTVSPost2010Prop34
280
     0
102
RTVSPost2010PropOp34
 70
     1
102
RTVSPost2010Prop35
280
     0
102
RTVSPost2010PropOp35
 70
     1
102
RTVSPost2010Prop36
280
     0
102
RTVSPost2010PropOp36
 70
     1
102
RTVSPost2010Prop37
 90
       50
102
RTVSPost2010PropOp37
 70
     1
102
RTVSPost2010Prop38
140
0.0
102
RTVSPost2010PropOp38
 70
     1
102
RTVSPost2010Prop39
140
1.0
102
RTVSPost2010PropOp39
 70
     1
102
RTVSPost2010Prop40
 90
        0
102
RTVSPost2010PropOp40
 70
     1
102
RTVSPost2010Prop41ColorIndex
 90
       18
102
RTVSPost2010Prop41ColorRGB
 90
        0
102
RTVSPost2010PropOp41
 70
     1
102
RTVSPost2010Prop42
 90
       50
102
RTVSPost2010PropOp42
 70
     1
102
RTVSPost2010Prop43
 90
        3
102
RTVSPost2010PropOp43
 70
     1
102
RTVSPost2010Prop44ColorIndex
 90
        5
102
RTVSPost2010Prop44ColorRGB
 90
      255
102
RTVSPost2010PropOp44
 70
     1
102
RTVSPost2010Prop45
280
     0
102
RTVSPost2010PropOp45
 70
     1
102
RTVSPost2010Prop46
 90
       50
102
RTVSPost2010PropOp46
 70
     1
102
RTVSPost2010Prop47
 90
       50
102
RTVSPost2010PropOp47
 70
     1
102
RTVSPost2010Prop48
 90
       50
102
RTVSPost2010PropOp48
 70
     1
102
RTVSPost2010Prop49
280
     0
102
RTVSPost2010PropOp49
 70
     1
102
RTVSPost2010Prop50
 90
       50
102
RTVSPost2010PropOp50
 70
     1
102
RTVSPost2010Prop51ColorIndex
 90
      256
102
RTVSPost2010Prop51ColorRGB
 90
-16777216
102
RTVSPost2010PropOp51
 70
     0
102
RTVSPost2010Prop52
140
1.0
102
RTVSPost2010PropOp52
 70
     0
102
RTVSPost2010Prop53
 90
        2
102
RTVSPost2010PropOp53
 70
     1
102
RTVSPost2010Prop54
  1
strokes_ogs.tif
102
RTVSPost2010PropOp54
 70
     1
102
RTVSPost2010Prop55
280
     0
102
RTVSPost2010PropOp55
 70
     1
102
RTVSPost2010Prop56
140
1.0
102
RTVSPost2010PropOp56
 70
     1
102
RTVSPost2010Prop57
140
1.0
102
RTVSPost2010PropOp57
 70
     1
102
RTVSPropertyOp0
 70
     1
102
RTVSPropertyOp1
 70
     1
102
RTVSPropertyOp2
 70
     1
102
RTVSPropertyOp3
 70
     1
102
RTVSPropertyOp4
 70
     1
102
RTVSPropertyOp5
 70
     1
102
RTVSPropertyOp6
 70
     1
102
RTVSPropertyOp7
 70
     1
102
RTVSPropertyOp8
 70
     1
102
RTVSPropertyOp9
 70
     1
102
RTVSPropertyOp10
 70
     1
102
RTVSPropertyOp11
 70
     1
102
RTVSPropertyOp12
 70
     1
102
RTVSPropertyOp13
 70
     1
102
RTVSPropertyOp14
 70
     1
102
RTVSPropertyOp15
 70
     1
102
RTVSPropertyOp16
 70
     1
102
RTVSPropertyOp17
 70
     1
102
RTVSPropertyOp18
 70
     1
102
RTVSPropertyOp19
 70
     1
102
RTVSPropertyOp20
 70
     1
102
RTVSPropertyOp21
 70
     1
102
RTVSPropertyOp22
 70
     1
102
RTVSPropertyOp23
 70
     1
102
RTVSPropertyOp24
 70
     1
102
RTVSPropertyOp25
 70
     1
102
RTVSPropertyOp26
 70
     1
102
RTVSPropertyOp27
 70
     1
102
RTVSPropertyOp28
 70
     1
102
RTVSPropertyOp29
 70
     1
102
RTVSPropertyOp30
 70
     1
102
RTVSPropertyOp31
 70
     1
102
RTVSPropertyOp32
 70
     1
102
RTVSPropertyOp33
 70
     1
102
RTVSPropertyOp34
 70
     1
102
RTVSPropertyOp35
 70
     1
102
RTVSPropertyOp36
 70
     1
102
RTVSPropertyOp37
 70
     1
102
RTVSPropertyOp38
 70
     1
102
RTVSPropertyOp39
 70
     1
102
RTVSPropertyOp40
 70
     1
102
RTVSPropertyOp41
 70
     1
102
RTVSPropertyOp42
 70
     1
102
RTVSPropertyOp43
 70
     1
102
RTVSPropertyOp44
 70
     1
102
RTVSPropertyOp45
 70
     1
102
RTVSPropertyOp46
 70
     1
102
RTVSPropertyOp47
 70
     1
102
RTVSPropertyOp48
 70
     1
102
RTVSPropertyOp49
 70
     1
102
RTVSPropertyOp50
 70
     1
102
RTVSPropertyOp51
 70
     0
102
RTVSPropertyOp52
 70
     0
102
RTVSPropertyOp53
 70
     1
102
RTVSPropertyOp54
 70
     1
102
RTVSPropertyOp55
 70
     1
102
RTVSPropertyOp56
 70
     1
102
RTVSPropertyOp57
 70
     1
102
RTVSPropertyOp58
 70
     1
102
RTVSPropertyOp59
 70
     1
102
RTVSPropertyOp60
 70
     1
102
RTVSPropertyOp61
 70
     1
102
RTVSPropertyOp62
 70
     1
  0
XRECORD
  5
A960
102
{ACAD_REACTORS
330
A95F
102
}
330
A95F
100
AcDbXrecord
280
     1
102
RTVSPost2010Prop28
280
     0
102
RTVSPost2010PropOp28
 70
     1
102
RTVSPost2010Prop29
280
     1
102
RTVSPost2010PropOp29
 70
     1
102
RTVSPost2010Prop30
280
     1
102
RTVSPost2010PropOp30
 70
     1
102
RTVSPost2010Prop31
280
     0
102
RTVSPost2010PropOp31
 70
     1
102
RTVSPost2010Prop32
280
     0
102
RTVSPost2010PropOp32
 70
     1
102
RTVSPost2010Prop33
280
     0
102
RTVSPost2010PropOp33
 70
     1
102
RTVSPost2010Prop34
280
     0
102
RTVSPost2010PropOp34
 70
     1
102
RTVSPost2010Prop35
280
     0
102
RTVSPost2010PropOp35
 70
     1
102
RTVSPost2010Prop36
280
     0
102
RTVSPost2010PropOp36
 70
     1
102
RTVSPost2010Prop37
 90
       50
102
RTVSPost2010PropOp37
 70
     1
102
RTVSPost2010Prop38
140
0.0
102
RTVSPost2010PropOp38
 70
     1
102
RTVSPost2010Prop39
140
1.0
102
RTVSPost2010PropOp39
 70
     1
102
RTVSPost2010Prop40
 90
        0
102
RTVSPost2010PropOp40
 70
     1
102
RTVSPost2010Prop41ColorIndex
 90
       18
102
RTVSPost2010Prop41ColorRGB
 90
        0
102
RTVSPost2010PropOp41
 70
     1
102
RTVSPost2010Prop42
 90
       50
102
RTVSPost2010PropOp42
 70
     1
102
RTVSPost2010Prop43
 90
        3
102
RTVSPost2010PropOp43
 70
     1
102
RTVSPost2010Prop44ColorIndex
 90
        5
102
RTVSPost2010Prop44ColorRGB
 90
      255
102
RTVSPost2010PropOp44
 70
     1
102
RTVSPost2010Prop45
280
     0
102
RTVSPost2010PropOp45
 70
     1
102
RTVSPost2010Prop46
 90
       50
102
RTVSPost2010PropOp46
 70
     1
102
RTVSPost2010Prop47
 90
       50
102
RTVSPost2010PropOp47
 70
     1
102
RTVSPost2010Prop48
 90
       50
102
RTVSPost2010PropOp48
 70
     1
102
RTVSPost2010Prop49
280
     0
102
RTVSPost2010PropOp49
 70
     1
102
RTVSPost2010Prop50
 90
       50
102
RTVSPost2010PropOp50
 70
     1
102
RTVSPost2010Prop51ColorIndex
 90
      256
102
RTVSPost2010Prop51ColorRGB
 90
-16777216
102
RTVSPost2010PropOp51
 70
     0
102
RTVSPost2010Prop52
140
1.0
102
RTVSPost2010PropOp52
 70
     0
102
RTVSPost2010Prop53
 90
        2
102
RTVSPost2010PropOp53
 70
     1
102
RTVSPost2010Prop54
  1
strokes_ogs.tif
102
RTVSPost2010PropOp54
 70
     1
102
RTVSPost2010Prop55
280
     0
102
RTVSPost2010PropOp55
 70
     1
102
RTVSPost2010Prop56
140
1.0
102
RTVSPost2010PropOp56
 70
     1
102
RTVSPost2010Prop57
140
1.0
102
RTVSPost2010PropOp57
 70
     1
102
RTVSPropertyOp0
 70
     1
102
RTVSPropertyOp1
 70
     1
102
RTVSPropertyOp2
 70
     1
102
RTVSPropertyOp3
 70
     1
102
RTVSPropertyOp4
 70
     1
102
RTVSPropertyOp5
 70
     1
102
RTVSPropertyOp6
 70
     1
102
RTVSPropertyOp7
 70
     1
102
RTVSPropertyOp8
 70
     1
102
RTVSPropertyOp9
 70
     1
102
RTVSPropertyOp10
 70
     1
102
RTVSPropertyOp11
 70
     1
102
RTVSPropertyOp12
 70
     1
102
RTVSPropertyOp13
 70
     1
102
RTVSPropertyOp14
 70
     1
102
RTVSPropertyOp15
 70
     1
102
RTVSPropertyOp16
 70
     1
102
RTVSPropertyOp17
 70
     1
102
RTVSPropertyOp18
 70
     1
102
RTVSPropertyOp19
 70
     1
102
RTVSPropertyOp20
 70
     1
102
RTVSPropertyOp21
 70
     1
102
RTVSPropertyOp22
 70
     1
102
RTVSPropertyOp23
 70
     1
102
RTVSPropertyOp24
 70
     1
102
RTVSPropertyOp25
 70
     1
102
RTVSPropertyOp26
 70
     1
102
RTVSPropertyOp27
 70
     1
102
RTVSPropertyOp28
 70
     1
102
RTVSPropertyOp29
 70
     1
102
RTVSPropertyOp30
 70
     1
102
RTVSPropertyOp31
 70
     1
102
RTVSPropertyOp32
 70
     1
102
RTVSPropertyOp33
 70
     1
102
RTVSPropertyOp34
 70
     1
102
RTVSPropertyOp35
 70
     1
102
RTVSPropertyOp36
 70
     1
102
RTVSPropertyOp37
 70
     1
102
RTVSPropertyOp38
 70
     1
102
RTVSPropertyOp39
 70
     1
102
RTVSPropertyOp40
 70
     1
102
RTVSPropertyOp41
 70
     1
102
RTVSPropertyOp42
 70
     1
102
RTVSPropertyOp43
 70
     1
102
RTVSPropertyOp44
 70
     1
102
RTVSPropertyOp45
 70
     1
102
RTVSPropertyOp46
 70
     1
102
RTVSPropertyOp47
 70
     1
102
RTVSPropertyOp48
 70
     1
102
RTVSPropertyOp49
 70
     1
102
RTVSPropertyOp50
 70
     1
102
RTVSPropertyOp51
 70
     0
102
RTVSPropertyOp52
 70
     0
102
RTVSPropertyOp53
 70
     1
102
RTVSPropertyOp54
 70
     1
102
RTVSPropertyOp55
 70
     1
102
RTVSPropertyOp56
 70
     1
102
RTVSPropertyOp57
 70
     1
102
RTVSPropertyOp58
 70
     1
102
RTVSPropertyOp59
 70
     1
102
RTVSPropertyOp60
 70
     1
102
RTVSPropertyOp61
 70
     1
102
RTVSPropertyOp62
 70
     1
  0
XRECORD
  5
A962
102
{ACAD_REACTORS
330
A961
102
}
330
A961
100
AcDbXrecord
280
     1
102
RTVSPost2010Prop28
280
     0
102
RTVSPost2010PropOp28
 70
     1
102
RTVSPost2010Prop29
280
     1
102
RTVSPost2010PropOp29
 70
     1
102
RTVSPost2010Prop30
280
     1
102
RTVSPost2010PropOp30
 70
     1
102
RTVSPost2010Prop31
280
     0
102
RTVSPost2010PropOp31
 70
     1
102
RTVSPost2010Prop32
280
     0
102
RTVSPost2010PropOp32
 70
     1
102
RTVSPost2010Prop33
280
     0
102
RTVSPost2010PropOp33
 70
     1
102
RTVSPost2010Prop34
280
     0
102
RTVSPost2010PropOp34
 70
     1
102
RTVSPost2010Prop35
280
     0
102
RTVSPost2010PropOp35
 70
     1
102
RTVSPost2010Prop36
280
     0
102
RTVSPost2010PropOp36
 70
     1
102
RTVSPost2010Prop37
 90
       50
102
RTVSPost2010PropOp37
 70
     1
102
RTVSPost2010Prop38
140
0.0
102
RTVSPost2010PropOp38
 70
     1
102
RTVSPost2010Prop39
140
1.0
102
RTVSPost2010PropOp39
 70
     1
102
RTVSPost2010Prop40
 90
        0
102
RTVSPost2010PropOp40
 70
     1
102
RTVSPost2010Prop41ColorIndex
 90
       18
102
RTVSPost2010Prop41ColorRGB
 90
        0
102
RTVSPost2010PropOp41
 70
     1
102
RTVSPost2010Prop42
 90
       50
102
RTVSPost2010PropOp42
 70
     1
102
RTVSPost2010Prop43
 90
        3
102
RTVSPost2010PropOp43
 70
     1
102
RTVSPost2010Prop44ColorIndex
 90
        5
102
RTVSPost2010Prop44ColorRGB
 90
      255
102
RTVSPost2010PropOp44
 70
     1
102
RTVSPost2010Prop45
280
     0
102
RTVSPost2010PropOp45
 70
     1
102
RTVSPost2010Prop46
 90
       50
102
RTVSPost2010PropOp46
 70
     1
102
RTVSPost2010Prop47
 90
       50
102
RTVSPost2010PropOp47
 70
     1
102
RTVSPost2010Prop48
 90
       50
102
RTVSPost2010PropOp48
 70
     1
102
RTVSPost2010Prop49
280
     0
102
RTVSPost2010PropOp49
 70
     1
102
RTVSPost2010Prop50
 90
       50
102
RTVSPost2010PropOp50
 70
     1
102
RTVSPost2010Prop51ColorIndex
 90
      256
102
RTVSPost2010Prop51ColorRGB
 90
-16777216
102
RTVSPost2010PropOp51
 70
     0
102
RTVSPost2010Prop52
140
1.0
102
RTVSPost2010PropOp52
 70
     0
102
RTVSPost2010Prop53
 90
        2
102
RTVSPost2010PropOp53
 70
     1
102
RTVSPost2010Prop54
  1
strokes_ogs.tif
102
RTVSPost2010PropOp54
 70
     1
102
RTVSPost2010Prop55
280
     0
102
RTVSPost2010PropOp55
 70
     1
102
RTVSPost2010Prop56
140
1.0
102
RTVSPost2010PropOp56
 70
     1
102
RTVSPost2010Prop57
140
1.0
102
RTVSPost2010PropOp57
 70
     1
102
RTVSPropertyOp0
 70
     1
102
RTVSPropertyOp1
 70
     1
102
RTVSPropertyOp2
 70
     1
102
RTVSPropertyOp3
 70
     1
102
RTVSPropertyOp4
 70
     1
102
RTVSPropertyOp5
 70
     1
102
RTVSPropertyOp6
 70
     1
102
RTVSPropertyOp7
 70
     1
102
RTVSPropertyOp8
 70
     1
102
RTVSPropertyOp9
 70
     1
102
RTVSPropertyOp10
 70
     1
102
RTVSPropertyOp11
 70
     1
102
RTVSPropertyOp12
 70
     1
102
RTVSPropertyOp13
 70
     1
102
RTVSPropertyOp14
 70
     1
102
RTVSPropertyOp15
 70
     1
102
RTVSPropertyOp16
 70
     1
102
RTVSPropertyOp17
 70
     1
102
RTVSPropertyOp18
 70
     1
102
RTVSPropertyOp19
 70
     1
102
RTVSPropertyOp20
 70
     1
102
RTVSPropertyOp21
 70
     1
102
RTVSPropertyOp22
 70
     1
102
RTVSPropertyOp23
 70
     1
102
RTVSPropertyOp24
 70
     1
102
RTVSPropertyOp25
 70
     1
102
RTVSPropertyOp26
 70
     1
102
RTVSPropertyOp27
 70
     1
102
RTVSPropertyOp28
 70
     1
102
RTVSPropertyOp29
 70
     1
102
RTVSPropertyOp30
 70
     1
102
RTVSPropertyOp31
 70
     1
102
RTVSPropertyOp32
 70
     1
102
RTVSPropertyOp33
 70
     1
102
RTVSPropertyOp34
 70
     1
102
RTVSPropertyOp35
 70
     1
102
RTVSPropertyOp36
 70
     1
102
RTVSPropertyOp37
 70
     1
102
RTVSPropertyOp38
 70
     1
102
RTVSPropertyOp39
 70
     1
102
RTVSPropertyOp40
 70
     1
102
RTVSPropertyOp41
 70
     1
102
RTVSPropertyOp42
 70
     1
102
RTVSPropertyOp43
 70
     1
102
RTVSPropertyOp44
 70
     1
102
RTVSPropertyOp45
 70
     1
102
RTVSPropertyOp46
 70
     1
102
RTVSPropertyOp47
 70
     1
102
RTVSPropertyOp48
 70
     1
102
RTVSPropertyOp49
 70
     1
102
RTVSPropertyOp50
 70
     1
102
RTVSPropertyOp51
 70
     0
102
RTVSPropertyOp52
 70
     0
102
RTVSPropertyOp53
 70
     1
102
RTVSPropertyOp54
 70
     1
102
RTVSPropertyOp55
 70
     1
102
RTVSPropertyOp56
 70
     1
102
RTVSPropertyOp57
 70
     1
102
RTVSPropertyOp58
 70
     1
102
RTVSPropertyOp59
 70
     1
102
RTVSPropertyOp60
 70
     1
102
RTVSPropertyOp61
 70
     1
102
RTVSPropertyOp62
 70
     1
  0
XRECORD
  5
A964
102
{ACAD_REACTORS
330
A963
102
}
330
A963
100
AcDbXrecord
280
     1
102
RTVSPost2010Prop28
280
     0
102
RTVSPost2010PropOp28
 70
     1
102
RTVSPost2010Prop29
280
     1
102
RTVSPost2010PropOp29
 70
     1
102
RTVSPost2010Prop30
280
     1
102
RTVSPost2010PropOp30
 70
     1
102
RTVSPost2010Prop31
280
     0
102
RTVSPost2010PropOp31
 70
     1
102
RTVSPost2010Prop32
280
     0
102
RTVSPost2010PropOp32
 70
     1
102
RTVSPost2010Prop33
280
     0
102
RTVSPost2010PropOp33
 70
     1
102
RTVSPost2010Prop34
280
     0
102
RTVSPost2010PropOp34
 70
     1
102
RTVSPost2010Prop35
280
     0
102
RTVSPost2010PropOp35
 70
     1
102
RTVSPost2010Prop36
280
     0
102
RTVSPost2010PropOp36
 70
     1
102
RTVSPost2010Prop37
 90
       50
102
RTVSPost2010PropOp37
 70
     1
102
RTVSPost2010Prop38
140
0.0
102
RTVSPost2010PropOp38
 70
     1
102
RTVSPost2010Prop39
140
1.0
102
RTVSPost2010PropOp39
 70
     1
102
RTVSPost2010Prop40
 90
        0
102
RTVSPost2010PropOp40
 70
     1
102
RTVSPost2010Prop41ColorIndex
 90
       18
102
RTVSPost2010Prop41ColorRGB
 90
        0
102
RTVSPost2010PropOp41
 70
     1
102
RTVSPost2010Prop42
 90
       50
102
RTVSPost2010PropOp42
 70
     1
102
RTVSPost2010Prop43
 90
        3
102
RTVSPost2010PropOp43
 70
     1
102
RTVSPost2010Prop44ColorIndex
 90
        5
102
RTVSPost2010Prop44ColorRGB
 90
      255
102
RTVSPost2010PropOp44
 70
     1
102
RTVSPost2010Prop45
280
     0
102
RTVSPost2010PropOp45
 70
     1
102
RTVSPost2010Prop46
 90
       50
102
RTVSPost2010PropOp46
 70
     1
102
RTVSPost2010Prop47
 90
       50
102
RTVSPost2010PropOp47
 70
     1
102
RTVSPost2010Prop48
 90
       50
102
RTVSPost2010PropOp48
 70
     1
102
RTVSPost2010Prop49
280
     0
102
RTVSPost2010PropOp49
 70
     1
102
RTVSPost2010Prop50
 90
       50
102
RTVSPost2010PropOp50
 70
     1
102
RTVSPost2010Prop51ColorIndex
 90
      256
102
RTVSPost2010Prop51ColorRGB
 90
-16777216
102
RTVSPost2010PropOp51
 70
     0
102
RTVSPost2010Prop52
140
1.0
102
RTVSPost2010PropOp52
 70
     0
102
RTVSPost2010Prop53
 90
        2
102
RTVSPost2010PropOp53
 70
     1
102
RTVSPost2010Prop54
  1
strokes_ogs.tif
102
RTVSPost2010PropOp54
 70
     1
102
RTVSPost2010Prop55
280
     0
102
RTVSPost2010PropOp55
 70
     1
102
RTVSPost2010Prop56
140
1.0
102
RTVSPost2010PropOp56
 70
     1
102
RTVSPost2010Prop57
140
1.0
102
RTVSPost2010PropOp57
 70
     1
102
RTVSPropertyOp0
 70
     1
102
RTVSPropertyOp1
 70
     1
102
RTVSPropertyOp2
 70
     1
102
RTVSPropertyOp3
 70
     1
102
RTVSPropertyOp4
 70
     1
102
RTVSPropertyOp5
 70
     1
102
RTVSPropertyOp6
 70
     1
102
RTVSPropertyOp7
 70
     1
102
RTVSPropertyOp8
 70
     1
102
RTVSPropertyOp9
 70
     1
102
RTVSPropertyOp10
 70
     1
102
RTVSPropertyOp11
 70
     1
102
RTVSPropertyOp12
 70
     1
102
RTVSPropertyOp13
 70
     1
102
RTVSPropertyOp14
 70
     1
102
RTVSPropertyOp15
 70
     1
102
RTVSPropertyOp16
 70
     1
102
RTVSPropertyOp17
 70
     1
102
RTVSPropertyOp18
 70
     1
102
RTVSPropertyOp19
 70
     1
102
RTVSPropertyOp20
 70
     1
102
RTVSPropertyOp21
 70
     1
102
RTVSPropertyOp22
 70
     1
102
RTVSPropertyOp23
 70
     1
102
RTVSPropertyOp24
 70
     1
102
RTVSPropertyOp25
 70
     1
102
RTVSPropertyOp26
 70
     1
102
RTVSPropertyOp27
 70
     1
102
RTVSPropertyOp28
 70
     1
102
RTVSPropertyOp29
 70
     1
102
RTVSPropertyOp30
 70
     1
102
RTVSPropertyOp31
 70
     1
102
RTVSPropertyOp32
 70
     1
102
RTVSPropertyOp33
 70
     1
102
RTVSPropertyOp34
 70
     1
102
RTVSPropertyOp35
 70
     1
102
RTVSPropertyOp36
 70
     1
102
RTVSPropertyOp37
 70
     1
102
RTVSPropertyOp38
 70
     1
102
RTVSPropertyOp39
 70
     1
102
RTVSPropertyOp40
 70
     1
102
RTVSPropertyOp41
 70
     1
102
RTVSPropertyOp42
 70
     1
102
RTVSPropertyOp43
 70
     1
102
RTVSPropertyOp44
 70
     1
102
RTVSPropertyOp45
 70
     1
102
RTVSPropertyOp46
 70
     1
102
RTVSPropertyOp47
 70
     1
102
RTVSPropertyOp48
 70
     1
102
RTVSPropertyOp49
 70
     1
102
RTVSPropertyOp50
 70
     1
102
RTVSPropertyOp51
 70
     0
102
RTVSPropertyOp52
 70
     0
102
RTVSPropertyOp53
 70
     1
102
RTVSPropertyOp54
 70
     1
102
RTVSPropertyOp55
 70
     1
102
RTVSPropertyOp56
 70
     1
102
RTVSPropertyOp57
 70
     1
102
RTVSPropertyOp58
 70
     1
102
RTVSPropertyOp59
 70
     1
102
RTVSPropertyOp60
 70
     1
102
RTVSPropertyOp61
 70
     1
102
RTVSPropertyOp62
 70
     1
  0
XRECORD
  5
A966
102
{ACAD_REACTORS
330
A965
102
}
330
A965
100
AcDbXrecord
280
     1
102
RTVSPost2010Prop28
280
     0
102
RTVSPost2010PropOp28
 70
     1
102
RTVSPost2010Prop29
280
     1
102
RTVSPost2010PropOp29
 70
     1
102
RTVSPost2010Prop30
280
     1
102
RTVSPost2010PropOp30
 70
     1
102
RTVSPost2010Prop31
280
     0
102
RTVSPost2010PropOp31
 70
     1
102
RTVSPost2010Prop32
280
     0
102
RTVSPost2010PropOp32
 70
     1
102
RTVSPost2010Prop33
280
     0
102
RTVSPost2010PropOp33
 70
     1
102
RTVSPost2010Prop34
280
     0
102
RTVSPost2010PropOp34
 70
     1
102
RTVSPost2010Prop35
280
     0
102
RTVSPost2010PropOp35
 70
     1
102
RTVSPost2010Prop36
280
     0
102
RTVSPost2010PropOp36
 70
     1
102
RTVSPost2010Prop37
 90
       50
102
RTVSPost2010PropOp37
 70
     1
102
RTVSPost2010Prop38
140
0.0
102
RTVSPost2010PropOp38
 70
     1
102
RTVSPost2010Prop39
140
1.0
102
RTVSPost2010PropOp39
 70
     1
102
RTVSPost2010Prop40
 90
        0
102
RTVSPost2010PropOp40
 70
     1
102
RTVSPost2010Prop41ColorIndex
 90
       18
102
RTVSPost2010Prop41ColorRGB
 90
        0
102
RTVSPost2010PropOp41
 70
     1
102
RTVSPost2010Prop42
 90
       50
102
RTVSPost2010PropOp42
 70
     1
102
RTVSPost2010Prop43
 90
        3
102
RTVSPost2010PropOp43
 70
     1
102
RTVSPost2010Prop44ColorIndex
 90
        5
102
RTVSPost2010Prop44ColorRGB
 90
      255
102
RTVSPost2010PropOp44
 70
     1
102
RTVSPost2010Prop45
280
     0
102
RTVSPost2010PropOp45
 70
     1
102
RTVSPost2010Prop46
 90
       50
102
RTVSPost2010PropOp46
 70
     1
102
RTVSPost2010Prop47
 90
       50
102
RTVSPost2010PropOp47
 70
     1
102
RTVSPost2010Prop48
 90
       50
102
RTVSPost2010PropOp48
 70
     1
102
RTVSPost2010Prop49
280
     0
102
RTVSPost2010PropOp49
 70
     1
102
RTVSPost2010Prop50
 90
       50
102
RTVSPost2010PropOp50
 70
     1
102
RTVSPost2010Prop51ColorIndex
 90
      256
102
RTVSPost2010Prop51ColorRGB
 90
-16777216
102
RTVSPost2010PropOp51
 70
     0
102
RTVSPost2010Prop52
140
1.0
102
RTVSPost2010PropOp52
 70
     0
102
RTVSPost2010Prop53
 90
        2
102
RTVSPost2010PropOp53
 70
     1
102
RTVSPost2010Prop54
  1
strokes_ogs.tif
102
RTVSPost2010PropOp54
 70
     1
102
RTVSPost2010Prop55
280
     0
102
RTVSPost2010PropOp55
 70
     1
102
RTVSPost2010Prop56
140
1.0
102
RTVSPost2010PropOp56
 70
     1
102
RTVSPost2010Prop57
140
1.0
102
RTVSPost2010PropOp57
 70
     1
102
RTVSPropertyOp0
 70
     1
102
RTVSPropertyOp1
 70
     1
102
RTVSPropertyOp2
 70
     1
102
RTVSPropertyOp3
 70
     1
102
RTVSPropertyOp4
 70
     1
102
RTVSPropertyOp5
 70
     1
102
RTVSPropertyOp6
 70
     1
102
RTVSPropertyOp7
 70
     1
102
RTVSPropertyOp8
 70
     1
102
RTVSPropertyOp9
 70
     1
102
RTVSPropertyOp10
 70
     1
102
RTVSPropertyOp11
 70
     1
102
RTVSPropertyOp12
 70
     1
102
RTVSPropertyOp13
 70
     1
102
RTVSPropertyOp14
 70
     1
102
RTVSPropertyOp15
 70
     1
102
RTVSPropertyOp16
 70
     1
102
RTVSPropertyOp17
 70
     1
102
RTVSPropertyOp18
 70
     1
102
RTVSPropertyOp19
 70
     1
102
RTVSPropertyOp20
 70
     1
102
RTVSPropertyOp21
 70
     1
102
RTVSPropertyOp22
 70
     1
102
RTVSPropertyOp23
 70
     1
102
RTVSPropertyOp24
 70
     1
102
RTVSPropertyOp25
 70
     1
102
RTVSPropertyOp26
 70
     1
102
RTVSPropertyOp27
 70
     1
102
RTVSPropertyOp28
 70
     1
102
RTVSPropertyOp29
 70
     1
102
RTVSPropertyOp30
 70
     1
102
RTVSPropertyOp31
 70
     1
102
RTVSPropertyOp32
 70
     1
102
RTVSPropertyOp33
 70
     1
102
RTVSPropertyOp34
 70
     1
102
RTVSPropertyOp35
 70
     1
102
RTVSPropertyOp36
 70
     1
102
RTVSPropertyOp37
 70
     1
102
RTVSPropertyOp38
 70
     1
102
RTVSPropertyOp39
 70
     1
102
RTVSPropertyOp40
 70
     1
102
RTVSPropertyOp41
 70
     1
102
RTVSPropertyOp42
 70
     1
102
RTVSPropertyOp43
 70
     1
102
RTVSPropertyOp44
 70
     1
102
RTVSPropertyOp45
 70
     1
102
RTVSPropertyOp46
 70
     1
102
RTVSPropertyOp47
 70
     1
102
RTVSPropertyOp48
 70
     1
102
RTVSPropertyOp49
 70
     1
102
RTVSPropertyOp50
 70
     1
102
RTVSPropertyOp51
 70
     0
102
RTVSPropertyOp52
 70
     0
102
RTVSPropertyOp53
 70
     1
102
RTVSPropertyOp54
 70
     1
102
RTVSPropertyOp55
 70
     1
102
RTVSPropertyOp56
 70
     1
102
RTVSPropertyOp57
 70
     1
102
RTVSPropertyOp58
 70
     1
102
RTVSPropertyOp59
 70
     1
102
RTVSPropertyOp60
 70
     1
102
RTVSPropertyOp61
 70
     1
102
RTVSPropertyOp62
 70
     1
  0
XRECORD
  5
A96E
102
{ACAD_REACTORS
330
A96D
102
}
330
A96D
100
AcDbXrecord
280
     1
102
RTVSPost2010Prop28
280
     0
102
RTVSPost2010PropOp28
 70
     1
102
RTVSPost2010Prop29
280
     1
102
RTVSPost2010PropOp29
 70
     1
102
RTVSPost2010Prop30
280
     1
102
RTVSPost2010PropOp30
 70
     1
102
RTVSPost2010Prop31
280
     0
102
RTVSPost2010PropOp31
 70
     1
102
RTVSPost2010Prop32
280
     0
102
RTVSPost2010PropOp32
 70
     1
102
RTVSPost2010Prop33
280
     0
102
RTVSPost2010PropOp33
 70
     1
102
RTVSPost2010Prop34
280
     0
102
RTVSPost2010PropOp34
 70
     1
102
RTVSPost2010Prop35
280
     0
102
RTVSPost2010PropOp35
 70
     1
102
RTVSPost2010Prop36
280
     0
102
RTVSPost2010PropOp36
 70
     1
102
RTVSPost2010Prop37
 90
       50
102
RTVSPost2010PropOp37
 70
     1
102
RTVSPost2010Prop38
140
0.0
102
RTVSPost2010PropOp38
 70
     1
102
RTVSPost2010Prop39
140
1.0
102
RTVSPost2010PropOp39
 70
     1
102
RTVSPost2010Prop40
 90
        0
102
RTVSPost2010PropOp40
 70
     1
102
RTVSPost2010Prop41ColorIndex
 90
       18
102
RTVSPost2010Prop41ColorRGB
 90
        0
102
RTVSPost2010PropOp41
 70
     1
102
RTVSPost2010Prop42
 90
       50
102
RTVSPost2010PropOp42
 70
     1
102
RTVSPost2010Prop43
 90
        3
102
RTVSPost2010PropOp43
 70
     1
102
RTVSPost2010Prop44ColorIndex
 90
        5
102
RTVSPost2010Prop44ColorRGB
 90
      255
102
RTVSPost2010PropOp44
 70
     1
102
RTVSPost2010Prop45
280
     0
102
RTVSPost2010PropOp45
 70
     1
102
RTVSPost2010Prop46
 90
       50
102
RTVSPost2010PropOp46
 70
     1
102
RTVSPost2010Prop47
 90
       50
102
RTVSPost2010PropOp47
 70
     1
102
RTVSPost2010Prop48
 90
       50
102
RTVSPost2010PropOp48
 70
     1
102
RTVSPost2010Prop49
280
     0
102
RTVSPost2010PropOp49
 70
     1
102
RTVSPost2010Prop50
 90
       50
102
RTVSPost2010PropOp50
 70
     1
102
RTVSPost2010Prop51ColorIndex
 90
      256
102
RTVSPost2010Prop51ColorRGB
 90
-16777216
102
RTVSPost2010PropOp51
 70
     0
102
RTVSPost2010Prop52
140
1.0
102
RTVSPost2010PropOp52
 70
     0
102
RTVSPost2010Prop53
 90
        2
102
RTVSPost2010PropOp53
 70
     1
102
RTVSPost2010Prop54
  1
strokes_ogs.tif
102
RTVSPost2010PropOp54
 70
     1
102
RTVSPost2010Prop55
280
     0
102
RTVSPost2010PropOp55
 70
     1
102
RTVSPost2010Prop56
140
1.0
102
RTVSPost2010PropOp56
 70
     1
102
RTVSPost2010Prop57
140
1.0
102
RTVSPost2010PropOp57
 70
     1
102
RTVSPropertyOp0
 70
     1
102
RTVSPropertyOp1
 70
     1
102
RTVSPropertyOp2
 70
     1
102
RTVSPropertyOp3
 70
     1
102
RTVSPropertyOp4
 70
     1
102
RTVSPropertyOp5
 70
     1
102
RTVSPropertyOp6
 70
     1
102
RTVSPropertyOp7
 70
     1
102
RTVSPropertyOp8
 70
     1
102
RTVSPropertyOp9
 70
     1
102
RTVSPropertyOp10
 70
     1
102
RTVSPropertyOp11
 70
     1
102
RTVSPropertyOp12
 70
     1
102
RTVSPropertyOp13
 70
     1
102
RTVSPropertyOp14
 70
     1
102
RTVSPropertyOp15
 70
     1
102
RTVSPropertyOp16
 70
     1
102
RTVSPropertyOp17
 70
     1
102
RTVSPropertyOp18
 70
     1
102
RTVSPropertyOp19
 70
     1
102
RTVSPropertyOp20
 70
     1
102
RTVSPropertyOp21
 70
     1
102
RTVSPropertyOp22
 70
     1
102
RTVSPropertyOp23
 70
     1
102
RTVSPropertyOp24
 70
     1
102
RTVSPropertyOp25
 70
     1
102
RTVSPropertyOp26
 70
     1
102
RTVSPropertyOp27
 70
     1
102
RTVSPropertyOp28
 70
     1
102
RTVSPropertyOp29
 70
     1
102
RTVSPropertyOp30
 70
     1
102
RTVSPropertyOp31
 70
     1
102
RTVSPropertyOp32
 70
     1
102
RTVSPropertyOp33
 70
     1
102
RTVSPropertyOp34
 70
     1
102
RTVSPropertyOp35
 70
     1
102
RTVSPropertyOp36
 70
     1
102
RTVSPropertyOp37
 70
     1
102
RTVSPropertyOp38
 70
     1
102
RTVSPropertyOp39
 70
     1
102
RTVSPropertyOp40
 70
     1
102
RTVSPropertyOp41
 70
     1
102
RTVSPropertyOp42
 70
     1
102
RTVSPropertyOp43
 70
     1
102
RTVSPropertyOp44
 70
     1
102
RTVSPropertyOp45
 70
     1
102
RTVSPropertyOp46
 70
     1
102
RTVSPropertyOp47
 70
     1
102
RTVSPropertyOp48
 70
     1
102
RTVSPropertyOp49
 70
     1
102
RTVSPropertyOp50
 70
     1
102
RTVSPropertyOp51
 70
     0
102
RTVSPropertyOp52
 70
     0
102
RTVSPropertyOp53
 70
     1
102
RTVSPropertyOp54
 70
     1
102
RTVSPropertyOp55
 70
     1
102
RTVSPropertyOp56
 70
     1
102
RTVSPropertyOp57
 70
     1
102
RTVSPropertyOp58
 70
     1
102
RTVSPropertyOp59
 70
     1
102
RTVSPropertyOp60
 70
     1
102
RTVSPropertyOp61
 70
     1
102
RTVSPropertyOp62
 70
     1
  0
XRECORD
  5
A982
102
{ACAD_REACTORS
330
A981
102
}
330
A981
100
AcDbXrecord
280
     1
102
RTVSPost2010Prop28
280
     0
102
RTVSPost2010PropOp28
 70
     1
102
RTVSPost2010Prop29
280
     1
102
RTVSPost2010PropOp29
 70
     1
102
RTVSPost2010Prop30
280
     1
102
RTVSPost2010PropOp30
 70
     1
102
RTVSPost2010Prop31
280
     0
102
RTVSPost2010PropOp31
 70
     1
102
RTVSPost2010Prop32
280
     0
102
RTVSPost2010PropOp32
 70
     1
102
RTVSPost2010Prop33
280
     0
102
RTVSPost2010PropOp33
 70
     1
102
RTVSPost2010Prop34
280
     0
102
RTVSPost2010PropOp34
 70
     1
102
RTVSPost2010Prop35
280
     0
102
RTVSPost2010PropOp35
 70
     1
102
RTVSPost2010Prop36
280
     0
102
RTVSPost2010PropOp36
 70
     1
102
RTVSPost2010Prop37
 90
       50
102
RTVSPost2010PropOp37
 70
     1
102
RTVSPost2010Prop38
140
0.0
102
RTVSPost2010PropOp38
 70
     1
102
RTVSPost2010Prop39
140
1.0
102
RTVSPost2010PropOp39
 70
     1
102
RTVSPost2010Prop40
 90
        0
102
RTVSPost2010PropOp40
 70
     1
102
RTVSPost2010Prop41ColorIndex
 90
       18
102
RTVSPost2010Prop41ColorRGB
 90
        0
102
RTVSPost2010PropOp41
 70
     1
102
RTVSPost2010Prop42
 90
       50
102
RTVSPost2010PropOp42
 70
     1
102
RTVSPost2010Prop43
 90
        3
102
RTVSPost2010PropOp43
 70
     1
102
RTVSPost2010Prop44ColorIndex
 90
        5
102
RTVSPost2010Prop44ColorRGB
 90
      255
102
RTVSPost2010PropOp44
 70
     1
102
RTVSPost2010Prop45
280
     0
102
RTVSPost2010PropOp45
 70
     1
102
RTVSPost2010Prop46
 90
       50
102
RTVSPost2010PropOp46
 70
     1
102
RTVSPost2010Prop47
 90
       50
102
RTVSPost2010PropOp47
 70
     1
102
RTVSPost2010Prop48
 90
       50
102
RTVSPost2010PropOp48
 70
     1
102
RTVSPost2010Prop49
280
     0
102
RTVSPost2010PropOp49
 70
     1
102
RTVSPost2010Prop50
 90
       50
102
RTVSPost2010PropOp50
 70
     1
102
RTVSPost2010Prop51ColorIndex
 90
      256
102
RTVSPost2010Prop51ColorRGB
 90
-16777216
102
RTVSPost2010PropOp51
 70
     0
102
RTVSPost2010Prop52
140
1.0
102
RTVSPost2010PropOp52
 70
     0
102
RTVSPost2010Prop53
 90
        2
102
RTVSPost2010PropOp53
 70
     1
102
RTVSPost2010Prop54
  1
strokes_ogs.tif
102
RTVSPost2010PropOp54
 70
     1
102
RTVSPost2010Prop55
280
     0
102
RTVSPost2010PropOp55
 70
     1
102
RTVSPost2010Prop56
140
1.0
102
RTVSPost2010PropOp56
 70
     1
102
RTVSPost2010Prop57
140
1.0
102
RTVSPost2010PropOp57
 70
     1
102
RTVSPropertyOp0
 70
     0
102
RTVSPropertyOp1
 70
     0
102
RTVSPropertyOp2
 70
     0
102
RTVSPropertyOp3
 70
     0
102
RTVSPropertyOp4
 70
     0
102
RTVSPropertyOp5
 70
     0
102
RTVSPropertyOp6
 70
     0
102
RTVSPropertyOp7
 70
     0
102
RTVSPropertyOp8
 70
     0
102
RTVSPropertyOp9
 70
     0
102
RTVSPropertyOp10
 70
     0
102
RTVSPropertyOp11
 70
     0
102
RTVSPropertyOp12
 70
     0
102
RTVSPropertyOp13
 70
     0
102
RTVSPropertyOp14
 70
     2
102
RTVSPropertyOp15
 70
     0
102
RTVSPropertyOp16
 70
     0
102
RTVSPropertyOp17
 70
     0
102
RTVSPropertyOp18
 70
     0
102
RTVSPropertyOp19
 70
     0
102
RTVSPropertyOp20
 70
     0
102
RTVSPropertyOp21
 70
     0
102
RTVSPropertyOp22
 70
     0
102
RTVSPropertyOp23
 70
     0
102
RTVSPropertyOp24
 70
     0
102
RTVSPropertyOp25
 70
     0
102
RTVSPropertyOp26
 70
     0
102
RTVSPropertyOp27
 70
     0
102
RTVSPropertyOp28
 70
     1
102
RTVSPropertyOp29
 70
     1
102
RTVSPropertyOp30
 70
     1
102
RTVSPropertyOp31
 70
     1
102
RTVSPropertyOp32
 70
     1
102
RTVSPropertyOp33
 70
     1
102
RTVSPropertyOp34
 70
     1
102
RTVSPropertyOp35
 70
     1
102
RTVSPropertyOp36
 70
     1
102
RTVSPropertyOp37
 70
     1
102
RTVSPropertyOp38
 70
     1
102
RTVSPropertyOp39
 70
     1
102
RTVSPropertyOp40
 70
     1
102
RTVSPropertyOp41
 70
     1
102
RTVSPropertyOp42
 70
     1
102
RTVSPropertyOp43
 70
     1
102
RTVSPropertyOp44
 70
     1
102
RTVSPropertyOp45
 70
     1
102
RTVSPropertyOp46
 70
     1
102
RTVSPropertyOp47
 70
     1
102
RTVSPropertyOp48
 70
     1
102
RTVSPropertyOp49
 70
     1
102
RTVSPropertyOp50
 70
     1
102
RTVSPropertyOp51
 70
     0
102
RTVSPropertyOp52
 70
     0
102
RTVSPropertyOp53
 70
     1
102
RTVSPropertyOp54
 70
     1
102
RTVSPropertyOp55
 70
     1
102
RTVSPropertyOp56
 70
     1
102
RTVSPropertyOp57
 70
     1
102
RTVSPropertyOp58
 70
     1
102
RTVSPropertyOp59
 70
     1
102
RTVSPropertyOp60
 70
     1
102
RTVSPropertyOp61
 70
     1
102
RTVSPropertyOp62
 70
     1
  0
XRECORD
  5
A97A
102
{ACAD_REACTORS
330
A979
102
}
330
A979
100
AcDbXrecord
280
     1
102
RTVSPost2010Prop28
280
     0
102
RTVSPost2010PropOp28
 70
     1
102
RTVSPost2010Prop29
280
     1
102
RTVSPost2010PropOp29
 70
     1
102
RTVSPost2010Prop30
280
     1
102
RTVSPost2010PropOp30
 70
     1
102
RTVSPost2010Prop31
280
     0
102
RTVSPost2010PropOp31
 70
     1
102
RTVSPost2010Prop32
280
     0
102
RTVSPost2010PropOp32
 70
     1
102
RTVSPost2010Prop33
280
     0
102
RTVSPost2010PropOp33
 70
     1
102
RTVSPost2010Prop34
280
     0
102
RTVSPost2010PropOp34
 70
     1
102
RTVSPost2010Prop35
280
     0
102
RTVSPost2010PropOp35
 70
     1
102
RTVSPost2010Prop36
280
     0
102
RTVSPost2010PropOp36
 70
     1
102
RTVSPost2010Prop37
 90
       50
102
RTVSPost2010PropOp37
 70
     1
102
RTVSPost2010Prop38
140
0.0
102
RTVSPost2010PropOp38
 70
     1
102
RTVSPost2010Prop39
140
1.0
102
RTVSPost2010PropOp39
 70
     1
102
RTVSPost2010Prop40
 90
        0
102
RTVSPost2010PropOp40
 70
     1
102
RTVSPost2010Prop41ColorIndex
 90
       18
102
RTVSPost2010Prop41ColorRGB
 90
        0
102
RTVSPost2010PropOp41
 70
     1
102
RTVSPost2010Prop42
 90
       50
102
RTVSPost2010PropOp42
 70
     1
102
RTVSPost2010Prop43
 90
        3
102
RTVSPost2010PropOp43
 70
     1
102
RTVSPost2010Prop44ColorIndex
 90
        5
102
RTVSPost2010Prop44ColorRGB
 90
      255
102
RTVSPost2010PropOp44
 70
     1
102
RTVSPost2010Prop45
280
     0
102
RTVSPost2010PropOp45
 70
     1
102
RTVSPost2010Prop46
 90
       50
102
RTVSPost2010PropOp46
 70
     1
102
RTVSPost2010Prop47
 90
       50
102
RTVSPost2010PropOp47
 70
     1
102
RTVSPost2010Prop48
 90
       50
102
RTVSPost2010PropOp48
 70
     1
102
RTVSPost2010Prop49
280
     0
102
RTVSPost2010PropOp49
 70
     1
102
RTVSPost2010Prop50
 90
       50
102
RTVSPost2010PropOp50
 70
     1
102
RTVSPost2010Prop51ColorIndex
 90
      256
102
RTVSPost2010Prop51ColorRGB
 90
-16777216
102
RTVSPost2010PropOp51
 70
     0
102
RTVSPost2010Prop52
140
1.0
102
RTVSPost2010PropOp52
 70
     0
102
RTVSPost2010Prop53
 90
        2
102
RTVSPost2010PropOp53
 70
     1
102
RTVSPost2010Prop54
  1
strokes_ogs.tif
102
RTVSPost2010PropOp54
 70
     1
102
RTVSPost2010Prop55
280
     0
102
RTVSPost2010PropOp55
 70
     1
102
RTVSPost2010Prop56
140
1.0
102
RTVSPost2010PropOp56
 70
     1
102
RTVSPost2010Prop57
140
1.0
102
RTVSPost2010PropOp57
 70
     1
102
RTVSPropertyOp0
 70
     1
102
RTVSPropertyOp1
 70
     1
102
RTVSPropertyOp2
 70
     1
102
RTVSPropertyOp3
 70
     1
102
RTVSPropertyOp4
 70
     1
102
RTVSPropertyOp5
 70
     1
102
RTVSPropertyOp6
 70
     1
102
RTVSPropertyOp7
 70
     1
102
RTVSPropertyOp8
 70
     1
102
RTVSPropertyOp9
 70
     1
102
RTVSPropertyOp10
 70
     1
102
RTVSPropertyOp11
 70
     1
102
RTVSPropertyOp12
 70
     1
102
RTVSPropertyOp13
 70
     1
102
RTVSPropertyOp14
 70
     1
102
RTVSPropertyOp15
 70
     1
102
RTVSPropertyOp16
 70
     1
102
RTVSPropertyOp17
 70
     1
102
RTVSPropertyOp18
 70
     1
102
RTVSPropertyOp19
 70
     1
102
RTVSPropertyOp20
 70
     1
102
RTVSPropertyOp21
 70
     1
102
RTVSPropertyOp22
 70
     1
102
RTVSPropertyOp23
 70
     1
102
RTVSPropertyOp24
 70
     1
102
RTVSPropertyOp25
 70
     1
102
RTVSPropertyOp26
 70
     1
102
RTVSPropertyOp27
 70
     1
102
RTVSPropertyOp28
 70
     1
102
RTVSPropertyOp29
 70
     1
102
RTVSPropertyOp30
 70
     1
102
RTVSPropertyOp31
 70
     1
102
RTVSPropertyOp32
 70
     1
102
RTVSPropertyOp33
 70
     1
102
RTVSPropertyOp34
 70
     1
102
RTVSPropertyOp35
 70
     1
102
RTVSPropertyOp36
 70
     1
102
RTVSPropertyOp37
 70
     1
102
RTVSPropertyOp38
 70
     1
102
RTVSPropertyOp39
 70
     1
102
RTVSPropertyOp40
 70
     1
102
RTVSPropertyOp41
 70
     1
102
RTVSPropertyOp42
 70
     1
102
RTVSPropertyOp43
 70
     1
102
RTVSPropertyOp44
 70
     1
102
RTVSPropertyOp45
 70
     1
102
RTVSPropertyOp46
 70
     1
102
RTVSPropertyOp47
 70
     1
102
RTVSPropertyOp48
 70
     1
102
RTVSPropertyOp49
 70
     1
102
RTVSPropertyOp50
 70
     1
102
RTVSPropertyOp51
 70
     0
102
RTVSPropertyOp52
 70
     0
102
RTVSPropertyOp53
 70
     1
102
RTVSPropertyOp54
 70
     1
102
RTVSPropertyOp55
 70
     1
102
RTVSPropertyOp56
 70
     1
102
RTVSPropertyOp57
 70
     1
102
RTVSPropertyOp58
 70
     1
102
RTVSPropertyOp59
 70
     1
102
RTVSPropertyOp60
 70
     1
102
RTVSPropertyOp61
 70
     1
102
RTVSPropertyOp62
 70
     1
  0
XRECORD
  5
A984
102
{ACAD_REACTORS
330
A983
102
}
330
A983
100
AcDbXrecord
280
     1
102
RTVSPost2010Prop28
280
     0
102
RTVSPost2010PropOp28
 70
     1
102
RTVSPost2010Prop29
280
     1
102
RTVSPost2010PropOp29
 70
     1
102
RTVSPost2010Prop30
280
     1
102
RTVSPost2010PropOp30
 70
     1
102
RTVSPost2010Prop31
280
     0
102
RTVSPost2010PropOp31
 70
     1
102
RTVSPost2010Prop32
280
     0
102
RTVSPost2010PropOp32
 70
     1
102
RTVSPost2010Prop33
280
     0
102
RTVSPost2010PropOp33
 70
     1
102
RTVSPost2010Prop34
280
     0
102
RTVSPost2010PropOp34
 70
     1
102
RTVSPost2010Prop35
280
     0
102
RTVSPost2010PropOp35
 70
     1
102
RTVSPost2010Prop36
280
     0
102
RTVSPost2010PropOp36
 70
     1
102
RTVSPost2010Prop37
 90
       50
102
RTVSPost2010PropOp37
 70
     1
102
RTVSPost2010Prop38
140
0.0
102
RTVSPost2010PropOp38
 70
     1
102
RTVSPost2010Prop39
140
1.0
102
RTVSPost2010PropOp39
 70
     1
102
RTVSPost2010Prop40
 90
        0
102
RTVSPost2010PropOp40
 70
     1
102
RTVSPost2010Prop41ColorIndex
 90
       18
102
RTVSPost2010Prop41ColorRGB
 90
        0
102
RTVSPost2010PropOp41
 70
     1
102
RTVSPost2010Prop42
 90
       50
102
RTVSPost2010PropOp42
 70
     1
102
RTVSPost2010Prop43
 90
        3
102
RTVSPost2010PropOp43
 70
     1
102
RTVSPost2010Prop44ColorIndex
 90
        5
102
RTVSPost2010Prop44ColorRGB
 90
      255
102
RTVSPost2010PropOp44
 70
     1
102
RTVSPost2010Prop45
280
     0
102
RTVSPost2010PropOp45
 70
     1
102
RTVSPost2010Prop46
 90
       50
102
RTVSPost2010PropOp46
 70
     1
102
RTVSPost2010Prop47
 90
       50
102
RTVSPost2010PropOp47
 70
     1
102
RTVSPost2010Prop48
 90
       50
102
RTVSPost2010PropOp48
 70
     1
102
RTVSPost2010Prop49
280
     0
102
RTVSPost2010PropOp49
 70
     1
102
RTVSPost2010Prop50
 90
       50
102
RTVSPost2010PropOp50
 70
     1
102
RTVSPost2010Prop51ColorIndex
 90
      256
102
RTVSPost2010Prop51ColorRGB
 90
-16777216
102
RTVSPost2010PropOp51
 70
     0
102
RTVSPost2010Prop52
140
1.0
102
RTVSPost2010PropOp52
 70
     0
102
RTVSPost2010Prop53
 90
        2
102
RTVSPost2010PropOp53
 70
     1
102
RTVSPost2010Prop54
  1
strokes_ogs.tif
102
RTVSPost2010PropOp54
 70
     1
102
RTVSPost2010Prop55
280
     0
102
RTVSPost2010PropOp55
 70
     1
102
RTVSPost2010Prop56
140
1.0
102
RTVSPost2010PropOp56
 70
     1
102
RTVSPost2010Prop57
140
1.0
102
RTVSPost2010PropOp57
 70
     1
102
RTVSPropertyOp0
 70
     0
102
RTVSPropertyOp1
 70
     0
102
RTVSPropertyOp2
 70
     0
102
RTVSPropertyOp3
 70
     0
102
RTVSPropertyOp4
 70
     0
102
RTVSPropertyOp5
 70
     0
102
RTVSPropertyOp6
 70
     0
102
RTVSPropertyOp7
 70
     0
102
RTVSPropertyOp8
 70
     0
102
RTVSPropertyOp9
 70
     0
102
RTVSPropertyOp10
 70
     0
102
RTVSPropertyOp11
 70
     0
102
RTVSPropertyOp12
 70
     0
102
RTVSPropertyOp13
 70
     0
102
RTVSPropertyOp14
 70
     2
102
RTVSPropertyOp15
 70
     0
102
RTVSPropertyOp16
 70
     0
102
RTVSPropertyOp17
 70
     0
102
RTVSPropertyOp18
 70
     0
102
RTVSPropertyOp19
 70
     0
102
RTVSPropertyOp20
 70
     0
102
RTVSPropertyOp21
 70
     0
102
RTVSPropertyOp22
 70
     0
102
RTVSPropertyOp23
 70
     0
102
RTVSPropertyOp24
 70
     0
102
RTVSPropertyOp25
 70
     0
102
RTVSPropertyOp26
 70
     0
102
RTVSPropertyOp27
 70
     0
102
RTVSPropertyOp28
 70
     1
102
RTVSPropertyOp29
 70
     1
102
RTVSPropertyOp30
 70
     1
102
RTVSPropertyOp31
 70
     1
102
RTVSPropertyOp32
 70
     1
102
RTVSPropertyOp33
 70
     1
102
RTVSPropertyOp34
 70
     1
102
RTVSPropertyOp35
 70
     1
102
RTVSPropertyOp36
 70
     1
102
RTVSPropertyOp37
 70
     1
102
RTVSPropertyOp38
 70
     1
102
RTVSPropertyOp39
 70
     1
102
RTVSPropertyOp40
 70
     1
102
RTVSPropertyOp41
 70
     1
102
RTVSPropertyOp42
 70
     1
102
RTVSPropertyOp43
 70
     1
102
RTVSPropertyOp44
 70
     1
102
RTVSPropertyOp45
 70
     1
102
RTVSPropertyOp46
 70
     1
102
RTVSPropertyOp47
 70
     1
102
RTVSPropertyOp48
 70
     1
102
RTVSPropertyOp49
 70
     1
102
RTVSPropertyOp50
 70
     1
102
RTVSPropertyOp51
 70
     0
102
RTVSPropertyOp52
 70
     0
102
RTVSPropertyOp53
 70
     1
102
RTVSPropertyOp54
 70
     1
102
RTVSPropertyOp55
 70
     1
102
RTVSPropertyOp56
 70
     1
102
RTVSPropertyOp57
 70
     1
102
RTVSPropertyOp58
 70
     1
102
RTVSPropertyOp59
 70
     1
102
RTVSPropertyOp60
 70
     1
102
RTVSPropertyOp61
 70
     1
102
RTVSPropertyOp62
 70
     1
  0
XRECORD
  5
A972
102
{ACAD_REACTORS
330
A971
102
}
330
A971
100
AcDbXrecord
280
     1
102
RTVSPost2010Prop28
280
     0
102
RTVSPost2010PropOp28
 70
     1
102
RTVSPost2010Prop29
280
     1
102
RTVSPost2010PropOp29
 70
     1
102
RTVSPost2010Prop30
280
     1
102
RTVSPost2010PropOp30
 70
     1
102
RTVSPost2010Prop31
280
     0
102
RTVSPost2010PropOp31
 70
     1
102
RTVSPost2010Prop32
280
     0
102
RTVSPost2010PropOp32
 70
     1
102
RTVSPost2010Prop33
280
     0
102
RTVSPost2010PropOp33
 70
     1
102
RTVSPost2010Prop34
280
     0
102
RTVSPost2010PropOp34
 70
     1
102
RTVSPost2010Prop35
280
     0
102
RTVSPost2010PropOp35
 70
     1
102
RTVSPost2010Prop36
280
     0
102
RTVSPost2010PropOp36
 70
     1
102
RTVSPost2010Prop37
 90
       50
102
RTVSPost2010PropOp37
 70
     1
102
RTVSPost2010Prop38
140
0.0
102
RTVSPost2010PropOp38
 70
     1
102
RTVSPost2010Prop39
140
1.0
102
RTVSPost2010PropOp39
 70
     1
102
RTVSPost2010Prop40
 90
        0
102
RTVSPost2010PropOp40
 70
     1
102
RTVSPost2010Prop41ColorIndex
 90
       18
102
RTVSPost2010Prop41ColorRGB
 90
        0
102
RTVSPost2010PropOp41
 70
     1
102
RTVSPost2010Prop42
 90
       50
102
RTVSPost2010PropOp42
 70
     1
102
RTVSPost2010Prop43
 90
        3
102
RTVSPost2010PropOp43
 70
     1
102
RTVSPost2010Prop44ColorIndex
 90
        5
102
RTVSPost2010Prop44ColorRGB
 90
      255
102
RTVSPost2010PropOp44
 70
     1
102
RTVSPost2010Prop45
280
     0
102
RTVSPost2010PropOp45
 70
     1
102
RTVSPost2010Prop46
 90
       50
102
RTVSPost2010PropOp46
 70
     1
102
RTVSPost2010Prop47
 90
       50
102
RTVSPost2010PropOp47
 70
     1
102
RTVSPost2010Prop48
 90
       50
102
RTVSPost2010PropOp48
 70
     1
102
RTVSPost2010Prop49
280
     0
102
RTVSPost2010PropOp49
 70
     1
102
RTVSPost2010Prop50
 90
       50
102
RTVSPost2010PropOp50
 70
     1
102
RTVSPost2010Prop51ColorIndex
 90
      256
102
RTVSPost2010Prop51ColorRGB
 90
-16777216
102
RTVSPost2010PropOp51
 70
     0
102
RTVSPost2010Prop52
140
1.0
102
RTVSPost2010PropOp52
 70
     0
102
RTVSPost2010Prop53
 90
        2
102
RTVSPost2010PropOp53
 70
     1
102
RTVSPost2010Prop54
  1
strokes_ogs.tif
102
RTVSPost2010PropOp54
 70
     1
102
RTVSPost2010Prop55
280
     0
102
RTVSPost2010PropOp55
 70
     1
102
RTVSPost2010Prop56
140
1.0
102
RTVSPost2010PropOp56
 70
     1
102
RTVSPost2010Prop57
140
1.0
102
RTVSPost2010PropOp57
 70
     1
102
RTVSPropertyOp0
 70
     1
102
RTVSPropertyOp1
 70
     1
102
RTVSPropertyOp2
 70
     1
102
RTVSPropertyOp3
 70
     1
102
RTVSPropertyOp4
 70
     1
102
RTVSPropertyOp5
 70
     1
102
RTVSPropertyOp6
 70
     1
102
RTVSPropertyOp7
 70
     1
102
RTVSPropertyOp8
 70
     1
102
RTVSPropertyOp9
 70
     1
102
RTVSPropertyOp10
 70
     1
102
RTVSPropertyOp11
 70
     1
102
RTVSPropertyOp12
 70
     1
102
RTVSPropertyOp13
 70
     1
102
RTVSPropertyOp14
 70
     1
102
RTVSPropertyOp15
 70
     1
102
RTVSPropertyOp16
 70
     1
102
RTVSPropertyOp17
 70
     1
102
RTVSPropertyOp18
 70
     1
102
RTVSPropertyOp19
 70
     1
102
RTVSPropertyOp20
 70
     1
102
RTVSPropertyOp21
 70
     1
102
RTVSPropertyOp22
 70
     1
102
RTVSPropertyOp23
 70
     1
102
RTVSPropertyOp24
 70
     1
102
RTVSPropertyOp25
 70
     1
102
RTVSPropertyOp26
 70
     1
102
RTVSPropertyOp27
 70
     1
102
RTVSPropertyOp28
 70
     1
102
RTVSPropertyOp29
 70
     1
102
RTVSPropertyOp30
 70
     1
102
RTVSPropertyOp31
 70
     1
102
RTVSPropertyOp32
 70
     1
102
RTVSPropertyOp33
 70
     1
102
RTVSPropertyOp34
 70
     1
102
RTVSPropertyOp35
 70
     1
102
RTVSPropertyOp36
 70
     1
102
RTVSPropertyOp37
 70
     1
102
RTVSPropertyOp38
 70
     1
102
RTVSPropertyOp39
 70
     1
102
RTVSPropertyOp40
 70
     1
102
RTVSPropertyOp41
 70
     1
102
RTVSPropertyOp42
 70
     1
102
RTVSPropertyOp43
 70
     1
102
RTVSPropertyOp44
 70
     1
102
RTVSPropertyOp45
 70
     1
102
RTVSPropertyOp46
 70
     1
102
RTVSPropertyOp47
 70
     1
102
RTVSPropertyOp48
 70
     1
102
RTVSPropertyOp49
 70
     1
102
RTVSPropertyOp50
 70
     1
102
RTVSPropertyOp51
 70
     0
102
RTVSPropertyOp52
 70
     0
102
RTVSPropertyOp53
 70
     1
102
RTVSPropertyOp54
 70
     1
102
RTVSPropertyOp55
 70
     1
102
RTVSPropertyOp56
 70
     1
102
RTVSPropertyOp57
 70
     1
102
RTVSPropertyOp58
 70
     1
102
RTVSPropertyOp59
 70
     1
102
RTVSPropertyOp60
 70
     1
102
RTVSPropertyOp61
 70
     1
102
RTVSPropertyOp62
 70
     1
  0
XRECORD
  5
A990
102
{ACAD_REACTORS
330
A98F
102
}
330
A98F
100
AcDbXrecord
280
     1
102
RTVSPost2010Prop28
280
     0
102
RTVSPost2010PropOp28
 70
     1
102
RTVSPost2010Prop29
280
     1
102
RTVSPost2010PropOp29
 70
     1
102
RTVSPost2010Prop30
280
     1
102
RTVSPost2010PropOp30
 70
     1
102
RTVSPost2010Prop31
280
     0
102
RTVSPost2010PropOp31
 70
     1
102
RTVSPost2010Prop32
280
     0
102
RTVSPost2010PropOp32
 70
     1
102
RTVSPost2010Prop33
280
     0
102
RTVSPost2010PropOp33
 70
     1
102
RTVSPost2010Prop34
280
     0
102
RTVSPost2010PropOp34
 70
     1
102
RTVSPost2010Prop35
280
     0
102
RTVSPost2010PropOp35
 70
     1
102
RTVSPost2010Prop36
280
     0
102
RTVSPost2010PropOp36
 70
     1
102
RTVSPost2010Prop37
 90
       50
102
RTVSPost2010PropOp37
 70
     1
102
RTVSPost2010Prop38
140
0.0
102
RTVSPost2010PropOp38
 70
     1
102
RTVSPost2010Prop39
140
1.0
102
RTVSPost2010PropOp39
 70
     1
102
RTVSPost2010Prop40
 90
        0
102
RTVSPost2010PropOp40
 70
     1
102
RTVSPost2010Prop41ColorIndex
 90
       18
102
RTVSPost2010Prop41ColorRGB
 90
        0
102
RTVSPost2010PropOp41
 70
     1
102
RTVSPost2010Prop42
 90
       50
102
RTVSPost2010PropOp42
 70
     1
102
RTVSPost2010Prop43
 90
        3
102
RTVSPost2010PropOp43
 70
     1
102
RTVSPost2010Prop44ColorIndex
 90
        5
102
RTVSPost2010Prop44ColorRGB
 90
      255
102
RTVSPost2010PropOp44
 70
     1
102
RTVSPost2010Prop45
280
     0
102
RTVSPost2010PropOp45
 70
     1
102
RTVSPost2010Prop46
 90
       50
102
RTVSPost2010PropOp46
 70
     1
102
RTVSPost2010Prop47
 90
       50
102
RTVSPost2010PropOp47
 70
     1
102
RTVSPost2010Prop48
 90
       50
102
RTVSPost2010PropOp48
 70
     1
102
RTVSPost2010Prop49
280
     0
102
RTVSPost2010PropOp49
 70
     1
102
RTVSPost2010Prop50
 90
       50
102
RTVSPost2010PropOp50
 70
     1
102
RTVSPost2010Prop51ColorIndex
 90
      256
102
RTVSPost2010Prop51ColorRGB
 90
-16777216
102
RTVSPost2010PropOp51
 70
     0
102
RTVSPost2010Prop52
140
1.0
102
RTVSPost2010PropOp52
 70
     0
102
RTVSPost2010Prop53
 90
        2
102
RTVSPost2010PropOp53
 70
     1
102
RTVSPost2010Prop54
  1
strokes_ogs.tif
102
RTVSPost2010PropOp54
 70
     1
102
RTVSPost2010Prop55
280
     0
102
RTVSPost2010PropOp55
 70
     1
102
RTVSPost2010Prop56
140
1.0
102
RTVSPost2010PropOp56
 70
     1
102
RTVSPost2010Prop57
140
1.0
102
RTVSPost2010PropOp57
 70
     1
102
RTVSPropertyOp0
 70
     1
102
RTVSPropertyOp1
 70
     1
102
RTVSPropertyOp2
 70
     1
102
RTVSPropertyOp3
 70
     1
102
RTVSPropertyOp4
 70
     1
102
RTVSPropertyOp5
 70
     1
102
RTVSPropertyOp6
 70
     1
102
RTVSPropertyOp7
 70
     1
102
RTVSPropertyOp8
 70
     1
102
RTVSPropertyOp9
 70
     1
102
RTVSPropertyOp10
 70
     1
102
RTVSPropertyOp11
 70
     1
102
RTVSPropertyOp12
 70
     1
102
RTVSPropertyOp13
 70
     1
102
RTVSPropertyOp14
 70
     1
102
RTVSPropertyOp15
 70
     1
102
RTVSPropertyOp16
 70
     1
102
RTVSPropertyOp17
 70
     1
102
RTVSPropertyOp18
 70
     1
102
RTVSPropertyOp19
 70
     1
102
RTVSPropertyOp20
 70
     1
102
RTVSPropertyOp21
 70
     1
102
RTVSPropertyOp22
 70
     1
102
RTVSPropertyOp23
 70
     1
102
RTVSPropertyOp24
 70
     1
102
RTVSPropertyOp25
 70
     1
102
RTVSPropertyOp26
 70
     1
102
RTVSPropertyOp27
 70
     1
102
RTVSPropertyOp28
 70
     1
102
RTVSPropertyOp29
 70
     1
102
RTVSPropertyOp30
 70
     1
102
RTVSPropertyOp31
 70
     1
102
RTVSPropertyOp32
 70
     1
102
RTVSPropertyOp33
 70
     1
102
RTVSPropertyOp34
 70
     1
102
RTVSPropertyOp35
 70
     1
102
RTVSPropertyOp36
 70
     1
102
RTVSPropertyOp37
 70
     1
102
RTVSPropertyOp38
 70
     1
102
RTVSPropertyOp39
 70
     1
102
RTVSPropertyOp40
 70
     1
102
RTVSPropertyOp41
 70
     1
102
RTVSPropertyOp42
 70
     1
102
RTVSPropertyOp43
 70
     1
102
RTVSPropertyOp44
 70
     1
102
RTVSPropertyOp45
 70
     1
102
RTVSPropertyOp46
 70
     1
102
RTVSPropertyOp47
 70
     1
102
RTVSPropertyOp48
 70
     1
102
RTVSPropertyOp49
 70
     1
102
RTVSPropertyOp50
 70
     1
102
RTVSPropertyOp51
 70
     0
102
RTVSPropertyOp52
 70
     0
102
RTVSPropertyOp53
 70
     1
102
RTVSPropertyOp54
 70
     1
102
RTVSPropertyOp55
 70
     1
102
RTVSPropertyOp56
 70
     1
102
RTVSPropertyOp57
 70
     1
102
RTVSPropertyOp58
 70
     1
102
RTVSPropertyOp59
 70
     1
102
RTVSPropertyOp60
 70
     1
102
RTVSPropertyOp61
 70
     1
102
RTVSPropertyOp62
 70
     1
  0
XRECORD
  5
A98E
102
{ACAD_REACTORS
330
A98D
102
}
330
A98D
100
AcDbXrecord
280
     1
102
RTVSPost2010Prop28
280
     0
102
RTVSPost2010PropOp28
 70
     1
102
RTVSPost2010Prop29
280
     1
102
RTVSPost2010PropOp29
 70
     1
102
RTVSPost2010Prop30
280
     1
102
RTVSPost2010PropOp30
 70
     1
102
RTVSPost2010Prop31
280
     0
102
RTVSPost2010PropOp31
 70
     1
102
RTVSPost2010Prop32
280
     0
102
RTVSPost2010PropOp32
 70
     1
102
RTVSPost2010Prop33
280
     0
102
RTVSPost2010PropOp33
 70
     1
102
RTVSPost2010Prop34
280
     0
102
RTVSPost2010PropOp34
 70
     1
102
RTVSPost2010Prop35
280
     0
102
RTVSPost2010PropOp35
 70
     1
102
RTVSPost2010Prop36
280
     0
102
RTVSPost2010PropOp36
 70
     1
102
RTVSPost2010Prop37
 90
       50
102
RTVSPost2010PropOp37
 70
     1
102
RTVSPost2010Prop38
140
0.0
102
RTVSPost2010PropOp38
 70
     1
102
RTVSPost2010Prop39
140
1.0
102
RTVSPost2010PropOp39
 70
     1
102
RTVSPost2010Prop40
 90
        0
102
RTVSPost2010PropOp40
 70
     1
102
RTVSPost2010Prop41ColorIndex
 90
       18
102
RTVSPost2010Prop41ColorRGB
 90
        0
102
RTVSPost2010PropOp41
 70
     1
102
RTVSPost2010Prop42
 90
       50
102
RTVSPost2010PropOp42
 70
     1
102
RTVSPost2010Prop43
 90
        3
102
RTVSPost2010PropOp43
 70
     1
102
RTVSPost2010Prop44ColorIndex
 90
        5
102
RTVSPost2010Prop44ColorRGB
 90
      255
102
RTVSPost2010PropOp44
 70
     1
102
RTVSPost2010Prop45
280
     0
102
RTVSPost2010PropOp45
 70
     1
102
RTVSPost2010Prop46
 90
       50
102
RTVSPost2010PropOp46
 70
     1
102
RTVSPost2010Prop47
 90
       50
102
RTVSPost2010PropOp47
 70
     1
102
RTVSPost2010Prop48
 90
       50
102
RTVSPost2010PropOp48
 70
     1
102
RTVSPost2010Prop49
280
     0
102
RTVSPost2010PropOp49
 70
     1
102
RTVSPost2010Prop50
 90
       50
102
RTVSPost2010PropOp50
 70
     1
102
RTVSPost2010Prop51ColorIndex
 90
      256
102
RTVSPost2010Prop51ColorRGB
 90
-16777216
102
RTVSPost2010PropOp51
 70
     0
102
RTVSPost2010Prop52
140
1.0
102
RTVSPost2010PropOp52
 70
     0
102
RTVSPost2010Prop53
 90
        2
102
RTVSPost2010PropOp53
 70
     1
102
RTVSPost2010Prop54
  1
strokes_ogs.tif
102
RTVSPost2010PropOp54
 70
     1
102
RTVSPost2010Prop55
280
     0
102
RTVSPost2010PropOp55
 70
     1
102
RTVSPost2010Prop56
140
1.0
102
RTVSPost2010PropOp56
 70
     1
102
RTVSPost2010Prop57
140
1.0
102
RTVSPost2010PropOp57
 70
     1
102
RTVSPropertyOp0
 70
     1
102
RTVSPropertyOp1
 70
     1
102
RTVSPropertyOp2
 70
     1
102
RTVSPropertyOp3
 70
     1
102
RTVSPropertyOp4
 70
     1
102
RTVSPropertyOp5
 70
     1
102
RTVSPropertyOp6
 70
     1
102
RTVSPropertyOp7
 70
     1
102
RTVSPropertyOp8
 70
     1
102
RTVSPropertyOp9
 70
     1
102
RTVSPropertyOp10
 70
     1
102
RTVSPropertyOp11
 70
     1
102
RTVSPropertyOp12
 70
     1
102
RTVSPropertyOp13
 70
     1
102
RTVSPropertyOp14
 70
     1
102
RTVSPropertyOp15
 70
     1
102
RTVSPropertyOp16
 70
     1
102
RTVSPropertyOp17
 70
     1
102
RTVSPropertyOp18
 70
     1
102
RTVSPropertyOp19
 70
     1
102
RTVSPropertyOp20
 70
     1
102
RTVSPropertyOp21
 70
     1
102
RTVSPropertyOp22
 70
     1
102
RTVSPropertyOp23
 70
     1
102
RTVSPropertyOp24
 70
     1
102
RTVSPropertyOp25
 70
     1
102
RTVSPropertyOp26
 70
     1
102
RTVSPropertyOp27
 70
     1
102
RTVSPropertyOp28
 70
     1
102
RTVSPropertyOp29
 70
     1
102
RTVSPropertyOp30
 70
     1
102
RTVSPropertyOp31
 70
     1
102
RTVSPropertyOp32
 70
     1
102
RTVSPropertyOp33
 70
     1
102
RTVSPropertyOp34
 70
     1
102
RTVSPropertyOp35
 70
     1
102
RTVSPropertyOp36
 70
     1
102
RTVSPropertyOp37
 70
     1
102
RTVSPropertyOp38
 70
     1
102
RTVSPropertyOp39
 70
     1
102
RTVSPropertyOp40
 70
     1
102
RTVSPropertyOp41
 70
     1
102
RTVSPropertyOp42
 70
     1
102
RTVSPropertyOp43
 70
     1
102
RTVSPropertyOp44
 70
     1
102
RTVSPropertyOp45
 70
     1
102
RTVSPropertyOp46
 70
     1
102
RTVSPropertyOp47
 70
     1
102
RTVSPropertyOp48
 70
     1
102
RTVSPropertyOp49
 70
     1
102
RTVSPropertyOp50
 70
     1
102
RTVSPropertyOp51
 70
     0
102
RTVSPropertyOp52
 70
     0
102
RTVSPropertyOp53
 70
     1
102
RTVSPropertyOp54
 70
     1
102
RTVSPropertyOp55
 70
     1
102
RTVSPropertyOp56
 70
     1
102
RTVSPropertyOp57
 70
     1
102
RTVSPropertyOp58
 70
     1
102
RTVSPropertyOp59
 70
     1
102
RTVSPropertyOp60
 70
     1
102
RTVSPropertyOp61
 70
     1
102
RTVSPropertyOp62
 70
     1
  0
XRECORD
  5
A988
102
{ACAD_REACTORS
330
A987
102
}
330
A987
100
AcDbXrecord
280
     1
102
RTVSPost2010Prop28
280
     0
102
RTVSPost2010PropOp28
 70
     1
102
RTVSPost2010Prop29
280
     1
102
RTVSPost2010PropOp29
 70
     1
102
RTVSPost2010Prop30
280
     1
102
RTVSPost2010PropOp30
 70
     1
102
RTVSPost2010Prop31
280
     0
102
RTVSPost2010PropOp31
 70
     1
102
RTVSPost2010Prop32
280
     0
102
RTVSPost2010PropOp32
 70
     1
102
RTVSPost2010Prop33
280
     0
102
RTVSPost2010PropOp33
 70
     1
102
RTVSPost2010Prop34
280
     0
102
RTVSPost2010PropOp34
 70
     1
102
RTVSPost2010Prop35
280
     0
102
RTVSPost2010PropOp35
 70
     1
102
RTVSPost2010Prop36
280
     0
102
RTVSPost2010PropOp36
 70
     1
102
RTVSPost2010Prop37
 90
       50
102
RTVSPost2010PropOp37
 70
     1
102
RTVSPost2010Prop38
140
0.0
102
RTVSPost2010PropOp38
 70
     1
102
RTVSPost2010Prop39
140
1.0
102
RTVSPost2010PropOp39
 70
     1
102
RTVSPost2010Prop40
 90
        0
102
RTVSPost2010PropOp40
 70
     1
102
RTVSPost2010Prop41ColorIndex
 90
       18
102
RTVSPost2010Prop41ColorRGB
 90
        0
102
RTVSPost2010PropOp41
 70
     1
102
RTVSPost2010Prop42
 90
       50
102
RTVSPost2010PropOp42
 70
     1
102
RTVSPost2010Prop43
 90
        3
102
RTVSPost2010PropOp43
 70
     1
102
RTVSPost2010Prop44ColorIndex
 90
        5
102
RTVSPost2010Prop44ColorRGB
 90
      255
102
RTVSPost2010PropOp44
 70
     1
102
RTVSPost2010Prop45
280
     0
102
RTVSPost2010PropOp45
 70
     1
102
RTVSPost2010Prop46
 90
       50
102
RTVSPost2010PropOp46
 70
     1
102
RTVSPost2010Prop47
 90
       50
102
RTVSPost2010PropOp47
 70
     1
102
RTVSPost2010Prop48
 90
       50
102
RTVSPost2010PropOp48
 70
     1
102
RTVSPost2010Prop49
280
     0
102
RTVSPost2010PropOp49
 70
     1
102
RTVSPost2010Prop50
 90
       50
102
RTVSPost2010PropOp50
 70
     1
102
RTVSPost2010Prop51ColorIndex
 90
      256
102
RTVSPost2010Prop51ColorRGB
 90
-16777216
102
RTVSPost2010PropOp51
 70
     0
102
RTVSPost2010Prop52
140
1.0
102
RTVSPost2010PropOp52
 70
     0
102
RTVSPost2010Prop53
 90
        2
102
RTVSPost2010PropOp53
 70
     1
102
RTVSPost2010Prop54
  1
strokes_ogs.tif
102
RTVSPost2010PropOp54
 70
     1
102
RTVSPost2010Prop55
280
     0
102
RTVSPost2010PropOp55
 70
     1
102
RTVSPost2010Prop56
140
1.0
102
RTVSPost2010PropOp56
 70
     1
102
RTVSPost2010Prop57
140
1.0
102
RTVSPost2010PropOp57
 70
     1
102
RTVSPropertyOp0
 70
     1
102
RTVSPropertyOp1
 70
     1
102
RTVSPropertyOp2
 70
     1
102
RTVSPropertyOp3
 70
     1
102
RTVSPropertyOp4
 70
     1
102
RTVSPropertyOp5
 70
     1
102
RTVSPropertyOp6
 70
     1
102
RTVSPropertyOp7
 70
     1
102
RTVSPropertyOp8
 70
     1
102
RTVSPropertyOp9
 70
     1
102
RTVSPropertyOp10
 70
     1
102
RTVSPropertyOp11
 70
     1
102
RTVSPropertyOp12
 70
     1
102
RTVSPropertyOp13
 70
     1
102
RTVSPropertyOp14
 70
     1
102
RTVSPropertyOp15
 70
     1
102
RTVSPropertyOp16
 70
     1
102
RTVSPropertyOp17
 70
     1
102
RTVSPropertyOp18
 70
     1
102
RTVSPropertyOp19
 70
     1
102
RTVSPropertyOp20
 70
     1
102
RTVSPropertyOp21
 70
     1
102
RTVSPropertyOp22
 70
     1
102
RTVSPropertyOp23
 70
     1
102
RTVSPropertyOp24
 70
     1
102
RTVSPropertyOp25
 70
     1
102
RTVSPropertyOp26
 70
     1
102
RTVSPropertyOp27
 70
     1
102
RTVSPropertyOp28
 70
     1
102
RTVSPropertyOp29
 70
     1
102
RTVSPropertyOp30
 70
     1
102
RTVSPropertyOp31
 70
     1
102
RTVSPropertyOp32
 70
     1
102
RTVSPropertyOp33
 70
     1
102
RTVSPropertyOp34
 70
     1
102
RTVSPropertyOp35
 70
     1
102
RTVSPropertyOp36
 70
     1
102
RTVSPropertyOp37
 70
     1
102
RTVSPropertyOp38
 70
     1
102
RTVSPropertyOp39
 70
     1
102
RTVSPropertyOp40
 70
     1
102
RTVSPropertyOp41
 70
     1
102
RTVSPropertyOp42
 70
     1
102
RTVSPropertyOp43
 70
     1
102
RTVSPropertyOp44
 70
     1
102
RTVSPropertyOp45
 70
     1
102
RTVSPropertyOp46
 70
     1
102
RTVSPropertyOp47
 70
     1
102
RTVSPropertyOp48
 70
     1
102
RTVSPropertyOp49
 70
     1
102
RTVSPropertyOp50
 70
     1
102
RTVSPropertyOp51
 70
     0
102
RTVSPropertyOp52
 70
     0
102
RTVSPropertyOp53
 70
     1
102
RTVSPropertyOp54
 70
     1
102
RTVSPropertyOp55
 70
     1
102
RTVSPropertyOp56
 70
     1
102
RTVSPropertyOp57
 70
     1
102
RTVSPropertyOp58
 70
     1
102
RTVSPropertyOp59
 70
     1
102
RTVSPropertyOp60
 70
     1
102
RTVSPropertyOp61
 70
     1
102
RTVSPropertyOp62
 70
     1
  0
XRECORD
  5
A98A
102
{ACAD_REACTORS
330
A989
102
}
330
A989
100
AcDbXrecord
280
     1
102
RTVSPost2010Prop28
280
     0
102
RTVSPost2010PropOp28
 70
     1
102
RTVSPost2010Prop29
280
     1
102
RTVSPost2010PropOp29
 70
     1
102
RTVSPost2010Prop30
280
     1
102
RTVSPost2010PropOp30
 70
     1
102
RTVSPost2010Prop31
280
     0
102
RTVSPost2010PropOp31
 70
     1
102
RTVSPost2010Prop32
280
     0
102
RTVSPost2010PropOp32
 70
     1
102
RTVSPost2010Prop33
280
     0
102
RTVSPost2010PropOp33
 70
     1
102
RTVSPost2010Prop34
280
     0
102
RTVSPost2010PropOp34
 70
     1
102
RTVSPost2010Prop35
280
     0
102
RTVSPost2010PropOp35
 70
     1
102
RTVSPost2010Prop36
280
     0
102
RTVSPost2010PropOp36
 70
     1
102
RTVSPost2010Prop37
 90
       50
102
RTVSPost2010PropOp37
 70
     1
102
RTVSPost2010Prop38
140
0.0
102
RTVSPost2010PropOp38
 70
     1
102
RTVSPost2010Prop39
140
1.0
102
RTVSPost2010PropOp39
 70
     1
102
RTVSPost2010Prop40
 90
        0
102
RTVSPost2010PropOp40
 70
     1
102
RTVSPost2010Prop41ColorIndex
 90
       18
102
RTVSPost2010Prop41ColorRGB
 90
        0
102
RTVSPost2010PropOp41
 70
     1
102
RTVSPost2010Prop42
 90
       50
102
RTVSPost2010PropOp42
 70
     1
102
RTVSPost2010Prop43
 90
        3
102
RTVSPost2010PropOp43
 70
     1
102
RTVSPost2010Prop44ColorIndex
 90
        5
102
RTVSPost2010Prop44ColorRGB
 90
      255
102
RTVSPost2010PropOp44
 70
     1
102
RTVSPost2010Prop45
280
     0
102
RTVSPost2010PropOp45
 70
     1
102
RTVSPost2010Prop46
 90
       50
102
RTVSPost2010PropOp46
 70
     1
102
RTVSPost2010Prop47
 90
       50
102
RTVSPost2010PropOp47
 70
     1
102
RTVSPost2010Prop48
 90
       50
102
RTVSPost2010PropOp48
 70
     1
102
RTVSPost2010Prop49
280
     0
102
RTVSPost2010PropOp49
 70
     1
102
RTVSPost2010Prop50
 90
       50
102
RTVSPost2010PropOp50
 70
     1
102
RTVSPost2010Prop51ColorIndex
 90
      256
102
RTVSPost2010Prop51ColorRGB
 90
-16777216
102
RTVSPost2010PropOp51
 70
     0
102
RTVSPost2010Prop52
140
1.0
102
RTVSPost2010PropOp52
 70
     0
102
RTVSPost2010Prop53
 90
        2
102
RTVSPost2010PropOp53
 70
     1
102
RTVSPost2010Prop54
  1
strokes_ogs.tif
102
RTVSPost2010PropOp54
 70
     1
102
RTVSPost2010Prop55
280
     0
102
RTVSPost2010PropOp55
 70
     1
102
RTVSPost2010Prop56
140
1.0
102
RTVSPost2010PropOp56
 70
     1
102
RTVSPost2010Prop57
140
1.0
102
RTVSPost2010PropOp57
 70
     1
102
RTVSPropertyOp0
 70
     1
102
RTVSPropertyOp1
 70
     1
102
RTVSPropertyOp2
 70
     1
102
RTVSPropertyOp3
 70
     1
102
RTVSPropertyOp4
 70
     1
102
RTVSPropertyOp5
 70
     1
102
RTVSPropertyOp6
 70
     1
102
RTVSPropertyOp7
 70
     1
102
RTVSPropertyOp8
 70
     1
102
RTVSPropertyOp9
 70
     1
102
RTVSPropertyOp10
 70
     1
102
RTVSPropertyOp11
 70
     1
102
RTVSPropertyOp12
 70
     1
102
RTVSPropertyOp13
 70
     1
102
RTVSPropertyOp14
 70
     1
102
RTVSPropertyOp15
 70
     1
102
RTVSPropertyOp16
 70
     1
102
RTVSPropertyOp17
 70
     1
102
RTVSPropertyOp18
 70
     1
102
RTVSPropertyOp19
 70
     1
102
RTVSPropertyOp20
 70
     1
102
RTVSPropertyOp21
 70
     1
102
RTVSPropertyOp22
 70
     1
102
RTVSPropertyOp23
 70
     1
102
RTVSPropertyOp24
 70
     1
102
RTVSPropertyOp25
 70
     1
102
RTVSPropertyOp26
 70
     1
102
RTVSPropertyOp27
 70
     1
102
RTVSPropertyOp28
 70
     1
102
RTVSPropertyOp29
 70
     1
102
RTVSPropertyOp30
 70
     1
102
RTVSPropertyOp31
 70
     1
102
RTVSPropertyOp32
 70
     1
102
RTVSPropertyOp33
 70
     1
102
RTVSPropertyOp34
 70
     1
102
RTVSPropertyOp35
 70
     1
102
RTVSPropertyOp36
 70
     1
102
RTVSPropertyOp37
 70
     1
102
RTVSPropertyOp38
 70
     1
102
RTVSPropertyOp39
 70
     1
102
RTVSPropertyOp40
 70
     1
102
RTVSPropertyOp41
 70
     1
102
RTVSPropertyOp42
 70
     1
102
RTVSPropertyOp43
 70
     1
102
RTVSPropertyOp44
 70
     1
102
RTVSPropertyOp45
 70
     1
102
RTVSPropertyOp46
 70
     1
102
RTVSPropertyOp47
 70
     1
102
RTVSPropertyOp48
 70
     1
102
RTVSPropertyOp49
 70
     1
102
RTVSPropertyOp50
 70
     1
102
RTVSPropertyOp51
 70
     0
102
RTVSPropertyOp52
 70
     0
102
RTVSPropertyOp53
 70
     1
102
RTVSPropertyOp54
 70
     1
102
RTVSPropertyOp55
 70
     1
102
RTVSPropertyOp56
 70
     1
102
RTVSPropertyOp57
 70
     1
102
RTVSPropertyOp58
 70
     1
102
RTVSPropertyOp59
 70
     1
102
RTVSPropertyOp60
 70
     1
102
RTVSPropertyOp61
 70
     1
102
RTVSPropertyOp62
 70
     1
  0
XRECORD
  5
A978
102
{ACAD_REACTORS
330
A977
102
}
330
A977
100
AcDbXrecord
280
     1
102
RTVSPost2010Prop28
280
     0
102
RTVSPost2010PropOp28
 70
     1
102
RTVSPost2010Prop29
280
     1
102
RTVSPost2010PropOp29
 70
     1
102
RTVSPost2010Prop30
280
     1
102
RTVSPost2010PropOp30
 70
     1
102
RTVSPost2010Prop31
280
     0
102
RTVSPost2010PropOp31
 70
     1
102
RTVSPost2010Prop32
280
     0
102
RTVSPost2010PropOp32
 70
     1
102
RTVSPost2010Prop33
280
     0
102
RTVSPost2010PropOp33
 70
     1
102
RTVSPost2010Prop34
280
     0
102
RTVSPost2010PropOp34
 70
     1
102
RTVSPost2010Prop35
280
     0
102
RTVSPost2010PropOp35
 70
     1
102
RTVSPost2010Prop36
280
     0
102
RTVSPost2010PropOp36
 70
     1
102
RTVSPost2010Prop37
 90
       50
102
RTVSPost2010PropOp37
 70
     1
102
RTVSPost2010Prop38
140
0.0
102
RTVSPost2010PropOp38
 70
     1
102
RTVSPost2010Prop39
140
1.0
102
RTVSPost2010PropOp39
 70
     1
102
RTVSPost2010Prop40
 90
        0
102
RTVSPost2010PropOp40
 70
     1
102
RTVSPost2010Prop41ColorIndex
 90
       18
102
RTVSPost2010Prop41ColorRGB
 90
        0
102
RTVSPost2010PropOp41
 70
     1
102
RTVSPost2010Prop42
 90
       50
102
RTVSPost2010PropOp42
 70
     1
102
RTVSPost2010Prop43
 90
        3
102
RTVSPost2010PropOp43
 70
     1
102
RTVSPost2010Prop44ColorIndex
 90
        5
102
RTVSPost2010Prop44ColorRGB
 90
      255
102
RTVSPost2010PropOp44
 70
     1
102
RTVSPost2010Prop45
280
     0
102
RTVSPost2010PropOp45
 70
     1
102
RTVSPost2010Prop46
 90
       50
102
RTVSPost2010PropOp46
 70
     1
102
RTVSPost2010Prop47
 90
       50
102
RTVSPost2010PropOp47
 70
     1
102
RTVSPost2010Prop48
 90
       50
102
RTVSPost2010PropOp48
 70
     1
102
RTVSPost2010Prop49
280
     0
102
RTVSPost2010PropOp49
 70
     1
102
RTVSPost2010Prop50
 90
       50
102
RTVSPost2010PropOp50
 70
     1
102
RTVSPost2010Prop51ColorIndex
 90
      256
102
RTVSPost2010Prop51ColorRGB
 90
-16777216
102
RTVSPost2010PropOp51
 70
     0
102
RTVSPost2010Prop52
140
1.0
102
RTVSPost2010PropOp52
 70
     0
102
RTVSPost2010Prop53
 90
        2
102
RTVSPost2010PropOp53
 70
     1
102
RTVSPost2010Prop54
  1
strokes_ogs.tif
102
RTVSPost2010PropOp54
 70
     1
102
RTVSPost2010Prop55
280
     0
102
RTVSPost2010PropOp55
 70
     1
102
RTVSPost2010Prop56
140
1.0
102
RTVSPost2010PropOp56
 70
     1
102
RTVSPost2010Prop57
140
1.0
102
RTVSPost2010PropOp57
 70
     1
102
RTVSPropertyOp0
 70
     1
102
RTVSPropertyOp1
 70
     1
102
RTVSPropertyOp2
 70
     1
102
RTVSPropertyOp3
 70
     1
102
RTVSPropertyOp4
 70
     1
102
RTVSPropertyOp5
 70
     1
102
RTVSPropertyOp6
 70
     1
102
RTVSPropertyOp7
 70
     1
102
RTVSPropertyOp8
 70
     1
102
RTVSPropertyOp9
 70
     1
102
RTVSPropertyOp10
 70
     1
102
RTVSPropertyOp11
 70
     1
102
RTVSPropertyOp12
 70
     1
102
RTVSPropertyOp13
 70
     1
102
RTVSPropertyOp14
 70
     1
102
RTVSPropertyOp15
 70
     1
102
RTVSPropertyOp16
 70
     1
102
RTVSPropertyOp17
 70
     1
102
RTVSPropertyOp18
 70
     1
102
RTVSPropertyOp19
 70
     1
102
RTVSPropertyOp20
 70
     1
102
RTVSPropertyOp21
 70
     1
102
RTVSPropertyOp22
 70
     1
102
RTVSPropertyOp23
 70
     1
102
RTVSPropertyOp24
 70
     1
102
RTVSPropertyOp25
 70
     1
102
RTVSPropertyOp26
 70
     1
102
RTVSPropertyOp27
 70
     1
102
RTVSPropertyOp28
 70
     1
102
RTVSPropertyOp29
 70
     1
102
RTVSPropertyOp30
 70
     1
102
RTVSPropertyOp31
 70
     1
102
RTVSPropertyOp32
 70
     1
102
RTVSPropertyOp33
 70
     1
102
RTVSPropertyOp34
 70
     1
102
RTVSPropertyOp35
 70
     1
102
RTVSPropertyOp36
 70
     1
102
RTVSPropertyOp37
 70
     1
102
RTVSPropertyOp38
 70
     1
102
RTVSPropertyOp39
 70
     1
102
RTVSPropertyOp40
 70
     1
102
RTVSPropertyOp41
 70
     1
102
RTVSPropertyOp42
 70
     1
102
RTVSPropertyOp43
 70
     1
102
RTVSPropertyOp44
 70
     1
102
RTVSPropertyOp45
 70
     1
102
RTVSPropertyOp46
 70
     1
102
RTVSPropertyOp47
 70
     1
102
RTVSPropertyOp48
 70
     1
102
RTVSPropertyOp49
 70
     1
102
RTVSPropertyOp50
 70
     1
102
RTVSPropertyOp51
 70
     0
102
RTVSPropertyOp52
 70
     0
102
RTVSPropertyOp53
 70
     1
102
RTVSPropertyOp54
 70
     1
102
RTVSPropertyOp55
 70
     1
102
RTVSPropertyOp56
 70
     1
102
RTVSPropertyOp57
 70
     1
102
RTVSPropertyOp58
 70
     1
102
RTVSPropertyOp59
 70
     1
102
RTVSPropertyOp60
 70
     1
102
RTVSPropertyOp61
 70
     1
102
RTVSPropertyOp62
 70
     1
  0
XRECORD
  5
A96C
102
{ACAD_REACTORS
330
A96B
102
}
330
A96B
100
AcDbXrecord
280
     1
102
RTVSPost2010Prop28
280
     0
102
RTVSPost2010PropOp28
 70
     1
102
RTVSPost2010Prop29
280
     1
102
RTVSPost2010PropOp29
 70
     1
102
RTVSPost2010Prop30
280
     1
102
RTVSPost2010PropOp30
 70
     1
102
RTVSPost2010Prop31
280
     0
102
RTVSPost2010PropOp31
 70
     1
102
RTVSPost2010Prop32
280
     0
102
RTVSPost2010PropOp32
 70
     1
102
RTVSPost2010Prop33
280
     0
102
RTVSPost2010PropOp33
 70
     1
102
RTVSPost2010Prop34
280
     0
102
RTVSPost2010PropOp34
 70
     1
102
RTVSPost2010Prop35
280
     0
102
RTVSPost2010PropOp35
 70
     1
102
RTVSPost2010Prop36
280
     0
102
RTVSPost2010PropOp36
 70
     1
102
RTVSPost2010Prop37
 90
       50
102
RTVSPost2010PropOp37
 70
     1
102
RTVSPost2010Prop38
140
0.0
102
RTVSPost2010PropOp38
 70
     1
102
RTVSPost2010Prop39
140
1.0
102
RTVSPost2010PropOp39
 70
     1
102
RTVSPost2010Prop40
 90
        0
102
RTVSPost2010PropOp40
 70
     1
102
RTVSPost2010Prop41ColorIndex
 90
       18
102
RTVSPost2010Prop41ColorRGB
 90
        0
102
RTVSPost2010PropOp41
 70
     1
102
RTVSPost2010Prop42
 90
       50
102
RTVSPost2010PropOp42
 70
     1
102
RTVSPost2010Prop43
 90
        3
102
RTVSPost2010PropOp43
 70
     1
102
RTVSPost2010Prop44ColorIndex
 90
        5
102
RTVSPost2010Prop44ColorRGB
 90
      255
102
RTVSPost2010PropOp44
 70
     1
102
RTVSPost2010Prop45
280
     0
102
RTVSPost2010PropOp45
 70
     1
102
RTVSPost2010Prop46
 90
       50
102
RTVSPost2010PropOp46
 70
     1
102
RTVSPost2010Prop47
 90
       50
102
RTVSPost2010PropOp47
 70
     1
102
RTVSPost2010Prop48
 90
       50
102
RTVSPost2010PropOp48
 70
     1
102
RTVSPost2010Prop49
280
     0
102
RTVSPost2010PropOp49
 70
     1
102
RTVSPost2010Prop50
 90
       50
102
RTVSPost2010PropOp50
 70
     1
102
RTVSPost2010Prop51ColorIndex
 90
      256
102
RTVSPost2010Prop51ColorRGB
 90
-16777216
102
RTVSPost2010PropOp51
 70
     0
102
RTVSPost2010Prop52
140
1.0
102
RTVSPost2010PropOp52
 70
     0
102
RTVSPost2010Prop53
 90
        2
102
RTVSPost2010PropOp53
 70
     1
102
RTVSPost2010Prop54
  1
strokes_ogs.tif
102
RTVSPost2010PropOp54
 70
     1
102
RTVSPost2010Prop55
280
     0
102
RTVSPost2010PropOp55
 70
     1
102
RTVSPost2010Prop56
140
1.0
102
RTVSPost2010PropOp56
 70
     1
102
RTVSPost2010Prop57
140
1.0
102
RTVSPost2010PropOp57
 70
     1
102
RTVSPropertyOp0
 70
     1
102
RTVSPropertyOp1
 70
     1
102
RTVSPropertyOp2
 70
     1
102
RTVSPropertyOp3
 70
     1
102
RTVSPropertyOp4
 70
     1
102
RTVSPropertyOp5
 70
     1
102
RTVSPropertyOp6
 70
     1
102
RTVSPropertyOp7
 70
     1
102
RTVSPropertyOp8
 70
     1
102
RTVSPropertyOp9
 70
     1
102
RTVSPropertyOp10
 70
     1
102
RTVSPropertyOp11
 70
     1
102
RTVSPropertyOp12
 70
     1
102
RTVSPropertyOp13
 70
     1
102
RTVSPropertyOp14
 70
     1
102
RTVSPropertyOp15
 70
     1
102
RTVSPropertyOp16
 70
     1
102
RTVSPropertyOp17
 70
     1
102
RTVSPropertyOp18
 70
     1
102
RTVSPropertyOp19
 70
     1
102
RTVSPropertyOp20
 70
     1
102
RTVSPropertyOp21
 70
     1
102
RTVSPropertyOp22
 70
     1
102
RTVSPropertyOp23
 70
     1
102
RTVSPropertyOp24
 70
     1
102
RTVSPropertyOp25
 70
     1
102
RTVSPropertyOp26
 70
     1
102
RTVSPropertyOp27
 70
     1
102
RTVSPropertyOp28
 70
     1
102
RTVSPropertyOp29
 70
     1
102
RTVSPropertyOp30
 70
     1
102
RTVSPropertyOp31
 70
     1
102
RTVSPropertyOp32
 70
     1
102
RTVSPropertyOp33
 70
     1
102
RTVSPropertyOp34
 70
     1
102
RTVSPropertyOp35
 70
     1
102
RTVSPropertyOp36
 70
     1
102
RTVSPropertyOp37
 70
     1
102
RTVSPropertyOp38
 70
     1
102
RTVSPropertyOp39
 70
     1
102
RTVSPropertyOp40
 70
     1
102
RTVSPropertyOp41
 70
     1
102
RTVSPropertyOp42
 70
     1
102
RTVSPropertyOp43
 70
     1
102
RTVSPropertyOp44
 70
     1
102
RTVSPropertyOp45
 70
     1
102
RTVSPropertyOp46
 70
     1
102
RTVSPropertyOp47
 70
     1
102
RTVSPropertyOp48
 70
     1
102
RTVSPropertyOp49
 70
     1
102
RTVSPropertyOp50
 70
     1
102
RTVSPropertyOp51
 70
     0
102
RTVSPropertyOp52
 70
     0
102
RTVSPropertyOp53
 70
     1
102
RTVSPropertyOp54
 70
     1
102
RTVSPropertyOp55
 70
     1
102
RTVSPropertyOp56
 70
     1
102
RTVSPropertyOp57
 70
     1
102
RTVSPropertyOp58
 70
     1
102
RTVSPropertyOp59
 70
     1
102
RTVSPropertyOp60
 70
     1
102
RTVSPropertyOp61
 70
     1
102
RTVSPropertyOp62
 70
     1
  0
XRECORD
  5
A98C
102
{ACAD_REACTORS
330
A98B
102
}
330
A98B
100
AcDbXrecord
280
     1
102
RTVSPost2010Prop28
280
     0
102
RTVSPost2010PropOp28
 70
     1
102
RTVSPost2010Prop29
280
     1
102
RTVSPost2010PropOp29
 70
     1
102
RTVSPost2010Prop30
280
     1
102
RTVSPost2010PropOp30
 70
     1
102
RTVSPost2010Prop31
280
     0
102
RTVSPost2010PropOp31
 70
     1
102
RTVSPost2010Prop32
280
     0
102
RTVSPost2010PropOp32
 70
     1
102
RTVSPost2010Prop33
280
     0
102
RTVSPost2010PropOp33
 70
     1
102
RTVSPost2010Prop34
280
     0
102
RTVSPost2010PropOp34
 70
     1
102
RTVSPost2010Prop35
280
     0
102
RTVSPost2010PropOp35
 70
     1
102
RTVSPost2010Prop36
280
     0
102
RTVSPost2010PropOp36
 70
     1
102
RTVSPost2010Prop37
 90
       50
102
RTVSPost2010PropOp37
 70
     1
102
RTVSPost2010Prop38
140
0.0
102
RTVSPost2010PropOp38
 70
     1
102
RTVSPost2010Prop39
140
1.0
102
RTVSPost2010PropOp39
 70
     1
102
RTVSPost2010Prop40
 90
        0
102
RTVSPost2010PropOp40
 70
     1
102
RTVSPost2010Prop41ColorIndex
 90
       18
102
RTVSPost2010Prop41ColorRGB
 90
        0
102
RTVSPost2010PropOp41
 70
     1
102
RTVSPost2010Prop42
 90
       50
102
RTVSPost2010PropOp42
 70
     1
102
RTVSPost2010Prop43
 90
        3
102
RTVSPost2010PropOp43
 70
     1
102
RTVSPost2010Prop44ColorIndex
 90
        5
102
RTVSPost2010Prop44ColorRGB
 90
      255
102
RTVSPost2010PropOp44
 70
     1
102
RTVSPost2010Prop45
280
     0
102
RTVSPost2010PropOp45
 70
     1
102
RTVSPost2010Prop46
 90
       50
102
RTVSPost2010PropOp46
 70
     1
102
RTVSPost2010Prop47
 90
       50
102
RTVSPost2010PropOp47
 70
     1
102
RTVSPost2010Prop48
 90
       50
102
RTVSPost2010PropOp48
 70
     1
102
RTVSPost2010Prop49
280
     0
102
RTVSPost2010PropOp49
 70
     1
102
RTVSPost2010Prop50
 90
       50
102
RTVSPost2010PropOp50
 70
     1
102
RTVSPost2010Prop51ColorIndex
 90
      256
102
RTVSPost2010Prop51ColorRGB
 90
-16777216
102
RTVSPost2010PropOp51
 70
     0
102
RTVSPost2010Prop52
140
1.0
102
RTVSPost2010PropOp52
 70
     0
102
RTVSPost2010Prop53
 90
        2
102
RTVSPost2010PropOp53
 70
     1
102
RTVSPost2010Prop54
  1
strokes_ogs.tif
102
RTVSPost2010PropOp54
 70
     1
102
RTVSPost2010Prop55
280
     0
102
RTVSPost2010PropOp55
 70
     1
102
RTVSPost2010Prop56
140
1.0
102
RTVSPost2010PropOp56
 70
     1
102
RTVSPost2010Prop57
140
1.0
102
RTVSPost2010PropOp57
 70
     1
102
RTVSPropertyOp0
 70
     1
102
RTVSPropertyOp1
 70
     1
102
RTVSPropertyOp2
 70
     1
102
RTVSPropertyOp3
 70
     1
102
RTVSPropertyOp4
 70
     1
102
RTVSPropertyOp5
 70
     1
102
RTVSPropertyOp6
 70
     1
102
RTVSPropertyOp7
 70
     1
102
RTVSPropertyOp8
 70
     1
102
RTVSPropertyOp9
 70
     1
102
RTVSPropertyOp10
 70
     1
102
RTVSPropertyOp11
 70
     1
102
RTVSPropertyOp12
 70
     1
102
RTVSPropertyOp13
 70
     1
102
RTVSPropertyOp14
 70
     1
102
RTVSPropertyOp15
 70
     1
102
RTVSPropertyOp16
 70
     1
102
RTVSPropertyOp17
 70
     1
102
RTVSPropertyOp18
 70
     1
102
RTVSPropertyOp19
 70
     1
102
RTVSPropertyOp20
 70
     1
102
RTVSPropertyOp21
 70
     1
102
RTVSPropertyOp22
 70
     1
102
RTVSPropertyOp23
 70
     1
102
RTVSPropertyOp24
 70
     1
102
RTVSPropertyOp25
 70
     1
102
RTVSPropertyOp26
 70
     1
102
RTVSPropertyOp27
 70
     1
102
RTVSPropertyOp28
 70
     1
102
RTVSPropertyOp29
 70
     1
102
RTVSPropertyOp30
 70
     1
102
RTVSPropertyOp31
 70
     1
102
RTVSPropertyOp32
 70
     1
102
RTVSPropertyOp33
 70
     1
102
RTVSPropertyOp34
 70
     1
102
RTVSPropertyOp35
 70
     1
102
RTVSPropertyOp36
 70
     1
102
RTVSPropertyOp37
 70
     1
102
RTVSPropertyOp38
 70
     1
102
RTVSPropertyOp39
 70
     1
102
RTVSPropertyOp40
 70
     1
102
RTVSPropertyOp41
 70
     1
102
RTVSPropertyOp42
 70
     1
102
RTVSPropertyOp43
 70
     1
102
RTVSPropertyOp44
 70
     1
102
RTVSPropertyOp45
 70
     1
102
RTVSPropertyOp46
 70
     1
102
RTVSPropertyOp47
 70
     1
102
RTVSPropertyOp48
 70
     1
102
RTVSPropertyOp49
 70
     1
102
RTVSPropertyOp50
 70
     1
102
RTVSPropertyOp51
 70
     0
102
RTVSPropertyOp52
 70
     0
102
RTVSPropertyOp53
 70
     1
102
RTVSPropertyOp54
 70
     1
102
RTVSPropertyOp55
 70
     1
102
RTVSPropertyOp56
 70
     1
102
RTVSPropertyOp57
 70
     1
102
RTVSPropertyOp58
 70
     1
102
RTVSPropertyOp59
 70
     1
102
RTVSPropertyOp60
 70
     1
102
RTVSPropertyOp61
 70
     1
102
RTVSPropertyOp62
 70
     1
  0
ENDSEC
  0
EOF
