  0
SECTION
  2
HEADER
  9
$ACADVER
  1
AC1015
  9
$ACADMAINTVER
 70
    18
  9
$DWGCODEPAGE
  3
ANSI_1252
  9
$INSBASE
 10
0.0
 20
0.0
 30
0.0
  9
$EXTMIN
 10
-218.6132805266106
 20
-290.9998165417926
 30
-0.0015258207003583
  9
$EXTMAX
 10
273.6703499286323
 20
327.1006171816268
 30
0.0000000349246037
  9
$LIMMIN
 10
0.0
 20
0.0
  9
$LIMMAX
 10
420.0
 20
297.0
  9
$ORTHOMODE
 70
     0
  9
$REGENMODE
 70
     1
  9
$FILLMODE
 70
     1
  9
$QTEXTMODE
 70
     0
  9
$MIRRTEXT
 70
     0
  9
$LTSCALE
 40
1.0
  9
$ATTMODE
 70
     1
  9
$TEXTSIZE
 40
2.5
  9
$TRACEWID
 40
1.0
  9
$TEXTSTYLE
  7
Standard
  9
$CLAYER
  8
0
  9
$CELTYPE
  6
ByLayer
  9
$CECOLOR
 62
   256
  9
$CELTSCALE
 40
1.0
  9
$DISPSILH
 70
     0
  9
$DIMSCALE
 40
1.0
  9
$DIMASZ
 40
2.5
  9
$DIMEXO
 40
0.625
  9
$DIMDLI
 40
3.75
  9
$DIMRND
 40
0.0
  9
$DIMDLE
 40
0.0
  9
$DIMEXE
 40
1.25
  9
$DIMTP
 40
0.0
  9
$DIMTM
 40
0.0
  9
$DIMTXT
 40
2.5
  9
$DIMCEN
 40
2.5
  9
$DIMTSZ
 40
0.0
  9
$DIMTOL
 70
     0
  9
$DIMLIM
 70
     0
  9
$DIMTIH
 70
     0
  9
$DIMTOH
 70
     0
  9
$DIMSE1
 70
     0
  9
$DIMSE2
 70
     0
  9
$DIMTAD
 70
     1
  9
$DIMZIN
 70
     8
  9
$DIMBLK
  1

  9
$DIMASO
 70
     1
  9
$DIMSHO
 70
     1
  9
$DIMPOST
  1

  9
$DIMAPOST
  1

  9
$DIMALT
 70
     0
  9
$DIMALTD
 70
     3
  9
$DIMALTF
 40
0.03937007874016
  9
$DIMLFAC
 40
1.0
  9
$DIMTOFL
 70
     1
  9
$DIMTVP
 40
0.0
  9
$DIMTIX
 70
     0
  9
$DIMSOXD
 70
     0
  9
$DIMSAH
 70
     0
  9
$DIMBLK1
  1

  9
$DIMBLK2
  1

  9
$DIMSTYLE
  2
ISO-25
  9
$DIMCLRD
 70
     0
  9
$DIMCLRE
 70
     0
  9
$DIMCLRT
 70
     0
  9
$DIMTFAC
 40
1.0
  9
$DIMGAP
 40
0.625
  9
$DIMJUST
 70
     0
  9
$DIMSD1
 70
     0
  9
$DIMSD2
 70
     0
  9
$DIMTOLJ
 70
     0
  9
$DIMTZIN
 70
     8
  9
$DIMALTZ
 70
     0
  9
$DIMALTTZ
 70
     0
  9
$DIMUPT
 70
     0
  9
$DIMDEC
 70
     2
  9
$DIMTDEC
 70
     2
  9
$DIMALTU
 70
     2
  9
$DIMALTTD
 70
     3
  9
$DIMTXSTY
  7
Standard
  9
$DIMAUNIT
 70
     0
  9
$DIMADEC
 70
     0
  9
$DIMALTRND
 40
0.0
  9
$DIMAZIN
 70
     0
  9
$DIMDSEP
 70
    44
  9
$DIMATFIT
 70
     3
  9
$DIMFRAC
 70
     0
  9
$DIMLDRBLK
  1

  9
$DIMLUNIT
 70
     2
  9
$DIMLWD
 70
    -2
  9
$DIMLWE
 70
    -2
  9
$DIMTMOVE
 70
     0
  9
$LUNITS
 70
     2
  9
$LUPREC
 70
     4
  9
$SKETCHINC
 40
1.0
  9
$FILLETRAD
 40
0.0
  9
$AUNITS
 70
     0
  9
$AUPREC
 70
     0
  9
$MENU
  1
.
  9
$ELEVATION
 40
0.0
  9
$PELEVATION
 40
0.0
  9
$THICKNESS
 40
0.0
  9
$LIMCHECK
 70
     0
  9
$CHAMFERA
 40
0.0
  9
$CHAMFERB
 40
0.0
  9
$CHAMFERC
 40
0.0
  9
$CHAMFERD
 40
0.0
  9
$SKPOLY
 70
     0
  9
$TDCREATE
 40
2460398.356956019
  9
$TDUCREATE
 40
2460398.065289352
  9
$TDUPDATE
 40
2460398.375567130
  9
$TDUUPDATE
 40
2460398.083900463
  9
$TDINDWG
 40
0.0078819444
  9
$TDUSRTIMER
 40
0.0078819444
  9
$USRTIMER
 70
     1
  9
$ANGBASE
 50
0.0
  9
$ANGDIR
 70
     0
  9
$PDMODE
 70
     0
  9
$PDSIZE
 40
0.0
  9
$PLINEWID
 40
0.0
  9
$SPLFRAME
 70
     0
  9
$SPLINETYPE
 70
     6
  9
$SPLINESEGS
 70
     8
  9
$HANDSEED
  5
ABDE
  9
$SURFTAB1
 70
     6
  9
$SURFTAB2
 70
     6
  9
$SURFTYPE
 70
     6
  9
$SURFU
 70
     6
  9
$SURFV
 70
     6
  9
$UCSBASE
  2

  9
$UCSNAME
  2

  9
$UCSORG
 10
0.0
 20
0.0
 30
0.0
  9
$UCSXDIR
 10
1.0
 20
0.0
 30
0.0
  9
$UCSYDIR
 10
0.0
 20
1.0
 30
0.0
  9
$UCSORTHOREF
  2

  9
$UCSORTHOVIEW
 70
     0
  9
$UCSORGTOP
 10
0.0
 20
0.0
 30
0.0
  9
$UCSORGBOTTOM
 10
0.0
 20
0.0
 30
0.0
  9
$UCSORGLEFT
 10
0.0
 20
0.0
 30
0.0
  9
$UCSORGRIGHT
 10
0.0
 20
0.0
 30
0.0
  9
$UCSORGFRONT
 10
0.0
 20
0.0
 30
0.0
  9
$UCSORGBACK
 10
0.0
 20
0.0
 30
0.0
  9
$PUCSBASE
  2

  9
$PUCSNAME
  2

  9
$PUCSORG
 10
0.0
 20
0.0
 30
0.0
  9
$PUCSXDIR
 10
1.0
 20
0.0
 30
0.0
  9
$PUCSYDIR
 10
0.0
 20
1.0
 30
0.0
  9
$PUCSORTHOREF
  2

  9
$PUCSORTHOVIEW
 70
     0
  9
$PUCSORGTOP
 10
0.0
 20
0.0
 30
0.0
  9
$PUCSORGBOTTOM
 10
0.0
 20
0.0
 30
0.0
  9
$PUCSORGLEFT
 10
0.0
 20
0.0
 30
0.0
  9
$PUCSORGRIGHT
 10
0.0
 20
0.0
 30
0.0
  9
$PUCSORGFRONT
 10
0.0
 20
0.0
 30
0.0
  9
$PUCSORGBACK
 10
0.0
 20
0.0
 30
0.0
  9
$USERI1
 70
     0
  9
$USERI2
 70
     0
  9
$USERI3
 70
     0
  9
$USERI4
 70
     0
  9
$USERI5
 70
     0
  9
$USERR1
 40
0.0
  9
$USERR2
 40
0.0
  9
$USERR3
 40
0.0
  9
$USERR4
 40
0.0
  9
$USERR5
 40
0.0
  9
$WORLDVIEW
 70
     1
  9
$SHADEDGE
 70
     3
  9
$SHADEDIF
 70
    70
  9
$TILEMODE
 70
     1
  9
$MAXACTVP
 70
    48
  9
$PINSBASE
 10
0.0
 20
0.0
 30
0.0
  9
$PLIMCHECK
 70
     0
  9
$PEXTMIN
 10
0.0
 20
0.0
 30
0.0
  9
$PEXTMAX
 10
0.0
 20
0.0
 30
0.0
  9
$PLIMMIN
 10
0.0
 20
0.0
  9
$PLIMMAX
 10
12.0
 20
9.0
  9
$UNITMODE
 70
     0
  9
$VISRETAIN
 70
     1
  9
$PLINEGEN
 70
     0
  9
$PSLTSCALE
 70
     1
  9
$TREEDEPTH
 70
  3020
  9
$CMLSTYLE
  2
Standard
  9
$CMLJUST
 70
     0
  9
$CMLSCALE
 40
20.0
  9
$PROXYGRAPHICS
 70
     1
  9
$MEASUREMENT
 70
     1
  9
$CELWEIGHT
370
    -1
  9
$ENDCAPS
280
     0
  9
$JOINSTYLE
280
     0
  9
$LWDISPLAY
290
     0
  9
$INSUNITS
 70
     4
  9
$HYPERLINKBASE
  1

  9
$STYLESHEET
  1

  9
$XEDIT
290
     1
  9
$CEPSNTYPE
380
     0
  9
$PSTYLEMODE
290
     1
  9
$FINGERPRINTGUID
  2
{6C1266EE-7BC1-BF4A-B059-A6E7702B10CE}
  9
$VERSIONGUID
  2
{32F09A0F-2DEB-C944-BD2D-5FFBEF105F43}
  9
$EXTNAMES
290
     1
  9
$PSVPSCALE
 40
0.0
  9
$OLESTARTUP
290
     0
  0
ENDSEC
  0
SECTION
  2
CLASSES
  0
CLASS
  1
ACDBDICTIONARYWDFLT
  2
AcDbDictionaryWithDefault
  3
ObjectDBX Classes
 90
        0
280
     0
281
     0
  0
CLASS
  1
ACDBPLACEHOLDER
  2
AcDbPlaceHolder
  3
ObjectDBX Classes
 90
        0
280
     0
281
     0
  0
CLASS
  1
LAYOUT
  2
AcDbLayout
  3
ObjectDBX Classes
 90
        0
280
     0
281
     0
  0
CLASS
  1
DICTIONARYVAR
  2
AcDbDictionaryVar
  3
ObjectDBX Classes
 90
        0
280
     0
281
     0
  0
CLASS
  1
TABLESTYLE
  2
AcDbTableStyle
  3
ObjectDBX Classes
 90
     4095
280
     0
281
     0
  0
CLASS
  1
MATERIAL
  2
AcDbMaterial
  3
ObjectDBX Classes
 90
     1153
280
     0
281
     0
  0
CLASS
  1
VISUALSTYLE
  2
AcDbVisualStyle
  3
ObjectDBX Classes
 90
     4095
280
     0
281
     0
  0
CLASS
  1
SCALE
  2
AcDbScale
  3
ObjectDBX Classes
 90
     1153
280
     0
281
     0
  0
CLASS
  1
MLEADERSTYLE
  2
AcDbMLeaderStyle
  3
ACDB_MLEADERSTYLE_CLASS
 90
     4095
280
     0
281
     0
  0
CLASS
  1
CELLSTYLEMAP
  2
AcDbCellStyleMap
  3
ObjectDBX Classes
 90
     1152
280
     0
281
     0
  0
CLASS
  1
EXACXREFPANELOBJECT
  2
ExAcXREFPanelObject
  3
EXAC_ESW
 90
    33793
280
     0
281
     0
  0
CLASS
  1
NPOCOLLECTION
  2
AcDbImpNonPersistentObjectsCollection
  3
ObjectDBX Classes
 90
    33921
280
     0
281
     0
  0
CLASS
  1
LAYER_INDEX
  2
AcDbLayerIndex
  3
ObjectDBX Classes
 90
    32768
280
     0
281
     0
  0
CLASS
  1
SPATIAL_INDEX
  2
AcDbSpatialIndex
  3
ObjectDBX Classes
 90
    32768
280
     0
281
     0
  0
CLASS
  1
IDBUFFER
  2
AcDbIdBuffer
  3
ObjectDBX Classes
 90
    32768
280
     0
281
     0
  0
CLASS
  1
ACDBSECTIONVIEWSTYLE
  2
AcDbSectionViewStyle
  3
ObjectDBX Classes
 90
     1025
280
     0
281
     0
  0
CLASS
  1
ACDBDETAILVIEWSTYLE
  2
AcDbDetailViewStyle
  3
ObjectDBX Classes
 90
     1025
280
     0
281
     0
  0
CLASS
  1
XRECORD
  2
AcDbXrecord
  3
ObjectDBX Classes
 90
        0
280
     0
281
     0
  0
ENDSEC
  0
SECTION
  2
TABLES
  0
TABLE
  2
VPORT
  5
8
102
{ACAD_XDICTIONARY
360
AAEC
102
}
330
0
100
AcDbSymbolTable
 70
     1
  0
VPORT
  5
EA
330
8
100
AcDbSymbolTableRecord
100
AcDbViewportTableRecord
  2
*Active
 70
     0
 10
0.0
 20
0.0
 11
1.0
 21
1.0
 12
27.52853470101086
 22
18.05040031991712
 13
0.0
 23
0.0
 14
10.0
 24
10.0
 15
10.0
 25
10.0
 16
0.0
 26
0.0
 36
1.0
 17
0.0
 27
0.0
 37
0.0
 40
657.2937969539507
 41
0.9846153846153846
 42
50.0
 43
0.0
 44
0.0
 50
0.0
 51
0.0
 71
     0
 72
  1000
 73
     1
 74
     3
 75
     0
 76
     1
 77
     0
 78
     0
281
     0
 65
     1
110
0.0
120
0.0
130
0.0
111
1.0
121
0.0
131
0.0
112
0.0
122
1.0
132
0.0
 79
     0
146
0.0
1001
ACAD_NAV_VCDISPLAY
1070
     3
  0
ENDTAB
  0
TABLE
  2
LTYPE
  5
5
330
0
100
AcDbSymbolTable
 70
     1
  0
LTYPE
  5
14
330
5
100
AcDbSymbolTableRecord
100
AcDbLinetypeTableRecord
  2
ByBlock
 70
     0
  3

 72
    65
 73
     0
 40
0.0
  0
LTYPE
  5
15
330
5
100
AcDbSymbolTableRecord
100
AcDbLinetypeTableRecord
  2
ByLayer
 70
     0
  3

 72
    65
 73
     0
 40
0.0
  0
LTYPE
  5
16
330
5
100
AcDbSymbolTableRecord
100
AcDbLinetypeTableRecord
  2
Continuous
 70
     0
  3
Solid line
 72
    65
 73
     0
 40
0.0
  0
ENDTAB
  0
TABLE
  2
LAYER
  5
2
102
{ACAD_XDICTIONARY
360
1FF
102
}
330
0
100
AcDbSymbolTable
 70
     1
  0
LAYER
  5
10
102
{ACAD_XDICTIONARY
360
13C
102
}
330
2
100
AcDbSymbolTableRecord
100
AcDbLayerTableRecord
  2
0
 70
     0
 62
     7
  6
Continuous
370
    -3
390
F
  0
ENDTAB
  0
TABLE
  2
STYLE
  5
3
330
0
100
AcDbSymbolTable
 70
     1
  0
STYLE
  5
11
330
3
100
AcDbSymbolTableRecord
100
AcDbTextStyleTableRecord
  2
Standard
 70
     0
 40
0.0
 41
1.0
 50
0.0
 71
     0
 42
2.5
  3
arial.ttf
  4

1001
ACAD
1000
Arial
1071
       34
  0
ENDTAB
  0
TABLE
  2
VIEW
  5
6
330
0
100
AcDbSymbolTable
 70
     0
  0
ENDTAB
  0
TABLE
  2
UCS
  5
7
330
0
100
AcDbSymbolTable
 70
     0
  0
ENDTAB
  0
TABLE
  2
APPID
  5
9
330
0
100
AcDbSymbolTable
 70
     8
  0
APPID
  5
12
330
9
100
AcDbSymbolTableRecord
100
AcDbRegAppTableRecord
  2
ACAD
 70
     0
  0
APPID
  5
9E
330
9
100
AcDbSymbolTableRecord
100
AcDbRegAppTableRecord
  2
ACAD_PSEXT
 70
     0
  0
APPID
  5
133
330
9
100
AcDbSymbolTableRecord
100
AcDbRegAppTableRecord
  2
AcadAnnoPO
 70
     0
  0
APPID
  5
134
330
9
100
AcDbSymbolTableRecord
100
AcDbRegAppTableRecord
  2
AcadAnnotative
 70
     0
  0
APPID
  5
135
330
9
100
AcDbSymbolTableRecord
100
AcDbRegAppTableRecord
  2
ACAD_DSTYLE_DIMJAG
 70
     0
  0
APPID
  5
136
330
9
100
AcDbSymbolTableRecord
100
AcDbRegAppTableRecord
  2
ACAD_DSTYLE_DIMTALN
 70
     0
  0
APPID
  5
165
330
9
100
AcDbSymbolTableRecord
100
AcDbRegAppTableRecord
  2
ACAD_MLEADERVER
 70
     0
  0
APPID
  5
217
330
9
100
AcDbSymbolTableRecord
100
AcDbRegAppTableRecord
  2
ACAD_NAV_VCDISPLAY
 70
     0
  0
ENDTAB
  0
TABLE
  2
DIMSTYLE
  5
A
330
0
100
AcDbSymbolTable
 70
     1
100
AcDbDimStyleTable
 71
     0
  0
DIMSTYLE
105
27
330
A
100
AcDbSymbolTableRecord
100
AcDbDimStyleTableRecord
  2
ISO-25
 70
     0
 41
2.5
 42
0.625
 43
3.75
 44
1.25
 73
     0
 74
     0
 77
     1
 78
     8
140
2.5
141
2.5
143
0.03937007874016
147
0.625
171
     3
172
     1
271
     2
272
     2
274
     3
278
    44
283
     0
284
     8
340
11
  0
ENDTAB
  0
TABLE
  2
BLOCK_RECORD
  5
1
330
0
100
AcDbSymbolTable
 70
     7
  0
BLOCK_RECORD
  5
1F
102
{ACAD_XDICTIONARY
360
1CE
102
}
330
1
100
AcDbSymbolTableRecord
100
AcDbBlockTableRecord
  2
*Model_Space
340
22
  0
BLOCK_RECORD
  5
D2
102
{ACAD_XDICTIONARY
360
AA9F
102
}
330
1
100
AcDbSymbolTableRecord
100
AcDbBlockTableRecord
  2
*Paper_Space
340
D3
  0
BLOCK_RECORD
  5
D6
102
{ACAD_XDICTIONARY
360
AAA1
102
}
330
1
100
AcDbSymbolTableRecord
100
AcDbBlockTableRecord
  2
*Paper_Space0
340
D7
  0
BLOCK_RECORD
  5
A904
330
1
100
AcDbSymbolTableRecord
100
AcDbBlockTableRecord
  2
SAE440_70_2-Front
340
0
102
{BLKREFS
331
AA95
102
}
  0
BLOCK_RECORD
  5
A95C
330
1
100
AcDbSymbolTableRecord
100
AcDbBlockTableRecord
  2
SAE440_70_2-Left
340
0
102
{BLKREFS
331
AA96
102
}
  0
BLOCK_RECORD
  5
A97C
330
1
100
AcDbSymbolTableRecord
100
AcDbBlockTableRecord
  2
SAE440_70_2-Right
340
0
102
{BLKREFS
331
AA97
102
}
  0
BLOCK_RECORD
  5
A99B
330
1
100
AcDbSymbolTableRecord
100
AcDbBlockTableRecord
  2
SAE440_70_2-Top
340
0
102
{BLKREFS
331
AA98
102
}
  0
BLOCK_RECORD
  5
A9CD
330
1
100
AcDbSymbolTableRecord
100
AcDbBlockTableRecord
  2
SAE440_70_2-Bottom
340
0
102
{BLKREFS
331
AA99
102
}
  0
BLOCK_RECORD
  5
A9F8
330
1
100
AcDbSymbolTableRecord
100
AcDbBlockTableRecord
  2
SAE440_70_2-ISO
340
0
102
{BLKREFS
331
AA9A
102
}
  0
ENDTAB
  0
ENDSEC
  0
SECTION
  2
BLOCKS
  0
BLOCK
  5
20
330
1F
100
AcDbEntity
  8
0
100
AcDbBlockBegin
  2
*Model_Space
 70
     0
 10
0.0
 20
0.0
 30
0.0
  3
*Model_Space
  1

  0
ENDBLK
  5
21
330
1F
100
AcDbEntity
  8
0
100
AcDbBlockEnd
  0
BLOCK
  5
D4
330
D2
100
AcDbEntity
 67
     1
  8
0
100
AcDbBlockBegin
  2
*Paper_Space
 70
     0
 10
0.0
 20
0.0
 30
0.0
  3
*Paper_Space
  1

  0
ENDBLK
  5
D5
330
D2
100
AcDbEntity
 67
     1
  8
0
100
AcDbBlockEnd
  0
BLOCK
  5
D8
330
D6
100
AcDbEntity
 67
     1
  8
0
100
AcDbBlockBegin
  2
*Paper_Space0
 70
     0
 10
0.0
 20
0.0
 30
0.0
  3
*Paper_Space0
  1

  0
ENDBLK
  5
D9
330
D6
100
AcDbEntity
 67
     1
  8
0
100
AcDbBlockEnd
  0
BLOCK
  5
A905
330
A904
100
AcDbEntity
  8
0
100
AcDbBlockBegin
  2
SAE440_70_2-Front
 70
     0
 10
0.0
 20
0.0
 30
0.0
  3
SAE440_70_2-Front
  1

  0
SPLINE
  5
A907
330
A904
100
AcDbEntity
  8
0
100
AcDbSpline
210
0.0
220
0.0
230
1.0
 70
     8
 71
     3
 72
    14
 73
    10
 74
     0
 42
0.000000001
 43
0.0000000001
 40
0.0
 40
0.0
 40
0.0
 40
0.0
 40
0.343516559141351
 40
0.343516559141351
 40
0.343516559141351
 40
0.7569936138443915
 40
0.7569936138443915
 40
0.7569936138443915
 40
0.9986524957963414
 40
0.9986524957963414
 40
0.9986524957963414
 40
0.9986524957963414
 10
39.60606060606064
 20
27.56250000000006
 30
0.0
 10
39.28490249290682
 20
27.30249193734648
 30
0.0
 10
38.87245901693523
 20
27.07529037325663
 30
0.0
 10
38.47646762709899
 20
26.84407810167254
 30
0.0
 10
37.99982873095228
 20
26.56577719732965
 30
0.0
 10
37.53730090289394
 20
26.27139450218085
 30
0.0
 10
37.2624310701608
 20
25.85792877881253
 30
0.0
 10
37.10178192239051
 20
25.61627651951992
 30
0.0
 10
37.00111653428598
 20
25.36107592068069
 30
0.0
 10
37.00000922931126
 20
25.00594994762082
 30
0.0
  0
LINE
  5
A908
330
A904
100
AcDbEntity
  8
0
100
AcDbLine
 10
37.0
 20
27.56250000000003
 30
0.0
 11
39.0
 21
27.56250000000003
 31
0.0
  0
SPLINE
  5
A909
330
A904
100
AcDbEntity
  8
0
100
AcDbSpline
210
0.0
220
0.0
230
1.0
 70
     8
 71
     3
 72
    20
 73
    16
 74
     0
 42
0.000000001
 43
0.0000000001
 40
0.0120727937213563
 40
0.0120727937213563
 40
0.0120727937213563
 40
0.0120727937213563
 40
0.0124288508766543
 40
0.0124288508766543
 40
0.0135302217253636
 40
0.0135302217253636
 40
0.0142261533854892
 40
0.0142261533854892
 40
0.0153094160335258
 40
0.0153094160335258
 40
0.0162525248844334
 40
0.0162525248844334
 40
0.0174015733495413
 40
0.0174015733495413
 40
0.020244533671106
 40
0.020244533671106
 40
0.020244533671106
 40
0.020244533671106
 10
37.00029164702531
 20
25.0586490233366
 30
0.0
 10
37.00029164702501
 20
25.05864902331114
 30
0.0
 10
37.00029123369324
 20
25.05861294220212
 30
0.0
 10
37.00028772502051
 20
25.05830125778709
 30
0.0
 10
37.0002806534462
 20
25.05767569685691
 30
0.0
 10
37.00026146072326
 20
25.05580875755242
 30
0.0
 10
37.00025209701929
 20
25.05487008330078
 30
0.0
 10
37.00022447041406
 20
25.05189819479044
 30
0.0
 10
37.00020362500279
 20
25.04947455980403
 30
0.0
 10
37.00016554779851
 20
25.04422649457308
 30
0.0
 10
37.00014800683273
 20
25.0414612092705
 30
0.0
 10
37.00011446921865
 20
25.03509374011581
 30
0.0
 10
37.00009956667935
 20
25.03145135009417
 30
0.0
 10
37.00006174351595
 20
25.01867994134074
 30
0.0
 10
37.00005914615845
 20
25.00931579016409
 30
0.0
 10
37.00007431501596
 20
25.00000007787122
 30
0.0
  0
SPLINE
  5
A90A
330
A904
100
AcDbEntity
  8
0
100
AcDbSpline
210
0.0
220
0.0
230
1.0
 70
     8
 71
     3
 72
    20
 73
    16
 74
     0
 42
0.000000001
 43
0.0000000001
 40
0.005332931762669
 40
0.005332931762669
 40
0.005332931762669
 40
0.005332931762669
 40
0.0056476384818711
 40
0.0056476384818711
 40
0.0060463986122946
 40
0.0060463986122946
 40
0.0065307473428572
 40
0.0065307473428572
 40
0.0071940330813705
 40
0.0071940330813705
 40
0.0085673555971327
 40
0.0085673555971327
 40
0.0106389960820378
 40
0.0106389960820378
 40
0.0111024460233893
 40
0.0111024460233893
 40
0.0111024460233893
 40
0.0111024460233893
 10
37.00010883933694
 20
25.04546313429143
 30
0.0
 10
37.00010883931837
 20
25.04546313130062
 30
0.0
 10
37.00010796018938
 20
25.04532230033242
 30
0.0
 10
37.00010437335192
 20
25.04473468121636
 30
0.0
 10
37.00010121339617
 20
25.04421103327708
 30
0.0
 10
37.00009286789439
 20
25.0427671729213
 30
0.0
 10
37.00008734603758
 20
25.04177610104293
 30
0.0
 10
37.00007384262123
 20
25.03918105367253
 30
0.0
 10
37.00006571149232
 20
25.03748299311868
 30
0.0
 10
37.00004298010623
 20
25.0321637797674
 30
0.0
 10
37.00002983085882
 20
25.02823236321717
 30
0.0
 10
37.0000064431969
 20
25.01793194596518
 30
0.0
 10
37.00000107524833
 20
25.01126252369932
 30
0.0
 10
37.000006229066
 20
25.00302763716068
 30
0.0
 10
37.00000763232397
 20
25.00151582160673
 30
0.0
 10
37.00000948371081
 20
25.00000001226685
 30
0.0
  0
SPLINE
  5
A90B
330
A904
100
AcDbEntity
  8
0
100
AcDbSpline
210
0.0
220
0.0
230
1.0
 70
     8
 71
     3
 72
     8
 73
     4
 74
     0
 42
0.000000001
 43
0.0000000001
 40
0.0
 40
0.0
 40
0.0
 40
0.0
 40
0.0015511722950729
 40
0.0015511722950729
 40
0.0015511722950729
 40
0.0015511722950729
 10
34.9995598465437
 20
25.00000111615405
 30
0.0
 10
34.99956565327767
 20
25.00446881097988
 30
0.0
 10
34.99957076641536
 20
25.00884708258405
 30
0.0
 10
34.9995751290904
 20
25.01307591323194
 30
0.0
  0
SPLINE
  5
A90C
330
A904
100
AcDbEntity
  8
0
100
AcDbSpline
210
0.0
220
0.0
230
1.0
 70
     8
 71
     3
 72
    16
 73
    12
 74
     0
 42
0.000000001
 43
0.0000000001
 40
0.0
 40
0.0
 40
0.0
 40
0.0
 40
0.0021186903204009
 40
0.0021186903204009
 40
0.0037963622462959
 40
0.0037963622462959
 40
0.0060490246108153
 40
0.0060490246108153
 40
0.0082160876433091
 40
0.0082160876433091
 40
0.010071529265012
 40
0.010071529265012
 40
0.010071529265012
 40
0.010071529265012
 10
34.99977770474539
 20
24.99999658852568
 30
0.0
 10
34.99967060329711
 20
25.00696252733354
 30
0.0
 10
34.99956026510905
 20
25.01406431369883
 30
0.0
 10
34.99936153564128
 20
25.02670812237597
 30
0.0
 10
34.99927271954977
 20
25.03230570424915
 30
0.0
 10
34.99907108297737
 20
25.04490249809951
 30
0.0
 10
34.99895813000622
 20
25.05187274945589
 30
0.0
 10
34.99876083651403
 20
25.06395004097587
 30
0.0
 10
34.99867338947014
 20
25.069253606617
 30
0.0
 10
34.99853375460038
 20
25.077668225571
 30
0.0
 10
34.9984771864179
 20
25.08105233997459
 30
0.0
 10
34.99842789893677
 20
25.08398349774772
 30
0.0
  0
SPLINE
  5
A90D
330
A904
100
AcDbEntity
  8
0
100
AcDbSpline
210
0.0
220
0.0
230
1.0
 70
     8
 71
     3
 72
    34
 73
    30
 74
     0
 42
0.000000001
 43
0.0000000001
 40
0.0018967486202219
 40
0.0018967486202219
 40
0.0018967486202219
 40
0.0018967486202219
 40
0.0067931727395145
 40
0.0067931727395145
 40
0.0148581913950652
 40
0.0148581913950652
 40
0.0216571849385952
 40
0.0216571849385952
 40
0.0241181698142097
 40
0.0241181698142097
 40
0.0262721312896767
 40
0.0262721312896767
 40
0.0291183871784676
 40
0.0291183871784676
 40
0.0315307517561224
 40
0.0315307517561224
 40
0.0346506122189093
 40
0.0346506122189093
 40
0.0395925135346855
 40
0.0395925135346855
 40
0.0489047057932479
 40
0.0489047057932479
 40
0.0719038676797512
 40
0.0719038676797512
 40
0.1414750773817408
 40
0.1414750773817408
 40
0.2235355597264617
 40
0.2235355597264617
 40
0.2666866390255916
 40
0.2666866390255916
 40
0.2666866390255916
 40
0.2666866390255916
 10
34.99993348246992
 20
25.00385613497098
 30
0.0
 10
34.99986349834591
 20
25.0078730765045
 30
0.0
 10
34.99976194066583
 20
25.01360745673209
 30
0.0
 10
34.99943617417206
 20
25.03150105620103
 30
0.0
 10
34.99917378848623
 20
25.04547918872088
 30
0.0
 10
34.99862147144349
 20
25.07412870345028
 30
0.0
 10
34.99834194998828
 20
25.08837000331207
 30
0.0
 10
34.99789286582679
 20
25.11130009453378
 30
0.0
 10
34.99776556552458
 20
25.1178080571163
 30
0.0
 10
34.99751102450667
 20
25.13092153264576
 30
0.0
 10
34.99738418130108
 20
25.13749612134868
 30
0.0
 10
34.99708160589586
 20
25.15339179510654
 30
0.0
 10
34.99689912507702
 20
25.1631476453227
 30
0.0
 10
34.99658164241677
 20
25.18063166718729
 30
0.0
 10
34.99644054032347
 20
25.18860765049581
 30
0.0
 10
34.99613963783053
 20
25.20613331555885
 30
0.0
 10
34.99598354298107
 20
25.21562309994654
 30
0.0
 10
34.9956157550762
 20
25.23897260124904
 30
0.0
 10
34.99542133014188
 20
25.25235297847522
 30
0.0
 10
34.99492632689895
 20
25.28908043131553
 30
0.0
 10
34.99467887819593
 20
25.31107671450533
 30
0.0
 10
34.9939737694873
 20
25.38483561378366
 30
0.0
 10
34.9937307569858
 20
25.43325150283846
 30
0.0
 10
34.99330497045062
 20
25.63524562708613
 30
0.0
 10
34.99455226239568
 20
25.81157795034748
 30
0.0
 10
34.99793368894694
 20
26.23303282317217
 30
0.0
 10
34.99943792248553
 20
26.48842738390835
 30
0.0
 10
34.99998946837757
 20
26.89397484165454
 30
0.0
 10
34.99998278962575
 20
27.0372808240558
 30
0.0
 10
34.99999053642925
 20
27.18062727212894
 30
0.0
  0
SPLINE
  5
A90E
330
A904
100
AcDbEntity
  8
0
100
AcDbSpline
210
0.0
220
0.0
230
1.0
 70
     8
 71
     3
 72
    12
 73
     8
 74
     0
 42
0.000000001
 43
0.0000000001
 40
0.0
 40
0.0
 40
0.0
 40
0.0
 40
0.0029758243219248
 40
0.0029758243219248
 40
0.0058215256779652
 40
0.0058215256779652
 40
0.0072783704158425
 40
0.0072783704158425
 40
0.0072783704158425
 40
0.0072783704158425
 10
34.99994049721217
 20
24.99999988528014
 30
0.0
 10
34.99992880390219
 20
25.00662154036803
 30
0.0
 10
34.99991806857503
 20
25.01206107434531
 30
0.0
 10
34.99990164420355
 20
25.01957099870978
 30
0.0
 10
34.99989565462383
 20
25.02187994613543
 30
0.0
 10
34.99989113238842
 20
25.02353292890564
 30
0.0
 10
34.99989035560471
 20
25.02378814465057
 30
0.0
 10
34.99989035560481
 20
25.02378814462071
 30
0.0
  0
SPLINE
  5
A90F
330
A904
100
AcDbEntity
  8
0
100
AcDbSpline
210
0.0
220
0.0
230
1.0
 70
     8
 71
     3
 72
     8
 73
     4
 74
     0
 42
0.000000001
 43
0.0000000001
 40
0.0
 40
0.0
 40
0.0
 40
0.0
 40
0.0007120106535286
 40
0.0007120106535286
 40
0.0007120106535286
 40
0.0007120106535286
 10
39.60611379964103
 20
27.56243160914949
 30
0.0
 10
39.60533817500464
 20
27.56182867003585
 30
0.0
 10
39.60453867261885
 20
27.56120755243538
 30
0.0
 10
39.60373319760562
 20
27.56058166049271
 30
0.0
  0
SPLINE
  5
A910
330
A904
100
AcDbEntity
  8
0
100
AcDbSpline
210
0.0
220
0.0
230
1.0
 70
     8
 71
     3
 72
     8
 73
     4
 74
     0
 42
0.000000001
 43
0.0000000001
 40
0.0001369350460446
 40
0.0001369350460446
 40
0.0001369350460446
 40
0.0001369350460446
 40
0.0006732102236762
 40
0.0006732102236762
 40
0.0006732102236762
 40
0.0006732102236762
 10
39.60523147098558
 20
27.56174578009839
 30
0.0
 10
39.60408411035489
 20
27.56082244637185
 30
0.0
 10
39.60290028248053
 20
27.55987068968515
 30
0.0
 10
39.60168732547487
 20
27.55889643365551
 30
0.0
  0
LINE
  5
A911
330
A904
100
AcDbEntity
  8
0
100
AcDbLine
 10
32.99999999999998
 20
-2.0
 30
0.0
 11
-32.99999999999999
 21
-2.000000000000003
 31
0.0
  0
LINE
  5
A912
330
A904
100
AcDbEntity
  8
0
100
AcDbLine
 10
-32.99999999999999
 20
0.0
 30
0.0
 11
32.99999999999997
 21
0.0
 31
0.0
  0
LINE
  5
A913
330
A904
100
AcDbEntity
  8
0
100
AcDbLine
 10
-39.0
 20
27.56250000000003
 30
0.0
 11
-37.0
 21
27.56250000000003
 31
0.0
  0
SPLINE
  5
A914
330
A904
100
AcDbEntity
  8
0
100
AcDbSpline
210
0.0
220
0.0
230
1.0
 70
     8
 71
     3
 72
    14
 73
    10
 74
     0
 42
0.000000001
 43
0.0000000001
 40
0.0
 40
0.0
 40
0.0
 40
0.0
 40
0.343516559141351
 40
0.343516559141351
 40
0.343516559141351
 40
0.7569936138443915
 40
0.7569936138443915
 40
0.7569936138443915
 40
0.998652495797584
 40
0.998652495797584
 40
0.998652495797584
 40
0.998652495797584
 10
-39.60606060606064
 20
27.56250000000006
 30
0.0
 10
-39.28490249290682
 20
27.30249193734648
 30
0.0
 10
-38.87245901693523
 20
27.07529037325663
 30
0.0
 10
-38.47646762709899
 20
26.84407810167254
 30
0.0
 10
-37.99982873095228
 20
26.56577719732965
 30
0.0
 10
-37.53730090289394
 20
26.27139450218085
 30
0.0
 10
-37.2624310701608
 20
25.85792877881253
 30
0.0
 10
-37.10178192238968
 20
25.61627651951867
 30
0.0
 10
-37.00111653428494
 20
25.36107592067808
 30
0.0
 10
-37.00000922931125
 20
25.00594994761534
 30
0.0
  0
SPLINE
  5
A915
330
A904
100
AcDbEntity
  8
0
100
AcDbSpline
210
0.0
220
0.0
230
1.0
 70
     8
 71
     3
 72
    32
 73
    28
 74
     0
 42
0.000000001
 43
0.0000000001
 40
0.0
 40
0.0
 40
0.0
 40
0.0
 40
0.0776272589931626
 40
0.0776272589931626
 40
0.1568375461081589
 40
0.1568375461081589
 40
0.1970113628302579
 40
0.1970113628302579
 40
0.2169380265959135
 40
0.2169380265959135
 40
0.2318872635137257
 40
0.2318872635137257
 40
0.235901769858165
 40
0.235901769858165
 40
0.2378323868964345
 40
0.2378323868964345
 40
0.239768397600496
 40
0.239768397600496
 40
0.241703964482915
 40
0.241703964482915
 40
0.2456025981078353
 40
0.2456025981078353
 40
0.2533492596430558
 40
0.2533492596430558
 40
0.264573335522446
 40
0.264573335522446
 40
0.2647525320981789
 40
0.2647525320981789
 40
0.2647525320981789
 40
0.2647525320981789
 10
-34.99999053642927
 20
27.18062727213276
 30
0.0
 10
-34.99997660020492
 20
26.92275210351442
 30
0.0
 10
-34.99994864798303
 20
26.66281401779302
 30
0.0
 10
-34.99779570960448
 20
26.1806585677962
 30
0.0
 10
-34.99540694625453
 20
25.95137850049472
 30
0.0
 10
-34.99366130156655
 20
25.64942476082754
 30
0.0
 10
-34.99342296777706
 20
25.55634261240297
 30
0.0
 10
-34.99377696219656
 20
25.42576143206131
 30
0.0
 10
-34.99400311762518
 20
25.38346328841726
 30
0.0
 10
-34.99473243602138
 20
25.30438429028456
 30
0.0
 10
-34.99514583921552
 20
25.26898212236381
 30
0.0
 10
-34.99600422976386
 20
25.21426546964834
 30
0.0
 10
-34.99620965883493
 20
25.20187756264492
 30
0.0
 10
-34.99654579033398
 20
25.18266794391482
 30
0.0
 10
-34.99666089590311
 20
25.17623863239723
 30
0.0
 10
-34.99689608162995
 20
25.16335981659068
 30
0.0
 10
-34.99701768778913
 20
25.15682797345114
 30
0.0
 10
-34.99725533637263
 20
25.14423757177612
 30
0.0
 10
-34.99737291491965
 20
25.13809508424517
 30
0.0
 10
-34.99770875714579
 20
25.1206847187102
 30
0.0
 10
-34.99791288235407
 20
25.11027403217938
 30
0.0
 10
-34.99846186508809
 20
25.08225944075348
 30
0.0
 10
-34.99876844263069
 20
25.06659052066625
 30
0.0
 10
-34.99943594676901
 20
25.03166944725365
 30
0.0
 10
-34.99976062169707
 20
25.01376621689573
 30
0.0
 10
-34.99992841807431
 20
25.00415064359917
 30
0.0
 10
-34.99993101374772
 20
25.00400177168375
 30
0.0
 10
-34.99993356836815
 20
25.0038551418441
 30
0.0
  0
SPLINE
  5
A916
330
A904
100
AcDbEntity
  8
0
100
AcDbSpline
210
0.0
220
0.0
230
1.0
 70
     8
 71
     3
 72
     8
 73
     4
 74
     0
 42
0.000000001
 43
0.0000000001
 40
0.0195591670818092
 40
0.0195591670818092
 40
0.0195591670818092
 40
0.0195591670818092
 40
0.0211163138430086
 40
0.0211163138430086
 40
0.0211163138430086
 40
0.0211163138430086
 10
-34.99957522640421
 20
25.01307778049758
 30
0.0
 10
-34.99957087693835
 20
25.0088617537811
 30
0.0
 10
-34.99956567564276
 20
25.0044860186695
 30
0.0
 10
-34.99955984654369
 20
25.00000111615405
 30
0.0
  0
SPLINE
  5
A917
330
A904
100
AcDbEntity
  8
0
100
AcDbSpline
210
0.0
220
0.0
230
1.0
 70
     8
 71
     3
 72
    16
 73
    12
 74
     0
 42
0.000000001
 43
0.0000000001
 40
0.0328453665148834
 40
0.0328453665148834
 40
0.0328453665148834
 40
0.0328453665148834
 40
0.0346121744802842
 40
0.0346121744802842
 40
0.0362943913571946
 40
0.0362943913571946
 40
0.0388726349487941
 40
0.0388726349487941
 40
0.0410449481896924
 40
0.0410449481896924
 40
0.042912858339873
 40
0.042912858339873
 40
0.042912858339873
 40
0.042912858339873
 10
-34.99842789914785
 20
25.08398349505607
 30
0.0
 10
-34.9984748452188
 20
25.08119158243141
 30
0.0
 10
-34.99852835648689
 20
25.07799109586437
 30
0.0
 10
-34.99864665533737
 20
25.07086662612435
 30
0.0
 10
-34.9987114226071
 20
25.06694586434215
 30
0.0
 10
-34.99889097015627
 20
25.05600293298726
 30
0.0
 10
-34.99901757414357
 20
25.04822182262788
 30
0.0
 10
-34.99925928464434
 20
25.0331593499924
 30
0.0
 10
-34.99937543019144
 20
25.02584026760804
 30
0.0
 10
-34.99958650290908
 20
25.01237473312523
 30
0.0
 10
-34.99968328043033
 20
25.00613799941494
 30
0.0
 10
-34.9997777047454
 20
24.99999658852567
 30
0.0
  0
SPLINE
  5
A918
330
A904
100
AcDbEntity
  8
0
100
AcDbSpline
210
0.0
220
0.0
230
1.0
 70
     8
 71
     3
 72
    12
 73
     8
 74
     0
 42
0.000000001
 43
0.0000000001
 40
0.0136369340221243
 40
0.0136369340221243
 40
0.0136369340221243
 40
0.0136369340221243
 40
0.0164694687968828
 40
0.0164694687968828
 40
0.0184310996982535
 40
0.0184310996982535
 40
0.0209172878950172
 40
0.0209172878950172
 40
0.0209172878950172
 40
0.0209172878950172
 10
-34.99989035560479
 20
25.02378814462175
 30
0.0
 10
-34.99989035560468
 20
25.0237881446579
 30
0.0
 10
-34.99989338796225
 20
25.02279922134298
 30
0.0
 10
-34.99990290153699
 20
25.01893262352063
 30
0.0
 10
-34.99990804541262
 20
25.01671389024779
 30
0.0
 10
-34.99992165032678
 20
25.0102427883661
 30
0.0
 10
-34.99993072789582
 20
25.00553202661097
 30
0.0
 10
-34.9999404972122
 20
24.99999988528015
 30
0.0
  0
SPLINE
  5
A919
330
A904
100
AcDbEntity
  8
0
100
AcDbSpline
210
0.0
220
0.0
230
1.0
 70
     8
 71
     3
 72
    16
 73
    12
 74
     0
 42
0.000000001
 43
0.0000000001
 40
0.0
 40
0.0
 40
0.0
 40
0.0
 40
0.0041147701160633
 40
0.0041147701160633
 40
0.0050669104851708
 40
0.0050669104851708
 40
0.0058958097560168
 40
0.0058958097560168
 40
0.0067234516580358
 40
0.0067234516580358
 40
0.0081601476152351
 40
0.0081601476152351
 40
0.0081601476152351
 40
0.0081601476152351
 10
-37.00007431501597
 20
25.00000007787121
 30
0.0
 10
-37.00005236030872
 20
25.01348321172353
 30
0.0
 10
-37.00007089001953
 20
25.02743611934467
 30
0.0
 10
-37.0001551862628
 20
25.04264323892158
 30
0.0
 10
-37.00017334253658
 20
25.04537391432659
 30
0.0
 10
-37.00020680359917
 20
25.04980909449062
 30
0.0
 10
-37.00022231882087
 20
25.05162998383358
 30
0.0
 10
-37.00024914482319
 20
25.05457669173854
 30
0.0
 10
-37.00026066602958
 20
25.05573299461525
 30
0.0
 10
-37.00028457044048
 20
25.05805391642031
 30
0.0
 10
-37.00029164702541
 20
25.05864902334509
 30
0.0
 10
-37.0002916470253
 20
25.05864902333597
 30
0.0
  0
SPLINE
  5
A91A
330
A904
100
AcDbEntity
  8
0
100
AcDbSpline
210
0.0
220
0.0
230
1.0
 70
     8
 71
     3
 72
    18
 73
    14
 74
     0
 42
0.000000001
 43
0.0000000001
 40
0.0
 40
0.0
 40
0.0
 40
0.0
 40
0.0020456843617274
 40
0.0020456843617274
 40
0.0037103800573524
 40
0.0037103800573524
 40
0.0047886576059595
 40
0.0047886576059595
 40
0.0054058581633176
 40
0.0054058581633176
 40
0.0056713595137103
 40
0.0056713595137103
 40
0.0057658588853641
 40
0.0057658588853641
 40
0.0057658588853641
 40
0.0057658588853641
 10
-37.0000094837108
 20
25.00000001226684
 30
0.0
 10
-37.00000131162404
 20
25.00669084807288
 30
0.0
 10
-37.00000211672887
 20
25.01335086189808
 30
0.0
 10
-37.00001995709039
 20
25.02478352043226
 30
0.0
 10
-37.00003405059784
 20
25.02972464720168
 30
0.0
 10
-37.00006334256551
 20
25.03706867876121
 30
0.0
 10
-37.00007727322415
 20
25.0399193465507
 30
0.0
 10
-37.00009604289504
 20
25.04334273332711
 30
0.0
 10
-37.00010217954297
 20
25.0443724964394
 30
0.0
 10
-37.0001071609118
 20
25.04519218280892
 30
0.0
 10
-37.00010818416254
 20
25.04535741761556
 30
0.0
 10
-37.00010876159629
 20
25.04545062478201
 30
0.0
 10
-37.00010883935366
 20
25.04546313698646
 30
0.0
 10
-37.00010883933698
 20
25.04546313429933
 30
0.0
  0
SPLINE
  5
A91B
330
A904
100
AcDbEntity
  8
0
100
AcDbSpline
210
0.0
220
0.0
230
1.0
 70
     8
 71
     3
 72
     8
 73
     4
 74
     0
 42
0.000000001
 43
0.0000000001
 40
0.0
 40
0.0
 40
0.0
 40
0.0
 40
0.0007553794017333
 40
0.0007553794017333
 40
0.0007553794017333
 40
0.0007553794017333
 10
-37.00001229130737
 20
24.99999999683979
 30
0.0
 10
-37.00000829362863
 20
25.0015221281379
 30
0.0
 10
-37.00000415903336
 20
25.00315707923691
 30
0.0
 10
-36.99999997669798
 20
25.00485867936407
 30
0.0
  0
SPLINE
  5
A91C
330
A904
100
AcDbEntity
  8
0
100
AcDbSpline
210
0.0
220
0.0
230
1.0
 70
     8
 71
     3
 72
     8
 73
     4
 74
     0
 42
0.000000001
 43
0.0000000001
 40
0.2821149201928717
 40
0.2821149201928717
 40
0.2821149201928717
 40
0.2821149201928717
 40
0.2826513748694101
 40
0.2826513748694101
 40
0.2826513748694101
 40
0.2826513748694101
 10
-39.60168881885984
 20
27.55889777523813
 30
0.0
 10
-39.60290205455969
 20
27.559872255117
 30
0.0
 10
-39.60408409199501
 20
27.56082243850186
 30
0.0
 10
-39.60523157670424
 20
27.56174587208009
 30
0.0
  0
SPLINE
  5
A91D
330
A904
100
AcDbEntity
  8
0
100
AcDbSpline
210
0.0
220
0.0
230
1.0
 70
     8
 71
     3
 72
     8
 73
     4
 74
     0
 42
0.000000001
 43
0.0000000001
 40
0.0169266925912462
 40
0.0169266925912462
 40
0.0169266925912462
 40
0.0169266925912462
 40
0.0176395326829754
 40
0.0176395326829754
 40
0.0176395326829754
 40
0.0176395326829754
 10
-39.60373955742292
 20
27.5605863345878
 30
0.0
 10
-39.60454415552297
 20
27.56121154512773
 30
0.0
 10
-39.60533727146098
 20
27.56182796765767
 30
0.0
 10
-39.60611379964102
 20
27.56243160914948
 30
0.0
  0
ARC
  5
A91E
330
A904
100
AcDbEntity
  8
0
100
AcDbCircle
 10
-32.99999999999999
 20
2.0
 30
0.0
 40
4.000000000000003
100
AcDbArc
 50
180.0
 51
270.0
  0
ARC
  5
A91F
330
A904
100
AcDbEntity
  8
0
100
AcDbCircle
 10
-32.99999999999999
 20
2.0
 30
0.0
 40
2.000000000000001
100
AcDbArc
 50
180.0
 51
270.0
  0
ARC
  5
A920
330
A904
100
AcDbEntity
  8
0
100
AcDbCircle
 10
32.99999999999999
 20
2.0
 30
0.0
 40
4.000000000000003
100
AcDbArc
 50
270.0
 51
0.0
  0
LINE
  5
A921
330
A904
100
AcDbEntity
  8
0
100
AcDbLine
 10
39.60606060606064
 20
27.56250000000003
 30
0.0
 11
76.50000000000004
 21
57.99999999999997
 31
0.0
  0
LINE
  5
A922
330
A904
100
AcDbEntity
  8
0
100
AcDbLine
 10
34.99999999999997
 20
25.0
 30
0.0
 11
34.99999999999998
 21
57.99999999999997
 31
0.0
  0
LINE
  5
A923
330
A904
100
AcDbEntity
  8
0
100
AcDbLine
 10
36.99999999999998
 20
25.0
 30
0.0
 11
34.99999999999997
 21
25.0
 31
0.0
  0
LINE
  5
A924
330
A904
100
AcDbEntity
  8
0
100
AcDbLine
 10
36.99999999999999
 20
57.99999999999997
 30
0.0
 11
36.99999999999998
 21
25.0
 31
0.0
  0
LINE
  5
A925
330
A904
100
AcDbEntity
  8
0
100
AcDbLine
 10
36.99999999999999
 20
57.99999999999997
 30
0.0
 11
34.99999999999998
 21
57.99999999999997
 31
0.0
  0
LINE
  5
A926
330
A904
100
AcDbEntity
  8
0
100
AcDbLine
 10
34.99999999999998
 20
57.99999999999997
 30
0.0
 11
34.99999999999998
 21
185.0
 31
0.0
  0
LINE
  5
A927
330
A904
100
AcDbEntity
  8
0
100
AcDbLine
 10
36.99999999999999
 20
185.0
 30
0.0
 11
36.99999999999999
 21
57.99999999999997
 31
0.0
  0
LINE
  5
A928
330
A904
100
AcDbEntity
  8
0
100
AcDbLine
 10
34.99999999999998
 20
185.0
 30
0.0
 11
36.99999999999999
 21
185.0
 31
0.0
  0
LINE
  5
A929
330
A904
100
AcDbEntity
  8
0
100
AcDbLine
 10
36.99999999999998
 20
25.0
 30
0.0
 11
36.99999999999999
 21
2.000000000000001
 31
0.0
  0
LINE
  5
A92A
330
A904
100
AcDbEntity
  8
0
100
AcDbLine
 10
34.99999999999999
 20
2.0
 30
0.0
 11
34.99999999999997
 21
25.0
 31
0.0
  0
ARC
  5
A92B
330
A904
100
AcDbEntity
  8
0
100
AcDbCircle
 10
32.99999999999999
 20
2.0
 30
0.0
 40
2.000000000000001
100
AcDbArc
 50
270.0
 51
0.0
  0
LINE
  5
A92C
330
A904
100
AcDbEntity
  8
0
100
AcDbLine
 10
39.0
 20
185.0
 30
0.0
 11
37.0
 21
185.0
 31
0.0
  0
LINE
  5
A92D
330
A904
100
AcDbEntity
  8
0
100
AcDbLine
 10
76.50000000000004
 20
57.99999999999997
 30
0.0
 11
76.5
 21
185.0
 31
0.0
  0
LINE
  5
A92E
330
A904
100
AcDbEntity
  8
0
100
AcDbLine
 10
76.5
 20
185.0
 30
0.0
 11
39.0
 21
185.0
 31
0.0
  0
CIRCLE
  5
A92F
330
A904
100
AcDbEntity
  8
0
100
AcDbCircle
 10
57.0
 20
165.0
 30
0.0
 40
6.5
  0
CIRCLE
  5
A930
330
A904
100
AcDbEntity
  8
0
100
AcDbCircle
 10
68.0
 20
180.0
 30
0.0
 40
2.5
  0
LINE
  5
A931
330
A904
100
AcDbEntity
  8
0
100
AcDbLine
 10
-76.50000000000004
 20
57.99999999999997
 30
0.0
 11
-39.60606060606064
 21
27.56250000000003
 31
0.0
  0
LINE
  5
A932
330
A904
100
AcDbEntity
  8
0
100
AcDbLine
 10
-34.99999999999998
 20
57.99999999999997
 30
0.0
 11
-34.99999999999997
 21
25.0
 31
0.0
  0
LINE
  5
A933
330
A904
100
AcDbEntity
  8
0
100
AcDbLine
 10
-36.99999999999999
 20
57.99999999999997
 30
0.0
 11
-34.99999999999998
 21
57.99999999999997
 31
0.0
  0
LINE
  5
A934
330
A904
100
AcDbEntity
  8
0
100
AcDbLine
 10
-36.99999999999998
 20
25.0
 30
0.0
 11
-36.99999999999999
 21
57.99999999999997
 31
0.0
  0
LINE
  5
A935
330
A904
100
AcDbEntity
  8
0
100
AcDbLine
 10
-34.99999999999997
 20
25.0
 30
0.0
 11
-36.99999999999998
 21
25.0
 31
0.0
  0
LINE
  5
A936
330
A904
100
AcDbEntity
  8
0
100
AcDbLine
 10
-34.99999999999998
 20
185.0
 30
0.0
 11
-34.99999999999998
 21
57.99999999999997
 31
0.0
  0
LINE
  5
A937
330
A904
100
AcDbEntity
  8
0
100
AcDbLine
 10
-36.99999999999999
 20
185.0
 30
0.0
 11
-34.99999999999998
 21
185.0
 31
0.0
  0
LINE
  5
A938
330
A904
100
AcDbEntity
  8
0
100
AcDbLine
 10
-36.99999999999999
 20
57.99999999999997
 30
0.0
 11
-36.99999999999999
 21
185.0
 31
0.0
  0
CIRCLE
  5
A939
330
A904
100
AcDbEntity
  8
0
100
AcDbCircle
 10
-57.0
 20
65.0
 30
0.0
 40
6.5
  0
CIRCLE
  5
A93A
330
A904
100
AcDbEntity
  8
0
100
AcDbCircle
 10
57.0
 20
65.0
 30
0.0
 40
6.5
  0
CIRCLE
  5
A93B
330
A904
100
AcDbEntity
  8
0
100
AcDbCircle
 10
-57.0
 20
165.0
 30
0.0
 40
6.5
  0
CIRCLE
  5
A93C
330
A904
100
AcDbEntity
  8
0
100
AcDbCircle
 10
-46.0
 20
50.0
 30
0.0
 40
2.5
  0
CIRCLE
  5
A93D
330
A904
100
AcDbEntity
  8
0
100
AcDbCircle
 10
-46.0
 20
70.0
 30
0.0
 40
2.5
  0
CIRCLE
  5
A93E
330
A904
100
AcDbEntity
  8
0
100
AcDbCircle
 10
-46.0
 20
90.0
 30
0.0
 40
2.5
  0
CIRCLE
  5
A93F
330
A904
100
AcDbEntity
  8
0
100
AcDbCircle
 10
-46.0
 20
110.0
 30
0.0
 40
2.5
  0
CIRCLE
  5
A940
330
A904
100
AcDbEntity
  8
0
100
AcDbCircle
 10
-46.0
 20
130.0
 30
0.0
 40
2.5
  0
CIRCLE
  5
A941
330
A904
100
AcDbEntity
  8
0
100
AcDbCircle
 10
-46.0
 20
150.0
 30
0.0
 40
2.5
  0
CIRCLE
  5
A942
330
A904
100
AcDbEntity
  8
0
100
AcDbCircle
 10
46.0
 20
50.0
 30
0.0
 40
2.5
  0
CIRCLE
  5
A943
330
A904
100
AcDbEntity
  8
0
100
AcDbCircle
 10
46.0
 20
70.0
 30
0.0
 40
2.5
  0
CIRCLE
  5
A944
330
A904
100
AcDbEntity
  8
0
100
AcDbCircle
 10
46.0
 20
90.0
 30
0.0
 40
2.5
  0
CIRCLE
  5
A945
330
A904
100
AcDbEntity
  8
0
100
AcDbCircle
 10
46.0
 20
110.0
 30
0.0
 40
2.5
  0
CIRCLE
  5
A946
330
A904
100
AcDbEntity
  8
0
100
AcDbCircle
 10
46.0
 20
130.0
 30
0.0
 40
2.5
  0
CIRCLE
  5
A947
330
A904
100
AcDbEntity
  8
0
100
AcDbCircle
 10
46.0
 20
150.0
 30
0.0
 40
2.5
  0
CIRCLE
  5
A948
330
A904
100
AcDbEntity
  8
0
100
AcDbCircle
 10
-46.0
 20
170.0
 30
0.0
 40
2.5
  0
CIRCLE
  5
A949
330
A904
100
AcDbEntity
  8
0
100
AcDbCircle
 10
46.0
 20
170.0
 30
0.0
 40
2.5
  0
CIRCLE
  5
A94A
330
A904
100
AcDbEntity
  8
0
100
AcDbCircle
 10
-68.0
 20
60.0
 30
0.0
 40
2.5
  0
CIRCLE
  5
A94B
330
A904
100
AcDbEntity
  8
0
100
AcDbCircle
 10
-68.0
 20
80.0
 30
0.0
 40
2.5
  0
CIRCLE
  5
A94C
330
A904
100
AcDbEntity
  8
0
100
AcDbCircle
 10
-68.0
 20
100.0
 30
0.0
 40
2.5
  0
CIRCLE
  5
A94D
330
A904
100
AcDbEntity
  8
0
100
AcDbCircle
 10
-68.0
 20
120.0
 30
0.0
 40
2.5
  0
CIRCLE
  5
A94E
330
A904
100
AcDbEntity
  8
0
100
AcDbCircle
 10
-68.0
 20
140.0
 30
0.0
 40
2.5
  0
CIRCLE
  5
A94F
330
A904
100
AcDbEntity
  8
0
100
AcDbCircle
 10
-68.0
 20
160.0
 30
0.0
 40
2.5
  0
CIRCLE
  5
A950
330
A904
100
AcDbEntity
  8
0
100
AcDbCircle
 10
68.0
 20
60.0
 30
0.0
 40
2.5
  0
CIRCLE
  5
A951
330
A904
100
AcDbEntity
  8
0
100
AcDbCircle
 10
68.0
 20
80.0
 30
0.0
 40
2.5
  0
CIRCLE
  5
A952
330
A904
100
AcDbEntity
  8
0
100
AcDbCircle
 10
68.0
 20
100.0
 30
0.0
 40
2.5
  0
CIRCLE
  5
A953
330
A904
100
AcDbEntity
  8
0
100
AcDbCircle
 10
68.0
 20
120.0
 30
0.0
 40
2.5
  0
CIRCLE
  5
A954
330
A904
100
AcDbEntity
  8
0
100
AcDbCircle
 10
68.0
 20
140.0
 30
0.0
 40
2.5
  0
CIRCLE
  5
A955
330
A904
100
AcDbEntity
  8
0
100
AcDbCircle
 10
68.0
 20
160.0
 30
0.0
 40
2.5
  0
CIRCLE
  5
A956
330
A904
100
AcDbEntity
  8
0
100
AcDbCircle
 10
-68.0
 20
180.0
 30
0.0
 40
2.5
  0
LINE
  5
A957
330
A904
100
AcDbEntity
  8
0
100
AcDbLine
 10
-76.5
 20
185.0
 30
0.0
 11
-39.0
 21
185.0
 31
0.0
  0
LINE
  5
A958
330
A904
100
AcDbEntity
  8
0
100
AcDbLine
 10
-76.50000000000004
 20
57.99999999999997
 30
0.0
 11
-76.5
 21
185.0
 31
0.0
  0
LINE
  5
A959
330
A904
100
AcDbEntity
  8
0
100
AcDbLine
 10
-34.99999999999999
 20
2.0
 30
0.0
 11
-34.99999999999997
 21
25.0
 31
0.0
  0
LINE
  5
A95A
330
A904
100
AcDbEntity
  8
0
100
AcDbLine
 10
-36.99999999999998
 20
25.0
 30
0.0
 11
-36.99999999999999
 21
2.000000000000001
 31
0.0
  0
LINE
  5
A95B
330
A904
100
AcDbEntity
  8
0
100
AcDbLine
 10
-39.0
 20
185.0
 30
0.0
 11
-37.0
 21
185.0
 31
0.0
  0
ENDBLK
  5
A906
330
A904
100
AcDbEntity
  8
0
100
AcDbBlockEnd
  0
BLOCK
  5
A95D
330
A95C
100
AcDbEntity
  8
0
100
AcDbBlockBegin
  2
SAE440_70_2-Left
 70
     0
 10
0.0
 20
0.0
 30
0.0
  3
SAE440_70_2-Left
  1

  0
LINE
  5
A95F
330
A95C
100
AcDbEntity
  8
0
100
AcDbLine
 10
2.000000000000006
 20
-2.0
 30
0.0
 11
86.00000000000001
 21
-2.000000000000003
 31
0.0
  0
LINE
  5
A960
330
A95C
100
AcDbEntity
  8
0
100
AcDbLine
 10
2.000000000000012
 20
2.000000000000004
 30
0.0
 11
2.000000000000006
 21
-1.999999999999999
 31
0.0
  0
LINE
  5
A961
330
A95C
100
AcDbEntity
  8
0
100
AcDbLine
 10
86.00000000000001
 20
-2.000000000000003
 30
0.0
 11
86.00000000000001
 21
2.0
 31
0.0
  0
SPLINE
  5
A962
330
A95C
100
AcDbEntity
  8
0
100
AcDbSpline
210
0.0
220
0.0
230
1.0
 70
     8
 71
     3
 72
    14
 73
    10
 74
     0
 42
0.000000001
 43
0.0000000001
 40
-0.4813026533046707
 40
-0.4813026533046707
 40
-0.4813026533046707
 40
-0.4813026533046707
 40
-0.3760960081012829
 40
-0.3760960081012829
 40
-0.3760960081012829
 40
-0.0765284972672977
 40
-0.0765284972672977
 40
-0.0765284972672977
 40
0.0
 40
0.0
 40
0.0
 40
0.0
 10
0.9454120927664192
 20
26.73176011521713
 30
0.0
 10
0.8408297880134192
 20
26.76867618607709
 30
0.0
 10
0.7371129357664957
 20
26.8005409048285
 30
0.0
 10
0.6388614064446239
 20
26.83423666320971
 30
0.0
 10
0.3590980320143773
 20
26.93018264118864
 30
0.0
 10
0.1217220476570533
 20
27.0400161296757
 30
0.0
 10
0.0342615816140276
 20
27.31443386955971
 30
0.0
 10
0.0119186445647574
 20
27.38453752398588
 30
0.0
 10
0.0000045452574086
 20
27.4676966510445
 30
0.0
 10
0.0000000001152106
 20
27.56250000004006
 30
0.0
  0
SPLINE
  5
A963
330
A95C
100
AcDbEntity
  8
0
100
AcDbSpline
210
0.0
220
0.0
230
1.0
 70
     8
 71
     3
 72
    14
 73
    10
 74
     0
 42
0.000000001
 43
0.0000000001
 40
0.0
 40
0.0
 40
0.0
 40
0.0
 40
0.343516559141351
 40
0.343516559141351
 40
0.343516559141351
 40
0.7569936138443915
 40
0.7569936138443915
 40
0.7569936138443915
 40
1.0
 40
1.0
 40
1.0
 40
1.0
 10
1.999999999999997
 20
27.56250000000006
 30
0.0
 10
2.000036880260028
 20
27.30249193734648
 30
0.0
 10
1.996833903329723
 20
27.07529037325663
 30
0.0
 10
1.998675521249929
 20
26.84407810167254
 30
0.0
 10
2.000892202610033
 20
26.56577719732965
 30
0.0
 10
2.001068608701493
 20
26.27139450218085
 30
0.0
 10
2.001123034011925
 20
25.85792877881253
 30
0.0
 10
2.00115502054625
 20
25.6149290522446
 30
0.0
 10
2.000250549241702
 20
25.35822947219561
 30
0.0
 10
1.999999999992551
 20
25.00000000165287
 30
0.0
  0
LINE
  5
A964
330
A95C
100
AcDbEntity
  8
0
100
AcDbLine
 10
0.0
 20
27.56250000000003
 30
0.0
 11
2.000000000000001
 21
27.56250000000003
 31
0.0
  0
SPLINE
  5
A965
330
A95C
100
AcDbEntity
  8
0
100
AcDbSpline
210
0.0
220
0.0
230
1.0
 70
     8
 71
     3
 72
    18
 73
    14
 74
     0
 42
0.000000001
 43
0.0000000001
 40
0.0
 40
0.0
 40
0.0
 40
0.0
 40
0.0045852969200217
 40
0.0045852969200217
 40
0.006540084052761
 40
0.006540084052761
 40
0.0081563835271892
 40
0.0081563835271892
 40
0.009601608929143
 40
0.009601608929143
 40
0.0108226891097662
 40
0.0108226891097662
 40
0.0118646457913333
 40
0.0118646457913333
 40
0.0118646457913333
 40
0.0118646457913333
 10
1.999557272902138
 20
24.99999849939594
 30
0.0
 10
1.999513512458639
 20
25.01475838079419
 30
0.0
 10
1.999424163679386
 20
25.02919075573252
 30
0.0
 10
1.999253402731584
 20
25.04675570274224
 30
0.0
 10
1.999196850486956
 20
25.05166987649178
 30
0.0
 10
1.999091149901857
 20
25.05972733278841
 30
0.0
 10
1.999042050549982
 20
25.06305924923904
 30
0.0
 10
1.998954621960049
 20
25.0685191331743
 30
0.0
 10
1.99891539704484
 20
25.07075700277252
 30
0.0
 10
1.998855183908611
 20
25.07401363580643
 30
0.0
 10
1.998832157097613
 20
25.07517781465989
 30
0.0
 10
1.998803973819253
 20
25.07656460269148
 30
0.0
 10
1.998796572755375
 20
25.07690723965366
 30
0.0
 10
1.998796572807164
 20
25.07690723725114
 30
0.0
  0
SPLINE
  5
A966
330
A95C
100
AcDbEntity
  8
0
100
AcDbSpline
210
0.0
220
0.0
230
1.0
 70
     8
 71
     3
 72
    12
 73
     8
 74
     0
 42
0.000000001
 43
0.0000000001
 40
0.0059633252729024
 40
0.0059633252729024
 40
0.0059633252729024
 40
0.0059633252729024
 40
0.0066536742810674
 40
0.0066536742810674
 40
0.0086398635166208
 40
0.0086398635166208
 40
0.0087253466693179
 40
0.0087253466693179
 40
0.0087253466693179
 40
0.0087253466693179
 10
1.99942047933926
 20
25.02765535993797
 30
0.0
 10
1.999406074172323
 20
25.02827987374097
 30
0.0
 10
1.999393029418253
 20
25.0288364472911
 30
0.0
 10
1.999348675823587
 20
25.03070956783059
 30
0.0
 10
1.999329089674531
 20
25.03149445621366
 30
0.0
 10
1.999327499326452
 20
25.03155858686737
 30
0.0
 10
1.999327466375678
 20
25.031559914281
 30
0.0
 10
1.999327466389791
 20
25.03155991371242
 30
0.0
  0
SPLINE
  5
A967
330
A95C
100
AcDbEntity
  8
0
100
AcDbSpline
210
0.0
220
0.0
230
1.0
 70
     8
 71
     3
 72
    32
 73
    28
 74
     0
 42
0.000000001
 43
0.0000000001
 40
0.0044269611913709
 40
0.0044269611913709
 40
0.0044269611913709
 40
0.0044269611913709
 40
0.0070666150473472
 40
0.0070666150473472
 40
0.0097359241965772
 40
0.0097359241965772
 40
0.0112195603096115
 40
0.0112195603096115
 40
0.0132974512413392
 40
0.0132974512413392
 40
0.0162697048473311
 40
0.0162697048473311
 40
0.0233581018960774
 40
0.0233581018960774
 40
0.0446188972015168
 40
0.0446188972015168
 40
0.0765645811953914
 40
0.0765645811953914
 40
0.1066779011147612
 40
0.1066779011147612
 40
0.1471724921455563
 40
0.1471724921455563
 40
0.1805118332578816
 40
0.1805118332578816
 40
0.220282890811283
 40
0.220282890811283
 40
0.2444799756927803
 40
0.2444799756927803
 40
0.2444799756927803
 40
0.2444799756927803
 10
1.999453047720141
 20
25.02279542166013
 30
0.0
 10
1.99934312780305
 20
25.02692527671789
 30
0.0
 10
1.999228376885374
 20
25.03099739151464
 30
0.0
 10
1.99895073615692
 20
25.04021089961251
 30
0.0
 10
1.998783229280259
 20
25.04551751502114
 30
0.0
 10
1.998427362266956
 20
25.05577853002226
 30
0.0
 10
1.99827994873059
 20
25.0598647235556
 30
0.0
 10
1.99788557429247
 20
25.07023815263544
 30
0.0
 10
1.997620188674476
 20
25.07679958474799
 30
0.0
 10
1.99691949162951
 20
25.09294424194958
 30
0.0
 10
1.99645608082142
 20
25.10272534765583
 30
0.0
 10
1.994744210960151
 20
25.13583814625569
 30
0.0
 10
1.993288976635424
 20
25.15938365266637
 30
0.0
 10
1.986467948978858
 20
25.25325816193872
 30
0.0
 10
1.979100551361877
 20
25.32335733491067
 30
0.0
 10
1.954117792716072
 20
25.49752578210452
 30
0.0
 10
1.933095164081084
 20
25.6019169394793
 30
0.0
 10
1.876943752668406
 20
25.80089509782401
 30
0.0
 10
1.842238040318653
 20
25.89654334166838
 30
0.0
 10
1.742828771727966
 20
26.10726511192782
 30
0.0
 10
1.669688385436146
 20
26.22004612154793
 30
0.0
 10
1.522666363869483
 20
26.38942910623034
 30
0.0
 10
1.45019093270289
 20
26.45467612556002
 30
0.0
 10
1.289829443631569
 20
26.57326526387299
 30
0.0
 10
1.200070168429916
 20
26.62371870343119
 30
0.0
 10
1.054254700989986
 20
26.69064800040838
 30
0.0
 10
0.9985808391210353
 20
26.71273822115683
 30
0.0
 10
0.9420912521381616
 20
26.73259712963492
 30
0.0
  0
LINE
  5
A968
330
A95C
100
AcDbEntity
  8
0
100
AcDbLine
 10
2.000000000000012
 20
2.000000000000003
 30
0.0
 11
2.000000000000012
 21
25.0
 31
0.0
  0
LINE
  5
A969
330
A95C
100
AcDbEntity
  8
0
100
AcDbLine
 10
1.999999999999992
 20
57.99999999999997
 30
0.0
 11
2.000000000000001
 21
27.56250000000003
 31
0.0
  0
LINE
  5
A96A
330
A95C
100
AcDbEntity
  8
0
100
AcDbLine
 10
0.0
 20
57.99999999999997
 30
0.0
 11
1.999999999999992
 21
57.99999999999997
 31
0.0
  0
LINE
  5
A96B
330
A95C
100
AcDbEntity
  8
0
100
AcDbLine
 10
0.0
 20
27.56250000000003
 30
0.0
 11
0.0
 21
57.99999999999997
 31
0.0
  0
LINE
  5
A96C
330
A95C
100
AcDbEntity
  8
0
100
AcDbLine
 10
86.00000000000006
 20
25.0
 30
0.0
 11
46.00000000000004
 21
57.99999999999997
 31
0.0
  0
LINE
  5
A96D
330
A95C
100
AcDbEntity
  8
0
100
AcDbLine
 10
46.00000000000004
 20
57.99999999999997
 30
0.0
 11
46.00000000000001
 21
185.0
 31
0.0
  0
LINE
  5
A96E
330
A95C
100
AcDbEntity
  8
0
100
AcDbLine
 10
1.999999999999992
 20
57.99999999999997
 30
0.0
 11
2.000000000000006
 21
185.0
 31
0.0
  0
LINE
  5
A96F
330
A95C
100
AcDbEntity
  8
0
100
AcDbLine
 10
86.00000000000006
 20
25.0
 30
0.0
 11
86.00000000000001
 21
2.000000000000001
 31
0.0
  0
LINE
  5
A970
330
A95C
100
AcDbEntity
  8
0
100
AcDbLine
 10
4.000000000000003
 20
185.0
 30
0.0
 11
46.00000000000001
 21
185.0
 31
0.0
  0
LINE
  5
A971
330
A95C
100
AcDbEntity
  8
0
100
AcDbLine
 10
0.0
 20
185.0
 30
0.0
 11
2.000000000000006
 21
185.0
 31
0.0
  0
LINE
  5
A972
330
A95C
100
AcDbEntity
  8
0
100
AcDbLine
 10
0.0
 20
57.99999999999997
 30
0.0
 11
0.0
 21
185.0
 31
0.0
  0
LINE
  5
A973
330
A95C
100
AcDbEntity
  8
0
100
AcDbLine
 10
2.000000000000006
 20
185.0
 30
0.0
 11
4.000000000000003
 21
185.0
 31
0.0
  0
CIRCLE
  5
A974
330
A95C
100
AcDbEntity
  8
0
100
AcDbCircle
 10
38.50000000000001
 20
40.0
 30
0.0
 40
2.5
  0
CIRCLE
  5
A975
330
A95C
100
AcDbEntity
  8
0
100
AcDbCircle
 10
38.50000000000001
 20
60.0
 30
0.0
 40
2.5
  0
CIRCLE
  5
A976
330
A95C
100
AcDbEntity
  8
0
100
AcDbCircle
 10
38.50000000000001
 20
80.0
 30
0.0
 40
2.5
  0
CIRCLE
  5
A977
330
A95C
100
AcDbEntity
  8
0
100
AcDbCircle
 10
38.50000000000001
 20
100.0
 30
0.0
 40
2.5
  0
CIRCLE
  5
A978
330
A95C
100
AcDbEntity
  8
0
100
AcDbCircle
 10
38.50000000000001
 20
120.0
 30
0.0
 40
2.5
  0
CIRCLE
  5
A979
330
A95C
100
AcDbEntity
  8
0
100
AcDbCircle
 10
38.50000000000001
 20
140.0
 30
0.0
 40
2.5
  0
CIRCLE
  5
A97A
330
A95C
100
AcDbEntity
  8
0
100
AcDbCircle
 10
38.50000000000001
 20
160.0
 30
0.0
 40
2.5
  0
CIRCLE
  5
A97B
330
A95C
100
AcDbEntity
  8
0
100
AcDbCircle
 10
38.50000000000001
 20
180.0
 30
0.0
 40
2.5
  0
ENDBLK
  5
A95E
330
A95C
100
AcDbEntity
  8
0
100
AcDbBlockEnd
  0
BLOCK
  5
A97D
330
A97C
100
AcDbEntity
  8
0
100
AcDbBlockBegin
  2
SAE440_70_2-Right
 70
     0
 10
0.0
 20
0.0
 30
0.0
  3
SAE440_70_2-Right
  1

  0
SPLINE
  5
A97F
330
A97C
100
AcDbEntity
  8
0
100
AcDbSpline
210
0.0
220
0.0
230
1.0
 70
     8
 71
     3
 72
    14
 73
    10
 74
     0
 42
0.000000001
 43
0.0000000001
 40
0.0
 40
0.0
 40
0.0
 40
0.0
 40
0.343516559141351
 40
0.343516559141351
 40
0.343516559141351
 40
0.7569936138443915
 40
0.7569936138443915
 40
0.7569936138443915
 40
1.0
 40
1.0
 40
1.0
 40
1.0
 10
-1.999999999999997
 20
27.56250000000006
 30
0.0
 10
-2.000036880260028
 20
27.30249193734648
 30
0.0
 10
-1.996833903329723
 20
27.07529037325663
 30
0.0
 10
-1.998675521249929
 20
26.84407810167254
 30
0.0
 10
-2.000892202610033
 20
26.56577719732965
 30
0.0
 10
-2.001068608701493
 20
26.27139450218085
 30
0.0
 10
-2.001123034011925
 20
25.85792877881253
 30
0.0
 10
-2.00115502054625
 20
25.6149290522446
 30
0.0
 10
-2.000250549241702
 20
25.35822947219561
 30
0.0
 10
-1.999999999992551
 20
25.00000000165287
 30
0.0
  0
SPLINE
  5
A980
330
A97C
100
AcDbEntity
  8
0
100
AcDbSpline
210
0.0
220
0.0
230
1.0
 70
     8
 71
     3
 72
    14
 73
    10
 74
     0
 42
0.000000001
 43
0.0000000001
 40
-0.481302653304727
 40
-0.481302653304727
 40
-0.481302653304727
 40
-0.481302653304727
 40
-0.3760960081012829
 40
-0.3760960081012829
 40
-0.3760960081012829
 40
-0.0765284972672977
 40
-0.0765284972672977
 40
-0.0765284972672977
 40
0.0
 40
0.0
 40
0.0
 40
0.0
 10
-0.9454120927665867
 20
26.73176011521708
 30
0.0
 10
-0.84082978801353
 20
26.76867618607705
 30
0.0
 10
-0.7371129357665483
 20
26.80054090482848
 30
0.0
 10
-0.6388614064446239
 20
26.83423666320971
 30
0.0
 10
-0.3590980320143773
 20
26.93018264118864
 30
0.0
 10
-0.1217220476570533
 20
27.0400161296757
 30
0.0
 10
-0.0342615816140276
 20
27.31443386955971
 30
0.0
 10
-0.0119186445647574
 20
27.38453752398588
 30
0.0
 10
-0.0000045452574086
 20
27.4676966510445
 30
0.0
 10
-0.0000000001152106
 20
27.56250000004006
 30
0.0
  0
LINE
  5
A981
330
A97C
100
AcDbEntity
  8
0
100
AcDbLine
 10
-2.000000000000001
 20
27.56250000000003
 30
0.0
 11
0.0
 21
27.56250000000003
 31
0.0
  0
SPLINE
  5
A982
330
A97C
100
AcDbEntity
  8
0
100
AcDbSpline
210
0.0
220
0.0
230
1.0
 70
     8
 71
     3
 72
    16
 73
    12
 74
     0
 42
0.000000001
 43
0.0000000001
 40
0.0119733517145065
 40
0.0119733517145065
 40
0.0119733517145065
 40
0.0119733517145065
 40
0.0132101283002514
 40
0.0132101283002514
 40
0.0147921455864107
 40
0.0147921455864107
 40
0.0179906735612622
 40
0.0179906735612622
 40
0.0208195517089059
 40
0.0208195517089059
 40
0.0238392197898528
 40
0.0238392197898528
 40
0.0238392197898528
 40
0.0238392197898528
 10
-1.998796572807108
 20
25.07690723725368
 30
0.0
 10
-1.998796572804572
 20
25.07690723737141
 30
0.0
 10
-1.998806931014048
 20
25.07642811550014
 30
0.0
 10
-1.998847483381454
 20
25.07440627909062
 30
0.0
 10
-1.998882572418784
 20
25.07259041649668
 30
0.0
 10
-1.999004828701133
 20
25.06563013975365
 30
0.0
 10
-1.999108828345932
 20
25.0588792139362
 30
0.0
 10
-1.999282360815414
 20
25.04425783066438
 30
0.0
 10
-1.999357578438082
 20
25.03640621541837
 30
0.0
 10
-1.99948103181817
 20
25.019235914357
 30
0.0
 10
-1.999528454263619
 20
25.00971868622665
 30
0.0
 10
-1.999557272902138
 20
24.99999849939595
 30
0.0
  0
SPLINE
  5
A983
330
A97C
100
AcDbEntity
  8
0
100
AcDbSpline
210
0.0
220
0.0
230
1.0
 70
     8
 71
     3
 72
    12
 73
     8
 74
     0
 42
0.000000001
 43
0.0000000001
 40
0.0086744412341034
 40
0.0086744412341034
 40
0.0086744412341034
 40
0.0086744412341034
 40
0.0108228418505661
 40
0.0108228418505661
 40
0.013886814807175
 40
0.013886814807175
 40
0.0173947674147052
 40
0.0173947674147052
 40
0.0173947674147052
 40
0.0173947674147052
 10
-1.999327466389668
 20
25.0315599137174
 30
0.0
 10
-1.999327466386278
 20
25.03155991385402
 30
0.0
 10
-1.999348975123901
 20
25.03070111135627
 30
0.0
 10
-1.999438185388467
 20
25.02692286660454
 30
0.0
 10
-1.999521954743478
 20
25.0232528790679
 30
0.0
 10
-1.999719011798863
 20
25.0134787486283
 30
0.0
 10
-1.99983526385306
 20
25.00705634434121
 30
0.0
 10
-1.999939280471783
 20
24.99999868572563
 30
0.0
  0
SPLINE
  5
A984
330
A97C
100
AcDbEntity
  8
0
100
AcDbSpline
210
0.0
220
0.0
230
1.0
 70
     8
 71
     3
 72
    28
 73
    24
 74
     0
 42
0.000000001
 43
0.0000000001
 40
0.0
 40
0.0
 40
0.0
 40
0.0
 40
0.0650016965064529
 40
0.0650016965064529
 40
0.1023228294576926
 40
0.1023228294576926
 40
0.1414747326674989
 40
0.1414747326674989
 40
0.1748987385413203
 40
0.1748987385413203
 40
0.2169239990917146
 40
0.2169239990917146
 40
0.2285713936629274
 40
0.2285713936629274
 40
0.2316497790320382
 40
0.2316497790320382
 40
0.2332712167171411
 40
0.2332712167171411
 40
0.2348988842743694
 40
0.2348988842743694
 40
0.2381770016301393
 40
0.2381770016301393
 40
0.2398093120431502
 40
0.2398093120431502
 40
0.2398093120431502
 40
0.2398093120431502
 10
-0.9420912521383254
 20
26.73259712963485
 30
0.0
 10
-1.093841721536543
 20
26.67924926776781
 30
0.0
 10
-1.242353898743215
 20
26.60988799341958
 30
0.0
 10
-1.466451771018026
 20
26.44171617370905
 30
0.0
 10
-1.547407943208422
 20
26.36594146110096
 30
0.0
 10
-1.695446554662647
 20
26.18241413825331
 30
0.0
 10
-1.763061289549732
 20
26.07040741116615
 30
0.0
 10
-1.860492149631646
 20
25.85077461310405
 30
0.0
 10
-1.895809632774346
 20
25.74321521029929
 30
0.0
 10
-1.955911122104698
 20
25.49956902554404
 30
0.0
 10
-1.976606287620164
 20
25.36174326038422
 30
0.0
 10
-1.991712579948442
 20
25.18427826815809
 30
0.0
 10
-1.994301896793085
 20
25.14544791362317
 30
0.0
 10
-1.996727817407329
 20
25.09709109592858
 30
0.0
 10
-1.997190140005443
 20
25.08697088001019
 30
0.0
 10
-1.997805613578428
 20
25.07220206194546
 30
0.0
 10
-1.998002494732771
 20
25.06720827403161
 30
0.0
 10
-1.998352537520107
 20
25.05789030566388
 30
0.0
 10
-1.998506821223812
 20
25.05353772750318
 30
0.0
 10
-1.99890000551011
 20
25.04197961055857
 30
0.0
 10
-1.999076487666733
 20
25.03616553677098
 30
0.0
 10
-1.999306259648083
 20
25.02819603050079
 30
0.0
 10
-1.999380800893085
 20
25.02550450542386
 30
0.0
 10
-1.999453071716053
 20
25.02278501006494
 30
0.0
  0
LINE
  5
A985
330
A97C
100
AcDbEntity
  8
0
100
AcDbLine
 10
-2.000000000000006
 20
-2.0
 30
0.0
 11
-86.00000000000001
 21
-2.0
 31
0.0
  0
LINE
  5
A986
330
A97C
100
AcDbEntity
  8
0
100
AcDbLine
 10
-2.000000000000012
 20
2.000000000000003
 30
0.0
 11
-2.000000000000012
 21
25.0
 31
0.0
  0
LINE
  5
A987
330
A97C
100
AcDbEntity
  8
0
100
AcDbLine
 10
-2.000000000000012
 20
2.000000000000004
 30
0.0
 11
-2.000000000000006
 21
-1.999999999999999
 31
0.0
  0
LINE
  5
A988
330
A97C
100
AcDbEntity
  8
0
100
AcDbLine
 10
-86.00000000000001
 20
-2.000000000000003
 30
0.0
 11
-86.00000000000001
 21
2.0
 31
0.0
  0
LINE
  5
A989
330
A97C
100
AcDbEntity
  8
0
100
AcDbLine
 10
0.0
 20
57.99999999999997
 30
0.0
 11
0.0
 21
27.56250000000003
 31
0.0
  0
LINE
  5
A98A
330
A97C
100
AcDbEntity
  8
0
100
AcDbLine
 10
-1.999999999999992
 20
57.99999999999997
 30
0.0
 11
0.0
 21
57.99999999999997
 31
0.0
  0
LINE
  5
A98B
330
A97C
100
AcDbEntity
  8
0
100
AcDbLine
 10
-2.000000000000001
 20
27.56250000000003
 30
0.0
 11
-1.999999999999992
 21
57.99999999999997
 31
0.0
  0
LINE
  5
A98C
330
A97C
100
AcDbEntity
  8
0
100
AcDbLine
 10
0.0
 20
57.99999999999997
 30
0.0
 11
0.0
 21
185.0
 31
0.0
  0
CIRCLE
  5
A98D
330
A97C
100
AcDbEntity
  8
0
100
AcDbCircle
 10
-38.50000000000002
 20
170.0
 30
0.0
 40
2.5
  0
LINE
  5
A98E
330
A97C
100
AcDbEntity
  8
0
100
AcDbLine
 10
-46.00000000000004
 20
57.99999999999997
 30
0.0
 11
-86.00000000000006
 21
25.0
 31
0.0
  0
LINE
  5
A98F
330
A97C
100
AcDbEntity
  8
0
100
AcDbLine
 10
-46.00000000000001
 20
185.0
 30
0.0
 11
-46.00000000000004
 21
57.99999999999997
 31
0.0
  0
LINE
  5
A990
330
A97C
100
AcDbEntity
  8
0
100
AcDbLine
 10
-86.00000000000006
 20
25.0
 30
0.0
 11
-86.00000000000001
 21
2.000000000000001
 31
0.0
  0
LINE
  5
A991
330
A97C
100
AcDbEntity
  8
0
100
AcDbLine
 10
-4.000000000000003
 20
185.0
 30
0.0
 11
-46.00000000000001
 21
185.0
 31
0.0
  0
LINE
  5
A992
330
A97C
100
AcDbEntity
  8
0
100
AcDbLine
 10
-2.000000000000006
 20
185.0
 30
0.0
 11
-4.000000000000003
 21
185.0
 31
0.0
  0
LINE
  5
A993
330
A97C
100
AcDbEntity
  8
0
100
AcDbLine
 10
0.0
 20
185.0
 30
0.0
 11
-2.000000000000006
 21
185.0
 31
0.0
  0
LINE
  5
A994
330
A97C
100
AcDbEntity
  8
0
100
AcDbLine
 10
-1.999999999999992
 20
57.99999999999997
 30
0.0
 11
-2.000000000000006
 21
185.0
 31
0.0
  0
CIRCLE
  5
A995
330
A97C
100
AcDbEntity
  8
0
100
AcDbCircle
 10
-38.50000000000002
 20
50.0
 30
0.0
 40
2.5
  0
CIRCLE
  5
A996
330
A97C
100
AcDbEntity
  8
0
100
AcDbCircle
 10
-38.50000000000002
 20
70.0
 30
0.0
 40
2.5
  0
CIRCLE
  5
A997
330
A97C
100
AcDbEntity
  8
0
100
AcDbCircle
 10
-38.50000000000002
 20
90.0
 30
0.0
 40
2.5
  0
CIRCLE
  5
A998
330
A97C
100
AcDbEntity
  8
0
100
AcDbCircle
 10
-38.50000000000002
 20
110.0
 30
0.0
 40
2.5
  0
CIRCLE
  5
A999
330
A97C
100
AcDbEntity
  8
0
100
AcDbCircle
 10
-38.50000000000002
 20
130.0
 30
0.0
 40
2.5
  0
CIRCLE
  5
A99A
330
A97C
100
AcDbEntity
  8
0
100
AcDbCircle
 10
-38.50000000000002
 20
150.0
 30
0.0
 40
2.5
  0
ENDBLK
  5
A97E
330
A97C
100
AcDbEntity
  8
0
100
AcDbBlockEnd
  0
BLOCK
  5
A99C
330
A99B
100
AcDbEntity
  8
0
100
AcDbBlockBegin
  2
SAE440_70_2-Top
 70
     0
 10
0.0
 20
0.0
 30
0.0
  3
SAE440_70_2-Top
  1

  0
LINE
  5
A99E
330
A99B
100
AcDbEntity
  8
0
100
AcDbLine
 10
35.00000000000002
 20
-2.000000000000009
 30
0.0
 11
35.00000000000002
 21
-2.069004766157904
 31
0.0
  0
SPLINE
  5
A99F
330
A99B
100
AcDbEntity
  8
0
100
AcDbSpline
210
0.0
220
0.0
230
1.0
 70
     8
 71
     3
 72
    11
 73
     7
 74
     0
 42
0.000000001
 43
0.0000000001
 40
-1.0
 40
-1.0
 40
-1.0
 40
-1.0
 40
-0.7994286890801181
 40
-0.7994286890801181
 40
-0.7994286890801181
 40
-0.6533573777220786
 40
-0.6533573777220786
 40
-0.6533573777220786
 40
-0.6533573777220786
 10
35.00000000000006
 20
-1.999999999999987
 30
0.0
 10
34.99999961270326
 20
-1.999093543230733
 30
0.0
 10
35.12633150599763
 20
-1.919863896640041
 30
0.0
 10
35.336076945614
 20
-1.790687786216378
 30
0.0
 10
35.48882955652141
 20
-1.69661189989357
 30
0.0
 10
35.68837056419424
 20
-1.577391377857638
 30
0.0
 10
35.91982716790673
 20
-1.445337717162789
 30
0.0
  0
SPLINE
  5
A9A0
330
A99B
100
AcDbEntity
  8
0
100
AcDbSpline
210
0.0
220
0.0
230
1.0
 70
     8
 71
     3
 72
    22
 73
    18
 74
     0
 42
0.000000001
 43
0.0000000001
 40
0.0
 40
0.0
 40
0.0
 40
0.0
 40
0.0062834381546709
 40
0.0062834381546709
 40
0.0147058049952432
 40
0.0147058049952432
 40
0.037375579405711
 40
0.037375579405711
 40
0.050194786461294
 40
0.050194786461294
 40
0.0667274351983005
 40
0.0667274351983005
 40
0.0745951079443262
 40
0.0745951079443262
 40
0.080882178894078
 40
0.080882178894078
 40
0.0850548433251546
 40
0.0850548433251546
 40
0.0850548433251546
 40
0.0850548433251546
 10
39.56214430293324
 20
-2.000020290751272
 30
0.0
 10
39.54700960596404
 20
-2.000021425462891
 30
0.0
 10
39.52948500197455
 20
-2.000028425796089
 30
0.0
 10
39.48709187810163
 20
-2.000060615576
 30
0.0
 10
39.46142391791934
 20
-2.000092345612148
 30
0.0
 10
39.36626722159134
 20
-2.000257841536226
 30
0.0
 10
39.2952083448905
 20
-2.000490386303536
 30
0.0
 10
39.18816022246014
 20
-2.000912253182182
 30
0.0
 10
39.15315286426055
 20
-2.001031881989252
 30
0.0
 10
39.07004998877937
 20
-2.00157199147167
 30
0.0
 10
39.01811518837957
 20
-2.002075843426425
 30
0.0
 10
38.93881711707321
 20
-2.003973453444811
 30
0.0
 10
38.91258353151595
 20
-2.004777578176698
 30
0.0
 10
38.86545376781968
 20
-2.006716589808597
 30
0.0
 10
38.84430845982794
 20
-2.007765721354444
 30
0.0
 10
38.81018213705681
 20
-2.00982404373502
 30
0.0
 10
38.79667677837425
 20
-2.010739680511278
 30
0.0
 10
38.78400618476212
 20
-2.011697617738379
 30
0.0
  0
SPLINE
  5
A9A1
330
A99B
100
AcDbEntity
  8
0
100
AcDbSpline
210
0.0
220
0.0
230
1.0
 70
     8
 71
     3
 72
    20
 73
    16
 74
     0
 42
0.000000001
 43
0.0000000001
 40
0.064117149549243
 40
0.064117149549243
 40
0.064117149549243
 40
0.064117149549243
 40
0.0663364448751191
 40
0.0663364448751191
 40
0.0719857389601948
 40
0.0719857389601948
 40
0.0726844053109367
 40
0.0726844053109367
 40
0.0728641129609186
 40
0.0728641129609186
 40
0.0730236562070798
 40
0.0730236562070798
 40
0.0731531586436116
 40
0.0731531586436116
 40
0.0733711842864921
 40
0.0733711842864921
 40
0.0733711842864921
 40
0.0733711842864921
 10
37.00192057166986
 20
-3.912392841631362
 30
0.0
 10
37.00176077704624
 20
-3.917494965561215
 30
0.0
 10
37.00160445703549
 20
-3.922755389244218
 30
0.0
 10
37.00107504745265
 20
-3.941895775905571
 30
0.0
 10
37.00073811945468
 20
-3.95612248435254
 30
0.0
 10
37.00038592535173
 20
-3.975346308087666
 30
0.0
 10
37.00034639417213
 20
-3.977574437050837
 30
0.0
 10
37.00029679479075
 20
-3.980480543830304
 30
0.0
 10
37.00028660028102
 20
-3.981083731902449
 30
0.0
 10
37.00026771328817
 20
-3.982212397801845
 30
0.0
 10
37.00025889572817
 20
-3.982744126841935
 30
0.0
 10
37.00024367973467
 20
-3.983669488487121
 30
0.0
 10
37.00023707487889
 20
-3.98407411340331
 30
0.0
 10
37.00022051873614
 20
-3.985094677693126
 30
0.0
 10
37.00021119879156
 20
-3.985676240527214
 30
0.0
 10
37.00020329588399
 20
-3.98617305827875
 30
0.0
  0
SPLINE
  5
A9A2
330
A99B
100
AcDbEntity
  8
0
100
AcDbSpline
210
0.0
220
0.0
230
1.0
 70
     8
 71
     3
 72
    14
 73
    10
 74
     0
 42
0.000000001
 43
0.0000000001
 40
0.1124644005012278
 40
0.1124644005012278
 40
0.1124644005012278
 40
0.1124644005012278
 40
0.1134189584220909
 40
0.1134189584220909
 40
0.1156439864817819
 40
0.1156439864817819
 40
0.1181756721578868
 40
0.1181756721578868
 40
0.1203710376139077
 40
0.1203710376139077
 40
0.1203710376139077
 40
0.1203710376139077
 10
37.00046661805245
 20
-3.9663713714692
 30
0.0
 10
37.00046661803707
 20
-3.966371372420042
 30
0.0
 10
37.00046289330649
 20
-3.966600494998078
 30
0.0
 10
37.00043931835828
 20
-3.968087379114169
 30
0.0
 10
37.00040385085237
 20
-3.970355118688809
 30
0.0
 10
37.00031320668404
 20
-3.976828397946006
 30
0.0
 10
37.00025632911899
 20
-3.981261293311659
 30
0.0
 10
37.00015736425108
 20
-3.990426650418085
 30
0.0
 10
37.00011372375271
 20
-3.995074715898698
 30
0.0
 10
37.00007561070218
 20
-4.000000545744573
 30
0.0
  0
LINE
  5
A9A3
330
A99B
100
AcDbEntity
  8
0
100
AcDbLine
 10
37.00002880813524
 20
-3.989264082807282
 30
0.0
 11
37.00002895001309
 21
-3.989305408311905
 31
0.0
  0
SPLINE
  5
A9A4
330
A99B
100
AcDbEntity
  8
0
100
AcDbSpline
210
0.0
220
0.0
230
1.0
 70
     8
 71
     3
 72
    12
 73
     8
 74
     0
 42
0.000000001
 43
0.0000000001
 40
0.0101225238700068
 40
0.0101225238700068
 40
0.0101225238700068
 40
0.0101225238700068
 40
0.0121410334283918
 40
0.0121410334283918
 40
0.0133830839802397
 40
0.0133830839802397
 40
0.0141064567484538
 40
0.0141064567484538
 40
0.0141064567484538
 40
0.0141064567484538
 10
36.99998998734216
 20
-3.998412118119241
 30
0.0
 10
36.99998998734172
 20
-3.998412118051302
 30
0.0
 10
36.99999068851212
 20
-3.998522768038484
 30
0.0
 10
36.99999494974065
 20
-3.999182165339435
 30
0.0
 10
36.9999982080637
 20
-3.999684004024888
 30
0.0
 10
37.00000191630386
 20
-4.00025194113557
 30
0.0
 10
37.00000285308639
 20
-4.00039483246727
 30
0.0
 10
37.00000285306275
 20
-4.000394828861393
 30
0.0
  0
SPLINE
  5
A9A5
330
A99B
100
AcDbEntity
  8
0
100
AcDbSpline
210
0.0
220
0.0
230
1.0
 70
     8
 71
     3
 72
    34
 73
    30
 74
     0
 42
0.000000001
 43
0.0000000001
 40
0.0101706377224952
 40
0.0101706377224952
 40
0.0101706377224952
 40
0.0101706377224952
 40
0.0113032242768245
 40
0.0113032242768245
 40
0.0117452730411584
 40
0.0117452730411584
 40
0.0119671973268546
 40
0.0119671973268546
 40
0.0121912824906536
 40
0.0121912824906536
 40
0.0124134699108132
 40
0.0124134699108132
 40
0.0133139273202129
 40
0.0133139273202129
 40
0.0702378896299074
 40
0.0702378896299074
 40
0.1264916607270647
 40
0.1264916607270647
 40
0.1751658757446989
 40
0.1751658757446989
 40
0.1996211605582979
 40
0.1996211605582979
 40
0.2119712404075183
 40
0.2119712404075183
 40
0.2186278190580326
 40
0.2186278190580326
 40
0.2221807146097118
 40
0.2221807146097118
 40
0.2258666338374761
 40
0.2258666338374761
 40
0.2258666338374761
 40
0.2258666338374761
 10
34.99996698296286
 20
-3.998219693835261
 30
0.0
 10
34.99996230387254
 20
-3.997950181218312
 30
0.0
 10
34.99995706363097
 20
-3.997648663763121
 30
0.0
 10
34.99993617333014
 20
-3.996443926674687
 30
0.0
 10
34.99992863163653
 20
-3.996008973264056
 30
0.0
 10
34.99990995849477
 20
-3.994930143511648
 30
0.0
 10
34.99990223974223
 20
-3.994483972234013
 30
0.0
 10
34.99988342141424
 20
-3.993394863065831
 30
0.0
 10
34.99987196148707
 20
-3.992730984538069
 30
0.0
 10
34.99984791597898
 20
-3.991335846810399
 30
0.0
 10
34.99983512154275
 20
-3.990592495198188
 30
0.0
 10
34.99977100206411
 20
-3.986861438050711
 30
0.0
 10
34.99971951701145
 20
-3.983847042559757
 30
0.0
 10
34.99655721482704
 20
-3.797606491687699
 30
0.0
 10
34.99490021691692
 20
-3.631657075229392
 30
0.0
 10
34.99335586202058
 20
-3.291344393022032
 30
0.0
 10
34.99342838962979
 20
-3.120450689330814
 30
0.0
 10
34.9944905666219
 20
-2.794093596934612
 30
0.0
 10
34.99542235819546
 20
-2.639750004613032
 30
0.0
 10
34.99709804444896
 20
-2.414735845722062
 30
0.0
 10
34.9977290730945
 20
-2.340295319689321
 30
0.0
 10
34.9988220629386
 20
-2.22836657535766
 30
0.0
 10
34.99918481755976
 20
-2.190556481666073
 30
0.0
 10
34.99948693967443
 20
-2.138734418784771
 30
0.0
 10
34.99954739734473
 20
-2.121671569249936
 30
0.0
 10
34.99958626686591
 20
-2.098890305591024
 30
0.0
 10
34.99959049249361
 20
-2.091538076265717
 30
0.0
 10
34.99958778637564
 20
-2.078516658746413
 30
0.0
 10
34.99958019965074
 20
-2.072835314327237
 30
0.0
 10
34.99957228829783
 20
-2.069004766157904
 30
0.0
  0
SPLINE
  5
A9A6
330
A99B
100
AcDbEntity
  8
0
100
AcDbSpline
210
0.0
220
0.0
230
1.0
 70
     8
 71
     3
 72
    12
 73
     8
 74
     0
 42
0.000000001
 43
0.0000000001
 40
0.0
 40
0.0
 40
0.0
 40
0.0
 40
0.0073837082065479
 40
0.0073837082065479
 40
0.0094968776889419
 40
0.0094968776889419
 40
0.010685179895136
 40
0.010685179895136
 40
0.010685179895136
 40
0.010685179895136
 10
34.99996052260951
 20
-3.999985103458836
 30
0.0
 10
35.00000146855732
 20
-3.988676024693301
 30
0.0
 10
35.00005745707827
 20
-3.976740013347725
 30
0.0
 10
35.00011516119729
 20
-3.966761709146184
 30
0.0
 10
35.00012635319189
 20
-3.964941242423641
 30
0.0
 10
35.00013635879033
 20
-3.963322951691965
 30
0.0
 10
35.00013843235797
 20
-3.96298922641956
 30
0.0
 10
35.0001384322759
 20
-3.96298923974439
 30
0.0
  0
LINE
  5
A9A7
330
A99B
100
AcDbEntity
  8
0
100
AcDbLine
 10
-35.00000000000002
 20
-2.000000000000009
 30
0.0
 11
-35.00000000000002
 21
-2.069004766157098
 31
0.0
  0
SPLINE
  5
A9A8
330
A99B
100
AcDbEntity
  8
0
100
AcDbSpline
210
0.0
220
0.0
230
1.0
 70
     8
 71
     3
 72
    11
 73
     7
 74
     0
 42
0.000000001
 43
0.0000000001
 40
-1.0
 40
-1.0
 40
-1.0
 40
-1.0
 40
-0.7994286890801181
 40
-0.7994286890801181
 40
-0.7994286890801181
 40
-0.6533573777220786
 40
-0.6533573777220786
 40
-0.6533573777220786
 40
-0.6533573777220786
 10
-35.00000000000006
 20
-1.999999999999987
 30
0.0
 10
-34.99999961270326
 20
-1.999093543230733
 30
0.0
 10
-35.12633150599763
 20
-1.919863896640041
 30
0.0
 10
-35.336076945614
 20
-1.790687786216378
 30
0.0
 10
-35.48882955652141
 20
-1.69661189989357
 30
0.0
 10
-35.68837056419424
 20
-1.577391377857638
 30
0.0
 10
-35.91982716790673
 20
-1.445337717162789
 30
0.0
  0
SPLINE
  5
A9A9
330
A99B
100
AcDbEntity
  8
0
100
AcDbSpline
210
0.0
220
0.0
230
1.0
 70
     8
 71
     3
 72
    44
 73
    40
 74
     0
 42
0.000000001
 43
0.0000000001
 40
0.0
 40
0.0
 40
0.0
 40
0.0
 40
0.003804059807363
 40
0.003804059807363
 40
0.0084789254338551
 40
0.0084789254338551
 40
0.0158054478420707
 40
0.0158054478420707
 40
0.0260000339847146
 40
0.0260000339847146
 40
0.0495206344685893
 40
0.0495206344685893
 40
0.1201103986806932
 40
0.1201103986806932
 40
0.1773337575264832
 40
0.1773337575264832
 40
0.1997077569975614
 40
0.1997077569975614
 40
0.2080969749656743
 40
0.2080969749656743
 40
0.2112430424739864
 40
0.2112430424739864
 40
0.2124230725674139
 40
0.2124230725674139
 40
0.2133106396493141
 40
0.2133106396493141
 40
0.2136319407065755
 40
0.2136319407065755
 40
0.2138073508629823
 40
0.2138073508629823
 40
0.2140085740882849
 40
0.2140085740882849
 40
0.2141984398933639
 40
0.2141984398933639
 40
0.2144559942563259
 40
0.2144559942563259
 40
0.2149188670367886
 40
0.2149188670367886
 40
0.2157308985658561
 40
0.2157308985658561
 40
0.2157308985658561
 40
0.2157308985658561
 10
-34.99957228829781
 20
-2.069004766157098
 30
0.0
 10
-34.99958045322433
 20
-2.072958090532901
 30
0.0
 10
-34.99958825487937
 20
-2.07888109283506
 30
0.0
 10
-34.9995905378611
 20
-2.094285445188505
 30
0.0
 10
-34.99958182785654
 20
-2.104402911868331
 30
0.0
 10
-34.99951287324348
 20
-2.132562809791093
 30
0.0
 10
-34.99942216624617
 20
-2.152170789785707
 30
0.0
 10
-34.99908018252203
 20
-2.201629642070475
 30
0.0
 10
-34.9987801926573
 20
-2.232656804769862
 30
0.0
 10
-34.99777927584519
 20
-2.335149023211536
 30
0.0
 10
-34.99716324840991
 20
-2.406783097581126
 30
0.0
 10
-34.99498744667889
 20
-2.695965525925624
 30
0.0
 10
-34.99378539072455
 20
-2.921302552433827
 30
0.0
 10
-34.99344334745233
 20
-3.312943755458219
 30
0.0
 10
-34.99387955184821
 20
-3.483506432899055
 30
0.0
 10
-34.99604688414873
 20
-3.724130454610576
 30
0.0
 10
-34.99683251764498
 20
-3.792246821568003
 30
0.0
 10
-34.99816860863248
 20
-3.886855430236569
 30
0.0
 10
-34.99855832231047
 20
-3.912722675237636
 30
0.0
 10
-34.99913043075979
 20
-3.948497465490905
 30
0.0
 10
-34.99929002006753
 20
-3.958267222963416
 30
0.0
 10
-34.99951674148564
 20
-3.971857772954605
 30
0.0
 10
-34.99957935931729
 20
-3.975582719304616
 30
0.0
 10
-34.99969160787596
 20
-3.982207797351766
 30
0.0
 10
-34.99974104947651
 20
-3.985109290341124
 30
0.0
 10
-34.99981001170412
 20
-3.989131792313616
 30
0.0
 10
-34.9998288217452
 20
-3.990226545474456
 30
0.0
 10
-34.99985653018101
 20
-3.991835838395216
 30
0.0
 10
-34.99986615761082
 20
-3.992394322178235
 30
0.0
 10
-34.99988497913435
 20
-3.993485102774137
 30
0.0
 10
-34.99989406743072
 20
-3.994011119433956
 30
0.0
 10
-34.99990864668975
 20
-3.994854341582287
 30
0.0
 10
-34.99991453381917
 20
-3.995194525876901
 30
0.0
 10
-34.99992618854216
 20
-3.9958677094267
 30
0.0
 10
-34.99993132103185
 20
-3.996163909877076
 30
0.0
 10
-34.99994324640844
 20
-3.996851940200484
 30
0.0
 10
-34.99994826911834
 20
-3.997141442956582
 30
0.0
 10
-34.99995948080144
 20
-3.997787609007823
 30
0.0
 10
-34.99996362446369
 20
-3.998026246426209
 30
0.0
 10
-34.9999669829628
 20
-3.998219693831732
 30
0.0
  0
SPLINE
  5
A9AA
330
A99B
100
AcDbEntity
  8
0
100
AcDbSpline
210
0.0
220
0.0
230
1.0
 70
     8
 71
     3
 72
    14
 73
    10
 74
     0
 42
0.000000001
 43
0.0000000001
 40
0.0078284967119594
 40
0.0078284967119594
 40
0.0078284967119594
 40
0.0078284967119594
 40
0.008175470276135
 40
0.008175470276135
 40
0.0102323022532662
 40
0.0102323022532662
 40
0.0133243206224889
 40
0.0133243206224889
 40
0.0185174889492551
 40
0.0185174889492551
 40
0.0185174889492551
 40
0.0185174889492551
 10
-35.00013843227591
 20
-3.962989239743843
 30
0.0
 10
-35.0001384322759
 20
-3.962989239744376
 30
0.0
 10
-35.00013825702483
 20
-3.963017667594609
 30
0.0
 10
-35.00013591754632
 20
-3.963395595988022
 30
0.0
 10
-35.00012809275729
 20
-3.964642654723538
 30
0.0
 10
-35.00010165207872
 20
-3.969046452331527
 30
0.0
 10
-35.00007995556366
 20
-3.972835758835284
 30
0.0
 10
-35.00002328167423
 20
-3.983975794003571
 30
0.0
 10
-34.99998932103888
 20
-3.992031112320653
 30
0.0
 10
-34.99996052260952
 20
-3.999985103458836
 30
0.0
  0
LINE
  5
A9AB
330
A99B
100
AcDbEntity
  8
0
100
AcDbLine
 10
-37.00002899803195
 20
-3.989291181825515
 30
0.0
 11
-37.00002885636047
 21
-3.989249798110826
 31
0.0
  0
SPLINE
  5
A9AC
330
A99B
100
AcDbEntity
  8
0
100
AcDbSpline
210
0.0
220
0.0
230
1.0
 70
     8
 71
     3
 72
    14
 73
    10
 74
     0
 42
0.000000001
 43
0.0000000001
 40
0.0
 40
0.0
 40
0.0
 40
0.0
 40
0.0032434846846724
 40
0.0032434846846724
 40
0.0060138646311255
 40
0.0060138646311255
 40
0.0075916569236124
 40
0.0075916569236124
 40
0.007905752709137
 40
0.007905752709137
 40
0.007905752709137
 40
0.007905752709137
 10
-37.00007561070217
 20
-4.000000545744572
 30
0.0
 10
-37.00013191982159
 20
-3.992723008594387
 30
0.0
 10
-37.00020122245518
 20
-3.98600349715426
 30
0.0
 10
-37.00032918575759
 20
-3.975520321366814
 30
0.0
 10
-37.00038843661395
 20
-3.971430114601377
 30
0.0
 10
-37.00044735462707
 20
-3.967564487900436
 30
0.0
 10
-37.00046151096259
 20
-3.966688239545918
 30
0.0
 10
-37.00046622403178
 20
-3.966395704776649
 30
0.0
 10
-37.00046661805222
 20
-3.966371371483861
 30
0.0
 10
-37.00046661805243
 20
-3.966371371470712
 30
0.0
  0
SPLINE
  5
A9AD
330
A99B
100
AcDbEntity
  8
0
100
AcDbSpline
210
0.0
220
0.0
230
1.0
 70
     8
 71
     3
 72
    24
 73
    20
 74
     0
 42
0.000000001
 43
0.0000000001
 40
0.0470124642960719
 40
0.0470124642960719
 40
0.0470124642960719
 40
0.0470124642960719
 40
0.0470594861384042
 40
0.0470594861384042
 40
0.047222266993188
 40
0.047222266993188
 40
0.0473852754997769
 40
0.0473852754997769
 40
0.0477156442803198
 40
0.0477156442803198
 40
0.0480404845436504
 40
0.0480404845436504
 40
0.048597573543215
 40
0.048597573543215
 40
0.0497869622073831
 40
0.0497869622073831
 40
0.0528454614693362
 40
0.0528454614693362
 40
0.0562813691905104
 40
0.0562813691905104
 40
0.0562813691905104
 40
0.0562813691905104
 10
-37.0002032881932
 20
-3.986173504458039
 30
0.0
 10
-37.00020498471739
 20
-3.986066852150653
 30
0.0
 10
-37.00020673790119
 20
-3.985956866476573
 30
0.0
 10
-37.00021482566902
 20
-3.985450355203618
 30
0.0
 10
-37.00022190424611
 20
-3.985009745094027
 30
0.0
 10
-37.00023728141175
 20
-3.984060982512801
 30
0.0
 10
-37.00024569671286
 20
-3.983545742059181
 30
0.0
 10
-37.00027200251353
 20
-3.981950180797563
 30
0.0
 10
-37.00029116770526
 20
-3.980808390356891
 30
0.0
 10
-37.0003281684773
 20
-3.978644439834205
 30
0.0
 10
-37.00034655086132
 20
-3.977588311750703
 30
0.0
 10
-37.00039589246419
 20
-3.97479905623322
 30
0.0
 10
-37.00042683733689
 20
-3.973098996018491
 30
0.0
 10
-37.0005236523287
 20
-3.967911219523632
 30
0.0
 10
-37.00058996949538
 20
-3.964546878490873
 30
0.0
 10
-37.00083206543812
 20
-3.952823330792702
 30
0.0
 10
-37.00101736814973
 20
-3.944864406762913
 30
0.0
 10
-37.00143573429475
 20
-3.928560257833042
 30
0.0
 10
-37.0016733613401
 20
-3.920275300805131
 30
0.0
 10
-37.00192055535767
 20
-3.912382578987089
 30
0.0
  0
SPLINE
  5
A9AE
330
A99B
100
AcDbEntity
  8
0
100
AcDbSpline
210
0.0
220
0.0
230
1.0
 70
     8
 71
     3
 72
    22
 73
    18
 74
     0
 42
0.000000001
 43
0.0000000001
 40
0.0478424950245305
 40
0.0478424950245305
 40
0.0478424950245305
 40
0.0478424950245305
 40
0.0505206700631017
 40
0.0505206700631017
 40
0.0557907467965428
 40
0.0557907467965428
 40
0.0637354180238761
 40
0.0637354180238761
 40
0.0751923872035307
 40
0.0751923872035307
 40
0.0899440114219511
 40
0.0899440114219511
 40
0.1081757581520836
 40
0.1081757581520836
 40
0.1267677337709095
 40
0.1267677337709095
 40
0.1329166086658131
 40
0.1329166086658131
 40
0.1329166086658131
 40
0.1329166086658131
 10
-38.78400568579961
 20
-2.011697818841826
 30
0.0
 10
-38.79214624092994
 20
-2.011082366950043
 30
0.0
 10
-38.80063456013444
 20
-2.010483191879652
 30
0.0
 10
-38.82613745257323
 20
-2.008810540937782
 30
0.0
 10
-38.84370300485151
 20
-2.007822836347969
 30
0.0
 10
-38.88763450684236
 20
-2.005704464458495
 30
0.0
 10
-38.91435601573096
 20
-2.004731535278578
 30
0.0
 10
-38.97810991926575
 20
-2.002914647760394
 30
0.0
 10
-39.01514730008854
 20
-2.002286943483406
 30
0.0
 10
-39.09512567509169
 20
-2.001329432562353
 30
0.0
 10
-39.13569763763335
 20
-2.001132540015951
 30
0.0
 10
-39.22892435760879
 20
-2.00074191881303
 30
0.0
 10
-39.28733020078444
 20
-2.000505885538951
 30
0.0
 10
-39.40025108333202
 20
-2.000183972770551
 30
0.0
 10
-39.45905078738862
 20
-2.000081116914647
 30
0.0
 10
-39.5302306950284
 20
-2.000028132716558
 30
0.0
 10
-39.54733372376542
 20
-2.000021401162422
 30
0.0
 10
-39.56214430293329
 20
-2.000020290751272
 30
0.0
  0
LINE
  5
A9AF
330
A99B
100
AcDbEntity
  8
0
100
AcDbLine
 10
-35.0
 20
-2.000000000000009
 30
0.0
 11
-33.0
 21
-2.000000000000006
 31
0.0
  0
LINE
  5
A9B0
330
A99B
100
AcDbEntity
  8
0
100
AcDbLine
 10
-35.0
 20
-86.00000000000001
 30
0.0
 11
-32.99999999999999
 21
-86.00000000000001
 31
0.0
  0
LINE
  5
A9B1
330
A99B
100
AcDbEntity
  8
0
100
AcDbLine
 10
33.00000000000001
 20
-2.000000000000006
 30
0.0
 11
-33.00000000000001
 21
-2.000000000000006
 31
0.0
  0
LINE
  5
A9B2
330
A99B
100
AcDbEntity
  8
0
100
AcDbLine
 10
-32.99999999999999
 20
-86.00000000000001
 30
0.0
 11
32.99999999999997
 21
-86.00000000000001
 31
0.0
  0
CIRCLE
  5
A9B3
330
A99B
100
AcDbEntity
  8
0
100
AcDbCircle
 10
0.0
 20
-47.99999999999998
 30
0.0
 40
2.5
  0
CIRCLE
  5
A9B4
330
A99B
100
AcDbEntity
  8
0
100
AcDbCircle
 10
0.0
 20
-67.99999999999998
 30
0.0
 40
2.5
  0
LINE
  5
A9B5
330
A99B
100
AcDbEntity
  8
0
100
AcDbLine
 10
35.0
 20
-2.000000000000009
 30
0.0
 11
33.0
 21
-2.000000000000006
 31
0.0
  0
LINE
  5
A9B6
330
A99B
100
AcDbEntity
  8
0
100
AcDbLine
 10
39.0
 20
0.0
 30
0.0
 11
76.5
 21
0.0
 31
0.0
  0
ARC
  5
A9B7
330
A99B
100
AcDbEntity
  8
0
100
AcDbCircle
 10
39.0
 20
-4.000000000000004
 30
0.0
 40
3.999999999999999
100
AcDbArc
 50
90.00000000000012
 51
180.0
  0
LINE
  5
A9B8
330
A99B
100
AcDbEntity
  8
0
100
AcDbLine
 10
34.99999999999997
 20
-86.00000000000006
 30
0.0
 11
34.99999999999998
 21
-46.00000000000004
 31
0.0
  0
LINE
  5
A9B9
330
A99B
100
AcDbEntity
  8
0
100
AcDbLine
 10
36.99999999999998
 20
-86.00000000000006
 30
0.0
 11
34.99999999999997
 21
-86.00000000000006
 31
0.0
  0
LINE
  5
A9BA
330
A99B
100
AcDbEntity
  8
0
100
AcDbLine
 10
36.99999999999999
 20
-46.00000000000004
 30
0.0
 11
36.99999999999998
 21
-86.00000000000006
 31
0.0
  0
LINE
  5
A9BB
330
A99B
100
AcDbEntity
  8
0
100
AcDbLine
 10
34.99999999999998
 20
-46.00000000000001
 30
0.0
 11
36.99999999999999
 21
-46.00000000000001
 31
0.0
  0
LINE
  5
A9BC
330
A99B
100
AcDbEntity
  8
0
100
AcDbLine
 10
37.0
 20
-4.000000000000003
 30
0.0
 11
36.99999999999999
 21
-46.00000000000001
 31
0.0
  0
LINE
  5
A9BD
330
A99B
100
AcDbEntity
  8
0
100
AcDbLine
 10
34.99999999999998
 20
-46.00000000000001
 30
0.0
 11
35.0
 21
-4.000000000000003
 31
0.0
  0
LINE
  5
A9BE
330
A99B
100
AcDbEntity
  8
0
100
AcDbLine
 10
35.0
 20
-86.00000000000001
 30
0.0
 11
32.99999999999999
 21
-86.00000000000001
 31
0.0
  0
ARC
  5
A9BF
330
A99B
100
AcDbEntity
  8
0
100
AcDbCircle
 10
39.0
 20
-4.000000000000004
 30
0.0
 40
1.999999999999997
100
AcDbArc
 50
90.00000000000012
 51
180.0
  0
LINE
  5
A9C0
330
A99B
100
AcDbEntity
  8
0
100
AcDbLine
 10
76.5
 20
0.0
 30
0.0
 11
76.5
 21
-2.000000000000006
 31
0.0
  0
LINE
  5
A9C1
330
A99B
100
AcDbEntity
  8
0
100
AcDbLine
 10
76.5
 20
-2.000000000000006
 30
0.0
 11
39.0
 21
-2.000000000000006
 31
0.0
  0
LINE
  5
A9C2
330
A99B
100
AcDbEntity
  8
0
100
AcDbLine
 10
-76.5
 20
-2.000000000000006
 30
0.0
 11
-39.0
 21
-2.000000000000006
 31
0.0
  0
LINE
  5
A9C3
330
A99B
100
AcDbEntity
  8
0
100
AcDbLine
 10
-34.99999999999998
 20
-46.00000000000001
 30
0.0
 11
-35.0
 21
-4.000000000000003
 31
0.0
  0
LINE
  5
A9C4
330
A99B
100
AcDbEntity
  8
0
100
AcDbLine
 10
-37.0
 20
-4.000000000000003
 30
0.0
 11
-36.99999999999999
 21
-46.00000000000001
 31
0.0
  0
LINE
  5
A9C5
330
A99B
100
AcDbEntity
  8
0
100
AcDbLine
 10
-39.0
 20
0.0
 30
0.0
 11
-76.5
 21
0.0
 31
0.0
  0
LINE
  5
A9C6
330
A99B
100
AcDbEntity
  8
0
100
AcDbLine
 10
-76.5
 20
0.0
 30
0.0
 11
-76.5
 21
-2.000000000000006
 31
0.0
  0
ARC
  5
A9C7
330
A99B
100
AcDbEntity
  8
0
100
AcDbCircle
 10
-39.0
 20
-4.000000000000004
 30
0.0
 40
1.999999999999997
100
AcDbArc
 50
0.0
 51
89.99999999999987
  0
ARC
  5
A9C8
330
A99B
100
AcDbEntity
  8
0
100
AcDbCircle
 10
-39.0
 20
-4.000000000000004
 30
0.0
 40
3.999999999999999
100
AcDbArc
 50
0.0
 51
89.99999999999987
  0
LINE
  5
A9C9
330
A99B
100
AcDbEntity
  8
0
100
AcDbLine
 10
-34.99999999999998
 20
-46.00000000000004
 30
0.0
 11
-34.99999999999997
 21
-86.00000000000006
 31
0.0
  0
LINE
  5
A9CA
330
A99B
100
AcDbEntity
  8
0
100
AcDbLine
 10
-36.99999999999998
 20
-86.00000000000006
 30
0.0
 11
-36.99999999999999
 21
-46.00000000000004
 31
0.0
  0
LINE
  5
A9CB
330
A99B
100
AcDbEntity
  8
0
100
AcDbLine
 10
-34.99999999999997
 20
-86.00000000000006
 30
0.0
 11
-36.99999999999998
 21
-86.00000000000006
 31
0.0
  0
LINE
  5
A9CC
330
A99B
100
AcDbEntity
  8
0
100
AcDbLine
 10
-36.99999999999999
 20
-46.00000000000001
 30
0.0
 11
-34.99999999999998
 21
-46.00000000000001
 31
0.0
  0
ENDBLK
  5
A99D
330
A99B
100
AcDbEntity
  8
0
100
AcDbBlockEnd
  0
BLOCK
  5
A9CE
330
A9CD
100
AcDbEntity
  8
0
100
AcDbBlockBegin
  2
SAE440_70_2-Bottom
 70
     0
 10
0.0
 20
0.0
 30
0.0
  3
SAE440_70_2-Bottom
  1

  0
SPLINE
  5
A9D0
330
A9CD
100
AcDbEntity
  8
0
100
AcDbSpline
210
0.0
220
0.0
230
1.0
 70
     8
 71
     3
 72
    14
 73
    10
 74
     0
 42
0.000000001
 43
0.0000000001
 40
0.0
 40
0.0
 40
0.0
 40
0.0
 40
0.343516559141351
 40
0.343516559141351
 40
0.343516559141351
 40
0.7569936138443915
 40
0.7569936138443915
 40
0.7569936138443915
 40
1.0
 40
1.0
 40
1.0
 40
1.0
 10
39.60606060606064
 20
1.999999999999997
 30
0.0
 10
39.28490249290682
 20
2.000036880260028
 30
0.0
 10
38.87245901693523
 20
1.996833903329723
 30
0.0
 10
38.47646762709899
 20
1.998675521249929
 30
0.0
 10
37.99982873095228
 20
2.000892202610033
 30
0.0
 10
37.53730090289394
 20
2.001068608701493
 30
0.0
 10
37.2624310701608
 20
2.001123034011925
 30
0.0
 10
37.10088613325093
 20
2.00115502054625
 30
0.0
 10
36.99999576702378
 20
2.000250549241702
 30
0.0
 10
36.99999999948816
 20
1.999999999992551
 30
0.0
  0
LINE
  5
A9D1
330
A9CD
100
AcDbEntity
  8
0
100
AcDbLine
 10
39.00221802215925
 20
2.0
 30
0.0
 11
39.00614404873818
 21
2.0
 31
0.0
  0
LINE
  5
A9D2
330
A9CD
100
AcDbEntity
  8
0
100
AcDbLine
 10
39.56214430293324
 20
2.0
 30
0.0
 11
39.60606060606064
 21
2.000000000000001
 31
0.0
  0
ARC
  5
A9D3
330
A9CD
100
AcDbEntity
  8
0
100
AcDbCircle
 10
39.0
 20
4.000000000000004
 30
0.0
 40
2.000000000000001
100
AcDbArc
 50
182.3975805263949
 51
263.75997091444
  0
ARC
  5
A9D4
330
A9CD
100
AcDbEntity
  8
0
100
AcDbCircle
 10
39.0
 20
4.000000000000004
 30
0.0
 40
4.000000000000002
100
AcDbArc
 50
219.6927749101226
 51
270.0
  0
LINE
  5
A9D5
330
A9CD
100
AcDbEntity
  8
0
100
AcDbLine
 10
39.60606060606064
 20
0.0
 30
0.0
 11
39.0
 21
0.0
 31
0.0
  0
SPLINE
  5
A9D6
330
A9CD
100
AcDbEntity
  8
0
100
AcDbSpline
210
0.0
220
0.0
230
1.0
 70
     8
 71
     3
 72
    17
 73
    13
 74
     0
 42
0.000000001
 43
0.0000000001
 40
-1.0
 40
-1.0
 40
-1.0
 40
-1.0
 40
-0.7994286890801181
 40
-0.7994286890801181
 40
-0.7994286890801181
 40
-0.3760960081012829
 40
-0.3760960081012829
 40
-0.3760960081012829
 40
-0.0765284972672977
 40
-0.0765284972672977
 40
-0.0765284972672977
 40
0.0
 40
0.0
 40
0.0
 40
0.0
 10
35.00000000000006
 20
1.999999999999987
 30
0.0
 10
34.99999961270326
 20
1.999093543230733
 30
0.0
 10
35.12633150599763
 20
1.919863896640041
 30
0.0
 10
35.336076945614
 20
1.790687786216378
 30
0.0
 10
35.77877285695176
 20
1.518044261610254
 30
0.0
 10
36.61445008342431
 20
1.03420794788875
 30
0.0
 10
37.48107962100696
 20
0.6388614064446239
 30
0.0
 10
38.09434210947952
 20
0.3590980320143773
 30
0.0
 10
38.71765761685198
 20
0.1217220476570533
 30
0.0
 10
39.23393420694226
 20
0.0342615816140276
 30
0.0
 10
39.3658239152217
 20
0.0119186445647574
 30
0.0
 10
39.48832026105172
 20
0.0000045452574086
 30
0.0
 10
39.60606060611088
 20
0.0000000001152106
 30
0.0
  0
LINE
  5
A9D7
330
A9CD
100
AcDbEntity
  8
0
100
AcDbLine
 10
39.60606060606064
 20
2.000000000000001
 30
0.0
 11
39.60606060606064
 21
0.0
 31
0.0
  0
SPLINE
  5
A9D8
330
A9CD
100
AcDbEntity
  8
0
100
AcDbSpline
210
0.0
220
0.0
230
1.0
 70
     8
 71
     3
 72
    30
 73
    26
 74
     0
 42
0.000000001
 43
0.0000000001
 40
0.0364436676038455
 40
0.0364436676038455
 40
0.0364436676038455
 40
0.0364436676038455
 40
0.0380818744696677
 40
0.0380818744696677
 40
0.0410710676619764
 40
0.0410710676619764
 40
0.0442713980102143
 40
0.0442713980102143
 40
0.0469837442387651
 40
0.0469837442387651
 40
0.0505206700638809
 40
0.0505206700638809
 40
0.0557907467977589
 40
0.0557907467977589
 40
0.0637354180257067
 40
0.0637354180257067
 40
0.0751923872061003
 40
0.0751923872061003
 40
0.0899440114249681
 40
0.0899440114249681
 40
0.1081757581413507
 40
0.1081757581413507
 40
0.1267677337637276
 40
0.1267677337637276
 40
0.1329166086657953
 40
0.1329166086657953
 40
0.1329166086657953
 40
0.1329166086657953
 10
38.72383606962401
 20
2.01714619207877
 30
0.0
 10
38.72383606954497
 20
2.01714619208762
 30
0.0
 10
38.72433092021275
 20
2.017090688263535
 30
0.0
 10
38.72692274093469
 20
2.016807862413778
 30
0.0
 10
38.72981147760567
 20
2.016495928556788
 30
0.0
 10
38.7391325121183
 20
2.015552740409996
 30
0.0
 10
38.74599009090901
 20
2.01488600100486
 30
0.0
 10
38.76067270209986
 20
2.013570511789618
 30
0.0
 10
38.76830173289
 20
2.012924217374335
 30
0.0
 10
38.7867115625138
 20
2.011471035808691
 30
0.0
 10
38.79787915812822
 20
2.010663909646122
 30
0.0
 10
38.82613745258281
 20
2.008810540937205
 30
0.0
 10
38.84370300486266
 20
2.007822836347366
 30
0.0
 10
38.88763450685711
 20
2.005704464457882
 30
0.0
 10
38.91435601574771
 20
2.004731535278004
 30
0.0
 10
38.97810991928647
 20
2.002914647759947
 30
0.0
 10
39.01514730011115
 20
2.002286943483048
 30
0.0
 10
39.09512567511605
 20
2.001329432562174
 30
0.0
 10
39.13569763765625
 20
2.001132540015837
 30
0.0
 10
39.22892435759806
 20
2.000741918813099
 30
0.0
 10
39.28733020072691
 20
2.000505885539193
 30
0.0
 10
39.40025108324535
 20
2.000183972770712
 30
0.0
 10
39.45905078731049
 20
2.000081116914748
 30
0.0
 10
39.53023069498872
 20
2.000028132716574
 30
0.0
 10
39.54733372374814
 20
2.000021401162424
 30
0.0
 10
39.56214430293324
 20
2.000020290751272
 30
0.0
  0
SPLINE
  5
A9D9
330
A9CD
100
AcDbEntity
  8
0
100
AcDbSpline
210
0.0
220
0.0
230
1.0
 70
     8
 71
     3
 72
     8
 73
     4
 74
     0
 42
0.000000001
 43
0.0000000001
 40
0.0
 40
0.0
 40
0.0
 40
0.0
 40
0.0021922128754018
 40
0.0021922128754018
 40
0.0021922128754018
 40
0.0021922128754018
 10
37.00007561070218
 20
4.000000545744571
 30
0.0
 10
37.00011366902174
 20
3.995081789470813
 30
0.0
 10
37.00015752102137
 20
3.990423534134935
 30
0.0
 10
37.00020349201399
 20
3.986165730192698
 30
0.0
  0
SPLINE
  5
A9DA
330
A9CD
100
AcDbEntity
  8
0
100
AcDbSpline
210
0.0
220
0.0
230
1.0
 70
     8
 71
     3
 72
    42
 73
    38
 74
     0
 42
0.000000001
 43
0.0000000001
 40
0.0208995099379159
 40
0.0208995099379159
 40
0.0208995099379159
 40
0.0208995099379159
 40
0.0215652949464126
 40
0.0215652949464126
 40
0.0272926506462573
 40
0.0272926506462573
 40
0.04446150553622
 40
0.04446150553622
 40
0.0458716636171939
 40
0.0458716636171939
 40
0.0463959747259726
 40
0.0463959747259726
 40
0.0467402723868636
 40
0.0467402723868636
 40
0.0470594861483303
 40
0.0470594861483303
 40
0.0472222670034835
 40
0.0472222670034835
 40
0.04738527550963
 40
0.04738527550963
 40
0.0477156442903786
 40
0.0477156442903786
 40
0.0480404845534377
 40
0.0480404845534377
 40
0.0485975735560996
 40
0.0485975735560996
 40
0.0497869622582105
 40
0.0497869622582105
 40
0.0528454615391755
 40
0.0528454615391755
 40
0.0608569433497483
 40
0.0608569433497483
 40
0.0725270534720759
 40
0.0725270534720759
 40
0.0777168324024392
 40
0.0777168324024392
 40
0.0804599343296701
 40
0.0804599343296701
 40
0.0804599343296701
 40
0.0804599343296701
 10
37.00005494500373
 20
3.996550139378741
 30
0.0
 10
37.00005766156486
 20
3.996319345011651
 30
0.0
 10
37.0000602784455
 20
3.996099316552819
 30
0.0
 10
37.00008432070811
 20
3.994095289230054
 30
0.0
 10
37.00009667717962
 20
3.993179402825563
 30
0.0
 10
37.00011457606342
 20
3.991839500334959
 30
0.0
 10
37.00005184383839
 20
3.996173196458585
 30
0.0
 10
37.00012103904957
 20
3.991508538263719
 30
0.0
 10
37.00012746597646
 20
3.991074889017446
 30
0.0
 10
37.00014525703929
 20
3.989901322783953
 30
0.0
 10
37.00015105184651
 20
3.989520423667011
 30
0.0
 10
37.00016443236101
 20
3.988650910877055
 30
0.0
 10
37.00017075323891
 20
3.988241896358879
 30
0.0
 10
37.00018667833253
 20
3.987222673952564
 30
0.0
 10
37.00019624506712
 20
3.986613999428084
 30
0.0
 10
37.00021482567
 20
3.985450355143242
 30
0.0
 10
37.00022190424741
 20
3.985009745013366
 30
0.0
 10
37.00023728141319
 20
3.984060982424548
 30
0.0
 10
37.00024569671412
 20
3.98354574198197
 30
0.0
 10
37.00027200251489
 20
3.981950180715839
 30
0.0
 10
37.00029116770667
 20
3.980808390275353
 30
0.0
 10
37.0003281684787
 20
3.97864443975467
 30
0.0
 10
37.00034655086277
 20
3.977588311666588
 30
0.0
 10
37.00039589246576
 20
3.974799056144948
 30
0.0
 10
37.00042683733839
 20
3.973098995937375
 30
0.0
 10
37.0005236523325
 20
3.96791121932359
 30
0.0
 10
37.00058996950187
 20
3.964546878163189
 30
0.0
 10
37.00083206544814
 20
3.952823330342301
 30
0.0
 10
37.00101736816107
 20
3.944864406286732
 30
0.0
 10
37.0017304902888
 20
3.917073320741826
 30
0.0
 10
37.00233445971605
 20
3.898814166563482
 30
0.0
 10
37.00383645518146
 20
3.860103829125463
 30
0.0
 10
37.00474895098985
 20
3.842295198838526
 30
0.0
 10
37.00559432131778
 20
3.82696073695534
 30
0.0
 10
37.00582699304886
 20
3.822999219004016
 30
0.0
 10
37.00603368915547
 20
3.819550803753972
 30
0.0
 10
37.00607492124169
 20
3.818880539294778
 30
0.0
 10
37.00607492126273
 20
3.818880538951558
 30
0.0
  0
SPLINE
  5
A9DB
330
A9CD
100
AcDbEntity
  8
0
100
AcDbSpline
210
0.0
220
0.0
230
1.0
 70
     8
 71
     3
 72
     8
 73
     4
 74
     0
 42
0.000000001
 43
0.0000000001
 40
0.0
 40
0.0
 40
0.0
 40
0.0
 40
0.0035844670246983
 40
0.0035844670246983
 40
0.0035844670246983
 40
0.0035844670246983
 10
37.00006818308742
 20
3.99999980454363
 30
0.0
 10
37.00004435171727
 20
3.993919444595803
 30
0.0
 10
37.0000208873583
 20
3.987176465232441
 30
0.0
 10
37.00000004833697
 20
3.980382203438352
 30
0.0
  0
CIRCLE
  5
A9DC
330
A9CD
100
AcDbEntity
  8
0
100
AcDbCircle
 10
0.0
 20
67.99999999999998
 30
0.0
 40
2.5
  0
CIRCLE
  5
A9DD
330
A9CD
100
AcDbEntity
  8
0
100
AcDbCircle
 10
0.0
 20
47.99999999999998
 30
0.0
 40
2.5
  0
LINE
  5
A9DE
330
A9CD
100
AcDbEntity
  8
0
100
AcDbLine
 10
33.00000000000001
 20
2.000000000000006
 30
0.0
 11
-33.00000000000001
 21
2.000000000000006
 31
0.0
  0
LINE
  5
A9DF
330
A9CD
100
AcDbEntity
  8
0
100
AcDbLine
 10
32.99999999999998
 20
86.00000000000001
 30
0.0
 11
-32.99999999999999
 21
86.00000000000001
 31
0.0
  0
SPLINE
  5
A9E0
330
A9CD
100
AcDbEntity
  8
0
100
AcDbSpline
210
0.0
220
0.0
230
1.0
 70
     8
 71
     3
 72
    17
 73
    13
 74
     0
 42
0.000000001
 43
0.0000000001
 40
-1.0
 40
-1.0
 40
-1.0
 40
-1.0
 40
-0.7994286890801181
 40
-0.7994286890801181
 40
-0.7994286890801181
 40
-0.3760960081012829
 40
-0.3760960081012829
 40
-0.3760960081012829
 40
-0.0765284972672977
 40
-0.0765284972672977
 40
-0.0765284972672977
 40
0.0
 40
0.0
 40
0.0
 40
0.0
 10
-35.00000000000006
 20
1.999999999999987
 30
0.0
 10
-34.99999961270326
 20
1.999093543230733
 30
0.0
 10
-35.12633150599763
 20
1.919863896640041
 30
0.0
 10
-35.336076945614
 20
1.790687786216378
 30
0.0
 10
-35.77877285695176
 20
1.518044261610254
 30
0.0
 10
-36.61445008342431
 20
1.03420794788875
 30
0.0
 10
-37.48107962100696
 20
0.6388614064446239
 30
0.0
 10
-38.09434210947952
 20
0.3590980320143773
 30
0.0
 10
-38.71765761685198
 20
0.1217220476570533
 30
0.0
 10
-39.23393420694226
 20
0.0342615816140276
 30
0.0
 10
-39.3658239152217
 20
0.0119186445647574
 30
0.0
 10
-39.48832026105172
 20
0.0000045452574086
 30
0.0
 10
-39.60606060611088
 20
0.0000000001152106
 30
0.0
  0
LINE
  5
A9E1
330
A9CD
100
AcDbEntity
  8
0
100
AcDbLine
 10
-39.0
 20
0.0
 30
0.0
 11
-39.60606060606064
 21
0.0
 31
0.0
  0
ARC
  5
A9E2
330
A9CD
100
AcDbEntity
  8
0
100
AcDbCircle
 10
-39.0
 20
4.000000000000004
 30
0.0
 40
4.000000000000002
100
AcDbArc
 50
270.0000000000001
 51
320.3072250898775
  0
ARC
  5
A9E3
330
A9CD
100
AcDbEntity
  8
0
100
AcDbCircle
 10
-39.0
 20
4.000000000000004
 30
0.0
 40
2.0
100
AcDbArc
 50
276.2400290855623
 51
357.602419473691
  0
LINE
  5
A9E4
330
A9CD
100
AcDbEntity
  8
0
100
AcDbLine
 10
-39.60606060606064
 20
2.000000000000001
 30
0.0
 11
-39.56214430293328
 21
2.000000000000001
 31
0.0
  0
LINE
  5
A9E5
330
A9CD
100
AcDbEntity
  8
0
100
AcDbLine
 10
-39.00614404873839
 20
2.000000000000001
 30
0.0
 11
-39.00221802215925
 21
2.000000000000001
 31
0.0
  0
SPLINE
  5
A9E6
330
A9CD
100
AcDbEntity
  8
0
100
AcDbSpline
210
0.0
220
0.0
230
1.0
 70
     8
 71
     3
 72
    14
 73
    10
 74
     0
 42
0.000000001
 43
0.0000000001
 40
0.0
 40
0.0
 40
0.0
 40
0.0
 40
0.343516559141351
 40
0.343516559141351
 40
0.343516559141351
 40
0.7569936138443915
 40
0.7569936138443915
 40
0.7569936138443915
 40
1.0
 40
1.0
 40
1.0
 40
1.0
 10
-39.60606060606064
 20
1.999999999999997
 30
0.0
 10
-39.28490249290682
 20
2.000036880260028
 30
0.0
 10
-38.87245901693523
 20
1.996833903329723
 30
0.0
 10
-38.47646762709899
 20
1.998675521249929
 30
0.0
 10
-37.99982873095228
 20
2.000892202610033
 30
0.0
 10
-37.53730090289394
 20
2.001068608701493
 30
0.0
 10
-37.2624310701608
 20
2.001123034011925
 30
0.0
 10
-37.10088613325093
 20
2.00115502054625
 30
0.0
 10
-36.99999576702378
 20
2.000250549241702
 30
0.0
 10
-36.99999999948816
 20
1.999999999992551
 30
0.0
  0
LINE
  5
A9E7
330
A9CD
100
AcDbEntity
  8
0
100
AcDbLine
 10
-39.60606060606064
 20
0.0
 30
0.0
 11
-39.60606060606064
 21
2.000000000000001
 31
0.0
  0
SPLINE
  5
A9E8
330
A9CD
100
AcDbEntity
  8
0
100
AcDbSpline
210
0.0
220
0.0
230
1.0
 70
     8
 71
     3
 72
    10
 73
     6
 74
     0
 42
0.000000001
 43
0.0000000001
 40
0.0194209731707042
 40
0.0194209731707042
 40
0.0194209731707042
 40
0.0194209731707042
 40
0.0196622419511795
 40
0.0196622419511795
 40
0.0230051729758233
 40
0.0230051729758233
 40
0.0230051729758233
 40
0.0230051729758233
 10
-37.00000000127186
 20
3.980395661629951
 30
0.0
 10
-37.00000140351039
 20
3.980852841242787
 30
0.0
 10
-37.00000281603941
 20
3.981310172737906
 30
0.0
 10
-37.00002398161054
 20
3.988091083062114
 30
0.0
 10
-37.00004595757214
 20
3.994329164035211
 30
0.0
 10
-37.00006818308742
 20
3.99999980454363
 30
0.0
  0
SPLINE
  5
A9E9
330
A9CD
100
AcDbEntity
  8
0
100
AcDbSpline
210
0.0
220
0.0
230
1.0
 70
     8
 71
     3
 72
    38
 73
    34
 74
     0
 42
0.000000001
 43
0.0000000001
 40
0.0399336909499213
 40
0.0399336909499213
 40
0.0399336909499213
 40
0.0399336909499213
 40
0.0469878131532427
 40
0.0469878131532427
 40
0.05588883006943
 40
0.05588883006943
 40
0.0663364448906844
 40
0.0663364448906844
 40
0.0719857389706058
 40
0.0719857389706058
 40
0.072684405312246
 40
0.072684405312246
 40
0.0728641129627343
 40
0.0728641129627343
 40
0.0730236562071676
 40
0.0730236562071676
 40
0.0731531586432961
 40
0.0731531586432961
 40
0.0734162395848828
 40
0.0734162395848828
 40
0.0736759696218337
 40
0.0736759696218337
 40
0.0740295976598509
 40
0.0740295976598509
 40
0.0747108945265669
 40
0.0747108945265669
 40
0.0763270379130377
 40
0.0763270379130377
 40
0.0811704701472239
 40
0.0811704701472239
 40
0.0956912320991311
 40
0.0956912320991311
 40
0.099485828778268
 40
0.099485828778268
 40
0.099485828778268
 40
0.099485828778268
 10
-37.00607492126284
 20
3.818880538949334
 30
0.0
 10
-37.00607492126567
 20
3.818880538903142
 30
0.0
 10
-37.00578748733889
 20
3.823572139831355
 30
0.0
 10
-37.00504768256763
 20
3.836773178485849
 30
0.0
 10
-37.00444213953744
 20
3.848146712883553
 30
0.0
 10
-37.00300542407283
 20
3.880404512108091
 30
0.0
 10
-37.00215806975252
 20
3.90273995729625
 30
0.0
 10
-37.00107504744977
 20
3.941895776023081
 30
0.0
 10
-37.00073811945258
 20
3.956122484446949
 30
0.0
 10
-37.00038592535037
 20
3.975346308163035
 30
0.0
 10
-37.00034639417145
 20
3.977574437089415
 30
0.0
 10
-37.00029679479058
 20
3.980480543839899
 30
0.0
 10
-37.00028660028078
 20
3.98108373191488
 30
0.0
 10
-37.00026771328802
 20
3.982212397810124
 30
0.0
 10
-37.0002588957283
 20
3.982744126835417
 30
0.0
 10
-37.0002436797349
 20
3.983669488473283
 30
0.0
 10
-37.00023707487888
 20
3.984074113403994
 30
0.0
 10
-37.00021837231405
 20
3.985226988810719
 30
0.0
 10
-37.00020742254164
 20
3.985912223673556
 30
0.0
 10
-37.00018981507817
 20
3.987022929244694
 30
0.0
 10
-37.0001827284808
 20
3.987474944005626
 30
0.0
 10
-37.0001686566447
 20
3.988377082211447
 30
0.0
 10
-37.0001624664198
 20
3.988778259975672
 30
0.0
 10
-37.00014725163242
 20
3.989768412405665
 30
0.0
 10
-37.00014072349482
 20
3.990199587230535
 30
0.0
 10
-37.00012271311062
 20
3.991392627883321
 30
0.0
 10
-37.00011664033887
 20
3.991804258124247
 30
0.0
 10
-37.0000968527852
 20
3.99314368239362
 30
0.0
 10
-37.00009438915275
 20
3.993322802872563
 30
0.0
 10
-37.00009023549246
 20
3.993612494044467
 30
0.0
 10
-37.00012025227986
 20
3.991345348472894
 30
0.0
 10
-37.00008240307824
 20
3.994287333473846
 30
0.0
 10
-37.00007025719845
 20
3.995246948297304
 30
0.0
 10
-37.00005476880737
 20
3.996562815394804
 30
0.0
  0
SPLINE
  5
A9EA
330
A9CD
100
AcDbEntity
  8
0
100
AcDbSpline
210
0.0
220
0.0
230
1.0
 70
     8
 71
     3
 72
     8
 73
     4
 74
     0
 42
0.000000001
 43
0.0000000001
 40
0.1181762785090613
 40
0.1181762785090613
 40
0.1181762785090613
 40
0.1181762785090613
 40
0.1203710376665896
 40
0.1203710376665896
 40
0.1203710376665896
 40
0.1203710376665896
 10
-37.00020328802964
 20
3.986173547013718
 30
0.0
 10
-37.00015734000047
 20
3.990429224096226
 30
0.0
 10
-37.00011371322695
 20
3.995076076274937
 30
0.0
 10
-37.00007561070218
 20
4.000000545744572
 30
0.0
  0
SPLINE
  5
A9EB
330
A9CD
100
AcDbEntity
  8
0
100
AcDbSpline
210
0.0
220
0.0
230
1.0
 70
     8
 71
     3
 72
    32
 73
    28
 74
     0
 42
0.000000001
 43
0.0000000001
 40
0.0
 40
0.0
 40
0.0
 40
0.0
 40
0.0062834381549431
 40
0.0062834381549431
 40
0.0147058049956824
 40
0.0147058049956824
 40
0.037375579407535
 40
0.037375579407535
 40
0.0501947864582436
 40
0.0501947864582436
 40
0.0667274351981145
 40
0.0667274351981145
 40
0.0745951079446948
 40
0.0745951079446948
 40
0.0808821788944068
 40
0.0808821788944068
 40
0.0854267844012584
 40
0.0854267844012584
 40
0.0883503176160751
 40
0.0883503176160751
 40
0.0902010186901196
 40
0.0902010186901196
 40
0.0931504657412659
 40
0.0931504657412659
 40
0.0957950367217233
 40
0.0957950367217233
 40
0.0964631606655261
 40
0.0964631606655261
 40
0.0964631606655261
 40
0.0964631606655261
 10
-39.56214430293328
 20
2.000020290751273
 30
0.0
 10
-39.5470096059634
 20
2.000021425462893
 30
0.0
 10
-39.52948500197313
 20
2.000028425796088
 30
0.0
 10
-39.48709187809877
 20
2.000060615576002
 30
0.0
 10
-39.46142391791584
 20
2.000092345612152
 30
0.0
 10
-39.36626722158301
 20
2.000257841536245
 30
0.0
 10
-39.29520834487723
 20
2.000490386303587
 30
0.0
 10
-39.18816022245888
 20
2.000912253182187
 30
0.0
 10
-39.1531528642719
 20
2.001031881989236
 30
0.0
 10
-39.07004998879838
 20
2.001571991471472
 30
0.0
 10
-39.01811518839041
 20
2.002075843426181
 30
0.0
 10
-38.938817117073
 20
2.003973453444809
 30
0.0
 10
-38.91258353151385
 20
2.004777578176756
 30
0.0
 10
-38.86545376781585
 20
2.006716589808776
 30
0.0
 10
-38.84430845982425
 20
2.007765721354644
 30
0.0
 10
-38.80896862822721
 20
2.009897236279099
 30
0.0
 10
-38.79426718195698
 20
2.010904595990995
 30
0.0
 10
-38.77187213357993
 20
2.01262990894359
 30
0.0
 10
-38.76345170628775
 20
2.013330600733731
 30
0.0
 10
-38.75130451239868
 20
2.014405930617823
 30
0.0
 10
-38.74694266114846
 20
2.014809472885518
 30
0.0
 10
-38.73705123412619
 20
2.015754670666459
 30
0.0
 10
-38.73234055575272
 20
2.016237576061231
 30
0.0
 10
-38.72656863505044
 20
2.016844122035554
 30
0.0
 10
-38.72469991147881
 20
2.017050246873185
 30
0.0
 10
-38.72391709527783
 20
2.017137115258457
 30
0.0
 10
-38.72383606964066
 20
2.017146192076912
 30
0.0
 10
-38.72383606962484
 20
2.017146192078683
 30
0.0
  0
LINE
  5
A9EC
330
A9CD
100
AcDbEntity
  8
0
100
AcDbLine
 10
-37.0
 20
2.000000000000012
 30
0.0
 11
-33.0
 21
2.000000000000006
 31
0.0
  0
LINE
  5
A9ED
330
A9CD
100
AcDbEntity
  8
0
100
AcDbLine
 10
-32.99999999999999
 20
86.00000000000001
 30
0.0
 11
-36.99999999999999
 21
86.00000000000001
 31
0.0
  0
LINE
  5
A9EE
330
A9CD
100
AcDbEntity
  8
0
100
AcDbLine
 10
-36.99999999999999
 20
2.000000000000012
 30
0.0
 11
-36.99999999999999
 21
86.00000000000001
 31
0.0
  0
LINE
  5
A9EF
330
A9CD
100
AcDbEntity
  8
0
100
AcDbLine
 10
37.0
 20
2.000000000000012
 30
0.0
 11
33.0
 21
2.000000000000006
 31
0.0
  0
LINE
  5
A9F0
330
A9CD
100
AcDbEntity
  8
0
100
AcDbLine
 10
36.99999999999999
 20
2.000000000000012
 30
0.0
 11
36.99999999999999
 21
86.00000000000001
 31
0.0
  0
LINE
  5
A9F1
330
A9CD
100
AcDbEntity
  8
0
100
AcDbLine
 10
32.99999999999999
 20
86.00000000000001
 30
0.0
 11
36.99999999999999
 21
86.00000000000001
 31
0.0
  0
LINE
  5
A9F2
330
A9CD
100
AcDbEntity
  8
0
100
AcDbLine
 10
76.50000000000004
 20
0.0
 30
0.0
 11
39.60606060606064
 21
0.0
 31
0.0
  0
LINE
  5
A9F3
330
A9CD
100
AcDbEntity
  8
0
100
AcDbLine
 10
76.50000000000004
 20
1.999999999999992
 30
0.0
 11
76.50000000000004
 21
0.0
 31
0.0
  0
LINE
  5
A9F4
330
A9CD
100
AcDbEntity
  8
0
100
AcDbLine
 10
39.60606060606064
 20
2.000000000000001
 30
0.0
 11
76.50000000000004
 21
1.999999999999992
 31
0.0
  0
LINE
  5
A9F5
330
A9CD
100
AcDbEntity
  8
0
100
AcDbLine
 10
-76.50000000000004
 20
1.999999999999992
 30
0.0
 11
-39.60606060606064
 21
2.000000000000001
 31
0.0
  0
LINE
  5
A9F6
330
A9CD
100
AcDbEntity
  8
0
100
AcDbLine
 10
-76.50000000000004
 20
0.0
 30
0.0
 11
-76.50000000000004
 21
1.999999999999992
 31
0.0
  0
LINE
  5
A9F7
330
A9CD
100
AcDbEntity
  8
0
100
AcDbLine
 10
-39.60606060606064
 20
0.0
 30
0.0
 11
-76.50000000000004
 21
0.0
 31
0.0
  0
ENDBLK
  5
A9CF
330
A9CD
100
AcDbEntity
  8
0
100
AcDbBlockEnd
  0
BLOCK
  5
A9F9
330
A9F8
100
AcDbEntity
  8
0
100
AcDbBlockBegin
  2
SAE440_70_2-ISO
 70
     0
 10
0.0
 20
0.0
 30
0.0
  3
SAE440_70_2-ISO
  1

  0
LINE
  5
A9FB
330
A9F8
100
AcDbEntity
  8
0
100
AcDbLine
 10
54.92687006139762
 20
-52.79535291032809
 30
0.0
 11
54.67489739684499
 21
-52.94082939603597
 31
0.0
  0
SPLINE
  5
A9FC
330
A9F8
100
AcDbEntity
  8
0
100
AcDbSpline
210
0.0
220
0.0
230
1.0
 70
     8
 71
     3
 72
    14
 73
    10
 74
     0
 42
0.000000001
 43
0.0000000001
 40
0.0
 40
0.0
 40
0.0
 40
0.0
 40
0.343516559141351
 40
0.343516559141351
 40
0.343516559141351
 40
0.7569936138443915
 40
0.7569936138443915
 40
0.7569936138443915
 40
1.0
 40
1.0
 40
1.0
 40
1.0
 10
56.76963318812624
 20
-51.76700020897022
 30
0.0
 10
56.54251403020012
 20
-51.84819870877995
 30
0.0
 10
56.25313729819186
 20
-51.86402105520618
 30
0.0
 10
55.97182688062744
 20
-51.89189411385169
 30
0.0
 10
55.63322485456339
 20
-51.92544379257204
 30
0.0
 10
55.30604355291233
 20
-51.97705207903381
 30
0.0
 10
55.11164274573703
 20
-52.2024525082214
 30
0.0
 10
54.99739060748639
 20
-52.33492356825189
 30
0.0
 10
54.92668990316361
 20
-52.50296032928712
 30
0.0
 10
54.92687006104097
 20
-52.79535290876651
 30
0.0
  0
LINE
  5
A9FD
330
A9F8
100
AcDbEntity
  8
0
100
AcDbLine
 10
56.34108362377073
 20
-51.51957700262848
 30
0.0
 11
56.76963318812624
 21
-51.76700020897023
 31
0.0
  0
ELLIPSE
  5
A9FE
330
A9F8
100
AcDbEntity
  8
0
100
AcDbEllipse
 10
54.92687006139762
 20
-52.33607358355621
 30
0.0
 11
2.000000000000001
 21
-0.0000000000001193
 31
0.0
210
0.0
220
0.0
230
1.0
 40
0.5773502691896259
 41
0.7853981633976979
 42
2.356194490192619
  0
LINE
  5
A9FF
330
A9F8
100
AcDbEntity
  8
0
100
AcDbLine
 10
53.51265649902453
 20
-52.74793537540218
 30
0.0
 11
53.51265649902453
 21
-51.51957700262848
 31
0.0
  0
LINE
  5
AA00
330
A9F8
100
AcDbEntity
  8
0
100
AcDbLine
 10
53.51265649902453
 20
-52.85842147925578
 30
0.0
 11
53.51265649902453
 21
-52.74793537540218
 31
0.0
  0
LINE
  5
AA01
330
A9F8
100
AcDbEntity
  8
0
100
AcDbLine
 10
53.51265649902453
 20
-53.61184949125581
 30
0.0
 11
53.51265649902453
 21
-52.85842147925578
 31
0.0
  0
LINE
  5
AA02
330
A9F8
100
AcDbEntity
  8
0
100
AcDbLine
 10
54.67489739684499
 20
-52.94082939603597
 30
0.0
 11
53.51265649902453
 21
-53.61184949125581
 31
0.0
  0
ELLIPSE
  5
AA03
330
A9F8
100
AcDbEntity
  8
0
100
AcDbEllipse
 10
-17.90512840081675
 20
-86.6799610188287
 30
0.0
 11
-2.5
 21
-0.000000000000149
 31
0.0
210
0.0
220
0.0
230
1.0
 40
0.577350269189626
 41
3.742856870268575
 42
5.68192109050012
  0
ELLIPSE
  5
AA04
330
A9F8
100
AcDbEntity
  8
0
100
AcDbEllipse
 10
-3.7629927770858
 20
-78.51499520955144
 30
0.0
 11
-2.5
 21
-0.000000000000149
 31
0.0
210
0.0
220
0.0
230
1.0
 40
0.577350269189626
 41
3.742856870268582
 42
5.681921090500122
  0
LINE
  5
AA05
330
A9F8
100
AcDbEntity
  8
0
100
AcDbLine
 10
-7.29852668301858
 20
-107.5006238324857
 30
0.0
 11
-53.9675742413307
 21
-80.55623666187077
 31
0.0
  0
LINE
  5
AA06
330
A9F8
100
AcDbEntity
  8
0
100
AcDbLine
 10
4.015181815966188
 20
-23.40147599692994
 30
0.0
 11
4.015181815966202
 21
-42.18089735826764
 31
0.0
  0
LINE
  5
AA07
330
A9F8
100
AcDbEntity
  8
0
100
AcDbLine
 10
16.97557733963192
 20
-51.29657836451555
 30
0.0
 11
5.42939537833929
 21
-44.63038710105082
 31
0.0
  0
LINE
  5
AA08
330
A9F8
100
AcDbEntity
  8
0
100
AcDbLine
 10
-53.9675742413307
 20
-78.92324350001533
 30
0.0
 11
-7.298526683018584
 21
-105.8676306706303
 31
0.0
  0
ELLIPSE
  5
AA09
330
A9F8
100
AcDbEntity
  8
0
100
AcDbEllipse
 10
-3.7629927770858
 20
-76.88200204769599
 30
0.0
 11
-2.5
 21
0.0000000000001493
 31
0.0
210
0.0
220
0.0
230
1.0
 40
0.5773502691896259
 41
0.0
 42
6.283185307179586
  0
ELLIPSE
  5
AA0A
330
A9F8
100
AcDbEntity
  8
0
100
AcDbEllipse
 10
-17.90512840081675
 20
-85.04696785697326
 30
0.0
 11
-2.5
 21
0.0000000000001493
 31
0.0
210
0.0
220
0.0
230
1.0
 40
0.5773502691896259
 41
0.0
 42
6.283185307179586
  0
LINE
  5
AA0B
330
A9F8
100
AcDbEntity
  8
0
100
AcDbLine
 10
4.015181815966188
 20
-23.40147599692994
 30
0.0
 11
3.929939909961861
 21
-23.45069043430778
 31
0.0
  0
SPLINE
  5
AA0C
330
A9F8
100
AcDbEntity
  8
0
100
AcDbSpline
210
0.0
220
0.0
230
1.0
 70
     8
 71
     3
 72
    11
 73
     7
 74
     0
 42
0.000000001
 43
0.0000000001
 40
-1.0
 40
-1.0
 40
-1.0
 40
-1.0
 40
-0.7994286890801181
 40
-0.7994286890801181
 40
-0.7994286890801181
 40
-0.658142690513386
 40
-0.658142690513386
 40
-0.658142690513386
 40
-0.658142690513386
 10
4.015181815966171
 20
-23.40147599692994
 30
0.0
 10
4.015823051554763
 20
-23.00686391033814
 30
0.0
 10
3.982516733501468
 20
-22.64811562189882
 30
0.0
 10
3.925545614473646
 20
-22.30677889141444
 30
0.0
 10
3.885414145000805
 20
-22.06633522779771
 30
0.0
 10
3.830964551260818
 20
-21.83650106275759
 30
0.0
 10
3.763835718954258
 20
-21.6137088618486
 30
0.0
  0
ELLIPSE
  5
AA0D
330
A9F8
100
AcDbEntity
  8
0
100
AcDbEllipse
 10
-0.2274588711530834
 20
-20.4927069273749
 30
0.0
 11
4.000000000000003
 21
-0.0000000000000002
 31
0.0
210
0.0
220
0.0
230
1.0
 40
0.5773502691896259
 41
6.058746940106448
 42
6.283185307179586
  0
ELLIPSE
  5
AA0E
330
A9F8
100
AcDbEntity
  8
0
100
AcDbEllipse
 10
-0.2274588711530834
 20
-20.4927069273749
 30
0.0
 11
4.000000000000002
 21
-0.0000000000000001
 31
0.0
210
0.0
220
0.0
230
1.0
 40
0.577350269189626
 41
5.497787143782124
 42
6.058746940106448
  0
LINE
  5
AA0F
330
A9F8
100
AcDbEntity
  8
0
100
AcDbLine
 10
2.60096825359311
 20
-22.12570008923035
 30
0.0
 11
2.60096825359311
 21
-22.32166428963652
 31
0.0
  0
LINE
  5
AA10
330
A9F8
100
AcDbEntity
  8
0
100
AcDbLine
 10
2.60096825359311
 20
-22.32166428963652
 30
0.0
 11
2.60096825359311
 21
-24.21797257785768
 31
0.0
  0
LINE
  5
AA11
330
A9F8
100
AcDbEntity
  8
0
100
AcDbLine
 10
3.929939909961861
 20
-23.45069043430778
 30
0.0
 11
2.600968253593101
 21
-24.21797257785767
 31
0.0
  0
SPLINE
  5
AA12
330
A9F8
100
AcDbEntity
  8
0
100
AcDbSpline
210
0.0
220
0.0
230
1.0
 70
     8
 71
     3
 72
    16
 73
    12
 74
     0
 42
0.000000001
 43
0.0000000001
 40
0.0
 40
0.0
 40
0.0
 40
0.0
 40
0.0351246664980119
 40
0.0351246664980119
 40
0.0553378252873481
 40
0.0553378252873481
 40
0.0803966055314271
 40
0.0803966055314271
 40
0.1060254014798611
 40
0.1060254014798611
 40
0.1164300533706604
 40
0.1164300533706604
 40
0.1164300533706604
 40
0.1164300533706604
 10
3.76116845921361
 20
-20.66673466979169
 30
0.0
 10
3.745973833831617
 20
-20.78282291072913
 30
0.0
 10
3.731043959380393
 20
-20.90105118433843
 30
0.0
 10
3.716191322262201
 20
-21.07841634407642
 30
0.0
 10
3.712615348019796
 20
-21.14192928949475
 30
0.0
 10
3.710371575645101
 20
-21.27302350061734
 30
0.0
 10
3.713105603866413
 20
-21.3388766660181
 30
0.0
 10
3.724970702909247
 20
-21.45431758954046
 30
0.0
 10
3.734027272349882
 20
-21.50494388735344
 30
0.0
 10
3.750862028058099
 20
-21.57375467953991
 30
0.0
 10
3.756253648065626
 20
-21.59348521657348
 30
0.0
 10
3.762368417240908
 20
-21.61380643728783
 30
0.0
  0
ELLIPSE
  5
AA13
330
A9F8
100
AcDbEntity
  8
0
100
AcDbEllipse
 10
5.429395378339298
 20
-42.99739393919537
 30
0.0
 11
1.000000000000106
 21
-1.732050807568816
 31
0.0
210
0.0
220
0.0
230
1.0
 40
0.5773502691896267
 41
3.926990816987
 42
5.497787143781893
  0
LINE
  5
AA14
330
A9F8
100
AcDbEntity
  8
0
100
AcDbLine
 10
5.42939537833929
 20
-44.63038710105082
 30
0.0
 11
-53.9675742413307
 21
-78.92324350001533
 31
0.0
  0
ELLIPSE
  5
AA15
330
A9F8
100
AcDbEntity
  8
0
100
AcDbEllipse
 10
-53.9675742413307
 20
-77.29025033815988
 30
0.0
 11
2.000000000000209
 21
-3.464101615137639
 31
0.0
210
0.0
220
0.0
230
1.0
 40
0.5773502691896258
 41
3.926990816986997
 42
5.497787143781893
  0
LINE
  5
AA16
330
A9F8
100
AcDbEntity
  8
0
100
AcDbLine
 10
-55.3817878037038
 20
-76.47375375723216
 30
0.0
 11
4.015181815966206
 21
-42.18089735826764
 31
0.0
  0
LINE
  5
AA17
330
A9F8
100
AcDbEntity
  8
0
100
AcDbLine
 10
-56.79600136607689
 20
-75.65725717630442
 30
0.0
 11
-55.3817878037038
 21
-76.47375375723216
 31
0.0
  0
LINE
  5
AA18
330
A9F8
100
AcDbEntity
  8
0
100
AcDbLine
 10
-53.9675742413307
 20
-80.55623666187077
 30
0.0
 11
-53.9675742413307
 21
-78.92324350001533
 31
0.0
  0
ELLIPSE
  5
AA19
330
A9F8
100
AcDbEntity
  8
0
100
AcDbEllipse
 10
-53.9675742413307
 20
-77.29025033815988
 30
0.0
 11
1.000000000000104
 21
-1.732050807568819
 31
0.0
210
0.0
220
0.0
230
1.0
 40
0.5773502691896258
 41
3.926990816986997
 42
5.497787143781896
  0
LINE
  5
AA1A
330
A9F8
100
AcDbEntity
  8
0
100
AcDbLine
 10
54.92687006139761
 20
-71.57477427166577
 30
0.0
 11
54.92687006139762
 21
-52.79535291032809
 31
0.0
  0
ELLIPSE
  5
AA1B
330
A9F8
100
AcDbEntity
  8
0
100
AcDbEllipse
 10
52.09844293665143
 20
-69.94178110981033
 30
0.0
 11
1.999999999999999
 21
-3.464101615137756
 31
0.0
210
0.0
220
0.0
230
1.0
 40
0.5773502691896249
 41
0.0
 42
0.7853981633974465
  0
LINE
  5
AA1C
330
A9F8
100
AcDbEntity
  8
0
100
AcDbLine
 10
-7.29852668301858
 20
-105.8676306706303
 30
0.0
 11
-5.884313120645487
 21
-105.0511340897025
 31
0.0
  0
LINE
  5
AA1D
330
A9F8
100
AcDbEntity
  8
0
100
AcDbLine
 10
54.92687006139761
 20
-71.57477427166577
 30
0.0
 11
-4.470099558272382
 21
-105.8676306706303
 31
0.0
  0
ELLIPSE
  5
AA1E
330
A9F8
100
AcDbEntity
  8
0
100
AcDbEllipse
 10
-7.298526683018571
 20
-104.2346375087748
 30
0.0
 11
2.000000000000001
 21
-3.464101615137758
 31
0.0
210
0.0
220
0.0
230
0.9999999999999998
 40
0.5773502691896257
 41
5.497787143782137
 42
7.068583470577033
  0
LINE
  5
AA1F
330
A9F8
100
AcDbEntity
  8
0
100
AcDbLine
 10
82.8575879182663
 20
-41.97677321303575
 30
0.0
 11
84.27180148063939
 21
-41.16027663210802
 31
0.0
  0
LINE
  5
AA20
330
A9F8
100
AcDbEntity
  8
0
100
AcDbLine
 10
56.76963318812624
 20
-51.76700020897023
 30
0.0
 11
82.8575879182663
 21
-41.97677321303575
 31
0.0
  0
ELLIPSE
  5
AA21
330
A9F8
100
AcDbEntity
  8
0
100
AcDbEllipse
 10
70.48321924750168
 20
54.16569919120405
 30
0.0
 11
-3.249999999999998
 21
5.629165124598853
 31
0.0
210
0.0
220
0.0
230
1.0
 40
0.5773502691896258
 41
0.2193254863005963
 42
2.922267167289201
  0
ELLIPSE
  5
AA22
330
A9F8
100
AcDbEntity
  8
0
100
AcDbEllipse
 10
78.26139384055371
 20
61.92241671001745
 30
0.0
 11
1.250000000000129
 21
-2.165063509461022
 31
0.0
210
0.0
220
0.0
230
1.0
 40
0.5773502691896257
 41
3.742856870268585
 42
5.681921090500116
  0
LINE
  5
AA23
330
A9F8
100
AcDbEntity
  8
0
100
AcDbLine
 10
57.75529718614381
 20
77.84410003810809
 30
0.0
 11
84.27180148063934
 21
62.53478914571324
 31
0.0
  0
LINE
  5
AA24
330
A9F8
100
AcDbEntity
  8
0
100
AcDbLine
 10
84.27180148063939
 20
-41.16027663210802
 30
0.0
 11
84.27180148063934
 21
62.53478914571323
 31
0.0
  0
ELLIPSE
  5
AA25
330
A9F8
100
AcDbEntity
  8
0
100
AcDbEllipse
 10
54.92687006139762
 20
76.21110687625265
 30
0.0
 11
3.999999999999999
 21
-0.000000000000238
 31
0.0
210
0.0
220
0.0
230
1.0
 40
0.5773502691896259
 41
0.7853981633976881
 42
2.356194490192585
  0
ELLIPSE
  5
AA26
330
A9F8
100
AcDbEntity
  8
0
100
AcDbEllipse
 10
27.70325898571553
 20
51.51208530318893
 30
0.0
 11
1.24999999999987
 21
2.165063509461171
 31
0.0
210
0.0
220
0.0
230
1.0
 40
0.577350269189626
 41
3.742856870268578
 42
5.681921090500101
  0
ELLIPSE
  5
AA27
330
A9F8
100
AcDbEntity
  8
0
100
AcDbEllipse
 10
29.11747254808862
 20
50.69558872226121
 30
0.0
 11
-1.25
 21
-2.165063509461096
 31
0.0
210
0.0
220
0.0
230
1.0
 40
0.5773502691896259
 41
0.0
 42
6.283185307179586
  0
LINE
  5
AA28
330
A9F8
100
AcDbEntity
  8
0
100
AcDbLine
 10
-5.884313120645519
 20
-86.27171272836486
 30
0.0
 11
22.3999581268164
 21
-42.9973939391954
 31
0.0
  0
LINE
  5
AA29
330
A9F8
100
AcDbEntity
  8
0
100
AcDbLine
 10
-4.470099558272413
 20
-87.08820930929261
 30
0.0
 11
-5.884313120645519
 21
-86.27171272836486
 31
0.0
  0
LINE
  5
AA2A
330
A9F8
100
AcDbEntity
  8
0
100
AcDbLine
 10
23.8141716891895
 20
-43.81389052012313
 30
0.0
 11
-4.470099558272413
 21
-87.08820930929261
 31
0.0
  0
LINE
  5
AA2B
330
A9F8
100
AcDbEntity
  8
0
100
AcDbLine
 10
23.8141716891895
 20
-43.81389052012313
 30
0.0
 11
22.3999581268164
 21
-42.9973939391954
 31
0.0
  0
LINE
  5
AA2C
330
A9F8
100
AcDbEntity
  8
0
100
AcDbLine
 10
22.3999581268164
 20
-42.9973939391954
 30
0.0
 11
22.39995812681642
 21
60.69767183862585
 31
0.0
  0
LINE
  5
AA2D
330
A9F8
100
AcDbEntity
  8
0
100
AcDbLine
 10
23.81417168918952
 20
59.88117525769812
 30
0.0
 11
23.8141716891895
 21
-43.81389052012313
 31
0.0
  0
LINE
  5
AA2E
330
A9F8
100
AcDbEntity
  8
0
100
AcDbLine
 10
22.39995812681642
 20
60.69767183862585
 30
0.0
 11
23.81417168918952
 21
59.88117525769812
 31
0.0
  0
LINE
  5
AA2F
330
A9F8
100
AcDbEntity
  8
0
100
AcDbLine
 10
-4.470099558272413
 20
-87.08820930929261
 30
0.0
 11
-4.470099558272377
 21
-105.8676306706303
 31
0.0
  0
LINE
  5
AA30
330
A9F8
100
AcDbEntity
  8
0
100
AcDbLine
 10
53.51265649902453
 20
-51.51957700262848
 30
0.0
 11
53.51265649902453
 21
77.02760345718037
 31
0.0
  0
LINE
  5
AA31
330
A9F8
100
AcDbEntity
  8
0
100
AcDbLine
 10
53.51265649902453
 20
77.02760345718037
 30
0.0
 11
23.81417168918952
 21
59.88117525769812
 31
0.0
  0
LINE
  5
AA32
330
A9F8
100
AcDbEntity
  8
0
100
AcDbLine
 10
22.39995812681642
 20
60.69767183862585
 30
0.0
 11
52.09844293665144
 21
77.84410003810809
 31
0.0
  0
LINE
  5
AA33
330
A9F8
100
AcDbEntity
  8
0
100
AcDbLine
 10
-5.884313120645479
 20
-105.0511340897025
 30
0.0
 11
-5.884313120645519
 21
-86.27171272836486
 31
0.0
  0
LINE
  5
AA34
330
A9F8
100
AcDbEntity
  8
0
100
AcDbLine
 10
-7.29852668301858
 20
-105.8676306706303
 30
0.0
 11
-7.29852668301858
 21
-107.5006238324857
 31
0.0
  0
LINE
  5
AA35
330
A9F8
100
AcDbEntity
  8
0
100
AcDbLine
 10
-5.884313120645479
 20
-105.0511340897025
 30
0.0
 11
-4.470099558272377
 21
-105.8676306706303
 31
0.0
  0
ELLIPSE
  5
AA36
330
A9F8
100
AcDbEntity
  8
0
100
AcDbEllipse
 10
-7.298526683018571
 20
-104.2346375087748
 30
0.0
 11
1.0
 21
-1.732050807568879
 31
0.0
210
0.0
220
0.0
230
0.9999999999999998
 40
0.5773502691896257
 41
5.497787143782142
 42
7.068583470577038
  0
LINE
  5
AA37
330
A9F8
100
AcDbEntity
  8
0
100
AcDbLine
 10
56.34108362377073
 20
-51.51957700262848
 30
0.0
 11
56.34108362377071
 21
77.02760345718036
 31
0.0
  0
ELLIPSE
  5
AA38
330
A9F8
100
AcDbEntity
  8
0
100
AcDbEllipse
 10
54.92687006139762
 20
76.21110687625265
 30
0.0
 11
-1.999999999999997
 21
-0.0000000000001193
 31
0.0
210
0.0
220
0.0
230
1.0
 40
0.5773502691896259
 41
3.926990816986998
 42
5.497787143781891
  0
LINE
  5
AA39
330
A9F8
100
AcDbEntity
  8
0
100
AcDbLine
 10
84.27180148063934
 20
62.53478914571324
 30
0.0
 11
82.85758791826626
 21
61.7182925647855
 31
0.0
  0
LINE
  5
AA3A
330
A9F8
100
AcDbEntity
  8
0
100
AcDbLine
 10
82.8575879182663
 20
-41.97677321303575
 30
0.0
 11
82.85758791826626
 21
61.7182925647855
 31
0.0
  0
LINE
  5
AA3B
330
A9F8
100
AcDbEntity
  8
0
100
AcDbLine
 10
53.51265649902453
 20
77.02760345718037
 30
0.0
 11
52.09844293665144
 21
77.84410003810809
 31
0.0
  0
LINE
  5
AA3C
330
A9F8
100
AcDbEntity
  8
0
100
AcDbLine
 10
56.34108362377071
 20
77.02760345718037
 30
0.0
 11
57.75529718614381
 21
77.84410003810809
 31
0.0
  0
LINE
  5
AA3D
330
A9F8
100
AcDbEntity
  8
0
100
AcDbLine
 10
82.85758791826626
 20
61.7182925647855
 30
0.0
 11
56.34108362377071
 21
77.02760345718037
 31
0.0
  0
ELLIPSE
  5
AA3E
330
A9F8
100
AcDbEntity
  8
0
100
AcDbEllipse
 10
69.06900568512859
 20
53.34920261027633
 30
0.0
 11
-3.25
 21
5.629165124598853
 31
0.0
210
0.0
220
0.0
230
1.0
 40
0.5773502691896255
 41
0.0
 42
6.283185307179586
  0
ELLIPSE
  5
AA3F
330
A9F8
100
AcDbEntity
  8
0
100
AcDbEllipse
 10
76.84718027818061
 20
61.10592012908971
 30
0.0
 11
-1.249999999999999
 21
2.165063509461097
 31
0.0
210
0.0
220
0.0
230
0.9999999999999998
 40
0.5773502691896258
 41
0.0
 42
6.283185307179586
  0
LINE
  5
AA40
330
A9F8
100
AcDbEntity
  8
0
100
AcDbLine
 10
-5.298526683018569
 20
-107.6987391239126
 30
0.0
 11
54.09844293665145
 21
-73.4058827249481
 31
0.0
  0
ELLIPSE
  5
AA41
330
A9F8
100
AcDbEntity
  8
0
100
AcDbEllipse
 10
70.48321924750168
 20
-27.48395890156857
 30
0.0
 11
-3.25
 21
5.629165124598853
 31
0.0
210
0.0
220
0.0
230
1.0
 40
0.5773502691896258
 41
0.2193254863005913
 42
2.9222671672892
  0
ELLIPSE
  5
AA42
330
A9F8
100
AcDbEntity
  8
0
100
AcDbEllipse
 10
69.06900568512859
 20
-28.3004554824963
 30
0.0
 11
-3.25
 21
5.629165124598853
 31
0.0
210
0.0
220
0.0
230
1.0
 40
0.5773502691896255
 41
0.0
 42
6.283185307179586
  0
ELLIPSE
  5
AA43
330
A9F8
100
AcDbEntity
  8
0
100
AcDbEllipse
 10
62.70504465444965
 20
-35.24067642038197
 30
0.0
 11
1.250000000000128
 21
-2.165063509461022
 31
0.0
210
0.0
220
0.0
230
0.9999999999999998
 40
0.5773502691896259
 41
3.742856870268576
 42
5.681921090500122
  0
ELLIPSE
  5
AA44
330
A9F8
100
AcDbEntity
  8
0
100
AcDbEllipse
 10
62.70504465444965
 20
-18.91074480182744
 30
0.0
 11
1.250000000000128
 21
-2.165063509461022
 31
0.0
210
0.0
220
0.0
230
0.9999999999999998
 40
0.5773502691896259
 41
3.742856870268578
 42
5.681921090500122
  0
ELLIPSE
  5
AA45
330
A9F8
100
AcDbEntity
  8
0
100
AcDbEllipse
 10
62.70504465444965
 20
-2.580813183272923
 30
0.0
 11
1.250000000000128
 21
-2.165063509461022
 31
0.0
210
0.0
220
0.0
230
0.9999999999999998
 40
0.5773502691896259
 41
3.742856870268578
 42
5.681921090500122
  0
ELLIPSE
  5
AA46
330
A9F8
100
AcDbEntity
  8
0
100
AcDbEllipse
 10
62.70504465444965
 20
13.74911843528159
 30
0.0
 11
1.250000000000128
 21
-2.165063509461022
 31
0.0
210
0.0
220
0.0
230
0.9999999999999998
 40
0.5773502691896259
 41
3.742856870268578
 42
5.681921090500122
  0
ELLIPSE
  5
AA47
330
A9F8
100
AcDbEntity
  8
0
100
AcDbEllipse
 10
62.70504465444965
 20
30.07905005383612
 30
0.0
 11
1.250000000000128
 21
-2.165063509461022
 31
0.0
210
0.0
220
0.0
230
0.9999999999999998
 40
0.5773502691896259
 41
3.742856870268576
 42
5.681921090500122
  0
ELLIPSE
  5
AA48
330
A9F8
100
AcDbEntity
  8
0
100
AcDbEllipse
 10
62.70504465444965
 20
46.40898167239064
 30
0.0
 11
1.250000000000128
 21
-2.165063509461022
 31
0.0
210
0.0
220
0.0
230
0.9999999999999998
 40
0.5773502691896259
 41
3.742856870268576
 42
5.681921090500122
  0
ELLIPSE
  5
AA49
330
A9F8
100
AcDbEntity
  8
0
100
AcDbEllipse
 10
61.29083109207655
 20
-36.0571730013097
 30
0.0
 11
-1.249999999999999
 21
2.165063509461097
 31
0.0
210
0.0
220
0.0
230
0.9999999999999998
 40
0.5773502691896258
 41
0.0
 42
6.283185307179586
  0
ELLIPSE
  5
AA4A
330
A9F8
100
AcDbEntity
  8
0
100
AcDbEllipse
 10
61.29083109207655
 20
-19.72724138275517
 30
0.0
 11
-1.249999999999999
 21
2.165063509461097
 31
0.0
210
0.0
220
0.0
230
0.9999999999999998
 40
0.5773502691896258
 41
0.0
 42
6.283185307179586
  0
ELLIPSE
  5
AA4B
330
A9F8
100
AcDbEntity
  8
0
100
AcDbEllipse
 10
61.29083109207655
 20
-3.397309764200651
 30
0.0
 11
-1.249999999999999
 21
2.165063509461097
 31
0.0
210
0.0
220
0.0
230
0.9999999999999998
 40
0.5773502691896258
 41
0.0
 42
6.283185307179586
  0
ELLIPSE
  5
AA4C
330
A9F8
100
AcDbEntity
  8
0
100
AcDbEllipse
 10
61.29083109207655
 20
12.93262185435387
 30
0.0
 11
-1.249999999999999
 21
2.165063509461097
 31
0.0
210
0.0
220
0.0
230
0.9999999999999998
 40
0.5773502691896258
 41
0.0
 42
6.283185307179586
  0
ELLIPSE
  5
AA4D
330
A9F8
100
AcDbEntity
  8
0
100
AcDbEllipse
 10
61.29083109207655
 20
29.2625534729084
 30
0.0
 11
-1.249999999999999
 21
2.165063509461097
 31
0.0
210
0.0
220
0.0
230
0.9999999999999998
 40
0.5773502691896258
 41
0.0
 42
6.283185307179586
  0
ELLIPSE
  5
AA4E
330
A9F8
100
AcDbEntity
  8
0
100
AcDbEllipse
 10
61.29083109207655
 20
45.59248509146292
 30
0.0
 11
-1.249999999999999
 21
2.165063509461097
 31
0.0
210
0.0
220
0.0
230
0.9999999999999998
 40
0.5773502691896258
 41
0.0
 42
6.283185307179586
  0
ELLIPSE
  5
AA4F
330
A9F8
100
AcDbEntity
  8
0
100
AcDbEllipse
 10
62.70504465444965
 20
62.73891329094517
 30
0.0
 11
1.250000000000129
 21
-2.165063509461022
 31
0.0
210
0.0
220
0.0
230
1.0
 40
0.5773502691896257
 41
3.742856870268585
 42
5.681921090500116
  0
ELLIPSE
  5
AA50
330
A9F8
100
AcDbEntity
  8
0
100
AcDbEllipse
 10
61.29083109207655
 20
61.92241671001745
 30
0.0
 11
-1.249999999999999
 21
2.165063509461097
 31
0.0
210
0.0
220
0.0
230
0.9999999999999998
 40
0.5773502691896258
 41
0.0
 42
6.283185307179586
  0
ELLIPSE
  5
AA51
330
A9F8
100
AcDbEntity
  8
0
100
AcDbEllipse
 10
78.26139384055371
 20
-36.0571730013097
 30
0.0
 11
1.250000000000128
 21
-2.165063509461022
 31
0.0
210
0.0
220
0.0
230
0.9999999999999998
 40
0.5773502691896259
 41
3.742856870268576
 42
5.681921090500122
  0
ELLIPSE
  5
AA52
330
A9F8
100
AcDbEntity
  8
0
100
AcDbEllipse
 10
78.26139384055371
 20
-19.72724138275517
 30
0.0
 11
1.250000000000128
 21
-2.165063509461022
 31
0.0
210
0.0
220
0.0
230
0.9999999999999998
 40
0.5773502691896259
 41
3.742856870268578
 42
5.681921090500122
  0
ELLIPSE
  5
AA53
330
A9F8
100
AcDbEntity
  8
0
100
AcDbEllipse
 10
78.26139384055371
 20
-3.397309764200659
 30
0.0
 11
1.250000000000128
 21
-2.165063509461022
 31
0.0
210
0.0
220
0.0
230
0.9999999999999998
 40
0.5773502691896259
 41
3.742856870268578
 42
5.681921090500122
  0
ELLIPSE
  5
AA54
330
A9F8
100
AcDbEntity
  8
0
100
AcDbEllipse
 10
78.26139384055371
 20
12.93262185435386
 30
0.0
 11
1.250000000000128
 21
-2.165063509461022
 31
0.0
210
0.0
220
0.0
230
0.9999999999999998
 40
0.5773502691896259
 41
3.742856870268578
 42
5.681921090500122
  0
ELLIPSE
  5
AA55
330
A9F8
100
AcDbEntity
  8
0
100
AcDbEllipse
 10
78.26139384055371
 20
29.2625534729084
 30
0.0
 11
1.250000000000128
 21
-2.165063509461022
 31
0.0
210
0.0
220
0.0
230
0.9999999999999998
 40
0.5773502691896259
 41
3.742856870268576
 42
5.681921090500122
  0
ELLIPSE
  5
AA56
330
A9F8
100
AcDbEntity
  8
0
100
AcDbEllipse
 10
78.26139384055371
 20
45.59248509146292
 30
0.0
 11
1.250000000000128
 21
-2.165063509461022
 31
0.0
210
0.0
220
0.0
230
0.9999999999999998
 40
0.5773502691896259
 41
3.742856870268576
 42
5.681921090500122
  0
ELLIPSE
  5
AA57
330
A9F8
100
AcDbEntity
  8
0
100
AcDbEllipse
 10
-19.31934196318987
 20
100.2977560136206
 30
0.0
 11
1.25
 21
-2.165063509461097
 31
0.0
210
0.0
220
0.0
230
1.0
 40
0.5773502691896259
 41
0.0
 42
6.283185307179586
  0
ELLIPSE
  5
AA58
330
A9F8
100
AcDbEntity
  8
0
100
AcDbEllipse
 10
-17.90512840081678
 20
101.1142525945483
 30
0.0
 11
1.25000000000013
 21
-2.165063509461022
 31
0.0
210
0.0
220
0.0
230
1.0
 40
0.5773502691896259
 41
3.742856870268578
 42
5.681921090500116
  0
ELLIPSE
  5
AA59
330
A9F8
100
AcDbEntity
  8
0
100
AcDbEllipse
 10
76.84718027818061
 20
-36.87366958223743
 30
0.0
 11
-1.249999999999999
 21
2.165063509461097
 31
0.0
210
0.0
220
0.0
230
0.9999999999999998
 40
0.5773502691896258
 41
0.0
 42
6.283185307179586
  0
ELLIPSE
  5
AA5A
330
A9F8
100
AcDbEntity
  8
0
100
AcDbEllipse
 10
76.84718027818061
 20
-20.5437379636829
 30
0.0
 11
-1.249999999999999
 21
2.165063509461097
 31
0.0
210
0.0
220
0.0
230
0.9999999999999998
 40
0.5773502691896258
 41
0.0
 42
6.283185307179586
  0
ELLIPSE
  5
AA5B
330
A9F8
100
AcDbEntity
  8
0
100
AcDbEllipse
 10
76.84718027818061
 20
-4.213806345128388
 30
0.0
 11
-1.249999999999999
 21
2.165063509461097
 31
0.0
210
0.0
220
0.0
230
0.9999999999999998
 40
0.5773502691896258
 41
0.0
 42
6.283185307179586
  0
ELLIPSE
  5
AA5C
330
A9F8
100
AcDbEntity
  8
0
100
AcDbEllipse
 10
76.84718027818061
 20
12.11612527342613
 30
0.0
 11
-1.249999999999999
 21
2.165063509461097
 31
0.0
210
0.0
220
0.0
230
0.9999999999999998
 40
0.5773502691896258
 41
0.0
 42
6.283185307179586
  0
ELLIPSE
  5
AA5D
330
A9F8
100
AcDbEntity
  8
0
100
AcDbEllipse
 10
76.84718027818061
 20
28.44605689198066
 30
0.0
 11
-1.249999999999999
 21
2.165063509461097
 31
0.0
210
0.0
220
0.0
230
0.9999999999999998
 40
0.5773502691896258
 41
0.0
 42
6.283185307179586
  0
ELLIPSE
  5
AA5E
330
A9F8
100
AcDbEntity
  8
0
100
AcDbEllipse
 10
76.84718027818061
 20
44.77598851053518
 30
0.0
 11
-1.249999999999999
 21
2.165063509461097
 31
0.0
210
0.0
220
0.0
230
0.9999999999999998
 40
0.5773502691896258
 41
0.0
 42
6.283185307179586
  0
ELLIPSE
  5
AA5F
330
A9F8
100
AcDbEntity
  8
0
100
AcDbEllipse
 10
-11.54116737013783
 20
99.88950772315673
 30
0.0
 11
-3.250000000000003
 21
5.629165124598848
 31
0.0
210
0.0
220
0.0
230
1.0
 40
0.577350269189626
 41
4.71238898038469
 42
7.853981633974483
  0
ELLIPSE
  5
AA60
330
A9F8
100
AcDbEntity
  8
0
100
AcDbEllipse
 10
-10.12695380776474
 20
100.7060043040844
 30
0.0
 11
-3.25
 21
5.62916512459885
 31
0.0
210
0.0
220
0.0
230
1.0
 40
0.577350269189626
 41
0.2193254863005869
 42
1.570796326794897
  0
ELLIPSE
  5
AA61
330
A9F8
100
AcDbEntity
  8
0
100
AcDbEllipse
 10
-19.31934196318987
 20
116.6276876321751
 30
0.0
 11
1.25
 21
-2.165063509461097
 31
0.0
210
0.0
220
0.0
230
1.0
 40
0.5773502691896259
 41
0.0
 42
6.283185307179586
  0
ELLIPSE
  5
AA62
330
A9F8
100
AcDbEntity
  8
0
100
AcDbEllipse
 10
-17.90512840081678
 20
117.4441842131028
 30
0.0
 11
1.25000000000013
 21
-2.165063509461022
 31
0.0
210
0.0
220
0.0
230
1.0
 40
0.5773502691896259
 41
3.742856870268578
 42
5.681921090500121
  0
LINE
  5
AA63
330
A9F8
100
AcDbEntity
  8
0
100
AcDbLine
 10
1.186754691220013
 20
107.2379769515063
 30
0.0
 11
1.186754691220013
 21
108.8709701133617
 31
0.0
  0
ELLIPSE
  5
AA64
330
A9F8
100
AcDbEntity
  8
0
100
AcDbEllipse
 10
-0.2274588711530834
 20
108.054473532434
 30
0.0
 11
1.999999999999997
 21
0.0000000000000003
 31
0.0
210
0.0
220
0.0
230
1.0
 40
0.5773502691896258
 41
5.49778714378214
 42
7.068583470577028
  0
LINE
  5
AA65
330
A9F8
100
AcDbEntity
  8
0
100
AcDbLine
 10
2.60096825359311
 20
106.4214803705785
 30
0.0
 11
2.60096825359311
 21
-22.12570008923034
 31
0.0
  0
ELLIPSE
  5
AA66
330
A9F8
100
AcDbEntity
  8
0
100
AcDbEllipse
 10
-0.2274588711530834
 20
108.054473532434
 30
0.0
 11
3.999999999999999
 21
-0.0000000000000001
 31
0.0
210
0.0
220
0.0
230
1.0
 40
0.5773502691896259
 41
5.497787143782137
 42
7.068583470577034
  0
LINE
  5
AA67
330
A9F8
100
AcDbEntity
  8
0
100
AcDbLine
 10
1.186754691220013
 20
108.8709701133617
 30
0.0
 11
2.600968253593114
 21
109.6874666942894
 31
0.0
  0
LINE
  5
AA68
330
A9F8
100
AcDbEntity
  8
0
100
AcDbLine
 10
1.186754691220013
 20
107.2379769515062
 30
0.0
 11
2.60096825359311
 21
106.4214803705785
 31
0.0
  0
LINE
  5
AA69
330
A9F8
100
AcDbEntity
  8
0
100
AcDbLine
 10
3.772541128846924
 20
-20.4927069273749
 30
0.0
 11
3.772541128846924
 21
108.054473532434
 31
0.0
  0
LINE
  5
AA6A
330
A9F8
100
AcDbEntity
  8
0
100
AcDbLine
 10
-25.32974960327553
 20
124.1802810057565
 30
0.0
 11
1.186754691220013
 21
108.8709701133617
 31
0.0
  0
LINE
  5
AA6B
330
A9F8
100
AcDbEntity
  8
0
100
AcDbLine
 10
-25.32974960327555
 20
91.92866605911142
 30
0.0
 11
-25.32974960327553
 21
124.1802810057565
 31
0.0
  0
LINE
  5
AA6C
330
A9F8
100
AcDbEntity
  8
0
100
AcDbLine
 10
-55.3817878037038
 20
-76.47375375723216
 30
0.0
 11
-55.3817878037038
 21
-57.69433239589448
 31
0.0
  0
LINE
  5
AA6D
330
A9F8
100
AcDbEntity
  8
0
100
AcDbLine
 10
-27.09751655624188
 20
89.27505217109626
 30
0.0
 11
2.60096825359311
 21
106.4214803705785
 31
0.0
  0
LINE
  5
AA6E
330
A9F8
100
AcDbEntity
  8
0
100
AcDbLine
 10
-56.7960013660769
 20
-56.87783581496674
 30
0.0
 11
-56.79600136607689
 21
-75.65725717630441
 31
0.0
  0
LINE
  5
AA6F
330
A9F8
100
AcDbEntity
  8
0
100
AcDbLine
 10
1.186754691220013
 20
107.2379769515062
 30
0.0
 11
-28.51173011861499
 21
90.09154875202398
 31
0.0
  0
LINE
  5
AA70
330
A9F8
100
AcDbEntity
  8
0
100
AcDbLine
 10
2.600968253593114
 20
109.6874666942894
 30
0.0
 11
-23.91553604090243
 21
124.9967775866843
 31
0.0
  0
LINE
  5
AA71
330
A9F8
100
AcDbEntity
  8
0
100
AcDbLine
 10
-23.91553604090243
 20
124.9967775866843
 30
0.0
 11
-25.32974960327553
 21
124.1802810057565
 31
0.0
  0
ELLIPSE
  5
AA72
330
A9F8
100
AcDbEntity
  8
0
100
AcDbEllipse
 10
27.70325898571553
 20
-46.46750440813821
 30
0.0
 11
1.24999999999987
 21
2.165063509461171
 31
0.0
210
0.0
220
0.0
230
1.0
 40
0.577350269189626
 41
3.742856870268578
 42
5.681921090500118
  0
ELLIPSE
  5
AA73
330
A9F8
100
AcDbEntity
  8
0
100
AcDbEllipse
 10
29.11747254808862
 20
-47.28400098906593
 30
0.0
 11
-1.25
 21
-2.165063509461096
 31
0.0
210
0.0
220
0.0
230
1.0
 40
0.5773502691896259
 41
0.0
 42
6.283185307179586
  0
ELLIPSE
  5
AA74
330
A9F8
100
AcDbEntity
  8
0
100
AcDbEllipse
 10
27.70325898571553
 20
-30.13757278958369
 30
0.0
 11
1.24999999999987
 21
2.165063509461171
 31
0.0
210
0.0
220
0.0
230
1.0
 40
0.577350269189626
 41
3.742856870268578
 42
5.681921090500118
  0
ELLIPSE
  5
AA75
330
A9F8
100
AcDbEntity
  8
0
100
AcDbEllipse
 10
29.11747254808862
 20
-30.95406937051141
 30
0.0
 11
-1.25
 21
-2.165063509461096
 31
0.0
210
0.0
220
0.0
230
1.0
 40
0.5773502691896259
 41
0.0
 42
6.283185307179586
  0
ELLIPSE
  5
AA76
330
A9F8
100
AcDbEntity
  8
0
100
AcDbEllipse
 10
27.70325898571553
 20
-13.80764117102916
 30
0.0
 11
1.24999999999987
 21
2.165063509461171
 31
0.0
210
0.0
220
0.0
230
1.0
 40
0.577350269189626
 41
3.742856870268578
 42
5.681921090500118
  0
ELLIPSE
  5
AA77
330
A9F8
100
AcDbEntity
  8
0
100
AcDbEllipse
 10
29.11747254808862
 20
-14.62413775195688
 30
0.0
 11
-1.25
 21
-2.165063509461096
 31
0.0
210
0.0
220
0.0
230
1.0
 40
0.5773502691896259
 41
0.0
 42
6.283185307179586
  0
ELLIPSE
  5
AA78
330
A9F8
100
AcDbEntity
  8
0
100
AcDbEllipse
 10
27.70325898571553
 20
2.522290447525348
 30
0.0
 11
1.24999999999987
 21
2.165063509461171
 31
0.0
210
0.0
220
0.0
230
1.0
 40
0.577350269189626
 41
3.742856870268578
 42
5.681921090500118
  0
ELLIPSE
  5
AA79
330
A9F8
100
AcDbEntity
  8
0
100
AcDbEllipse
 10
29.11747254808862
 20
1.705793866597629
 30
0.0
 11
-1.25
 21
-2.165063509461096
 31
0.0
210
0.0
220
0.0
230
1.0
 40
0.5773502691896259
 41
0.0
 42
6.283185307179586
  0
ELLIPSE
  5
AA7A
330
A9F8
100
AcDbEntity
  8
0
100
AcDbEllipse
 10
27.70325898571553
 20
18.85222206607987
 30
0.0
 11
1.24999999999987
 21
2.165063509461171
 31
0.0
210
0.0
220
0.0
230
1.0
 40
0.577350269189626
 41
3.742856870268578
 42
5.681921090500118
  0
ELLIPSE
  5
AA7B
330
A9F8
100
AcDbEntity
  8
0
100
AcDbEllipse
 10
29.11747254808862
 20
18.03572548515215
 30
0.0
 11
-1.25
 21
-2.165063509461096
 31
0.0
210
0.0
220
0.0
230
1.0
 40
0.5773502691896259
 41
0.0
 42
6.283185307179586
  0
ELLIPSE
  5
AA7C
330
A9F8
100
AcDbEntity
  8
0
100
AcDbEllipse
 10
27.70325898571553
 20
35.1821536846344
 30
0.0
 11
1.24999999999987
 21
2.165063509461171
 31
0.0
210
0.0
220
0.0
230
1.0
 40
0.577350269189626
 41
3.742856870268578
 42
5.681921090500118
  0
ELLIPSE
  5
AA7D
330
A9F8
100
AcDbEntity
  8
0
100
AcDbEllipse
 10
29.11747254808862
 20
34.36565710370668
 30
0.0
 11
-1.25
 21
-2.165063509461096
 31
0.0
210
0.0
220
0.0
230
1.0
 40
0.5773502691896259
 41
0.0
 42
6.283185307179586
  0
ELLIPSE
  5
AA7E
330
A9F8
100
AcDbEntity
  8
0
100
AcDbEllipse
 10
-23.20842925971587
 20
-25.23859330401734
 30
0.0
 11
1.24999999999987
 21
2.165063509461171
 31
0.0
210
0.0
220
0.0
230
1.0
 40
0.5773502691896258
 41
3.742856870268578
 42
5.681921090500115
  0
ELLIPSE
  5
AA7F
330
A9F8
100
AcDbEntity
  8
0
100
AcDbEllipse
 10
-21.79421569734278
 20
-26.05508988494506
 30
0.0
 11
1.249999999999999
 21
2.165063509461097
 31
0.0
210
0.0
220
0.0
230
0.9999999999999998
 40
0.5773502691896258
 41
0.0
 42
6.283185307179586
  0
ELLIPSE
  5
AA80
330
A9F8
100
AcDbEntity
  8
0
100
AcDbEllipse
 10
-23.20842925971587
 20
-8.908661685462808
 30
0.0
 11
1.24999999999987
 21
2.165063509461171
 31
0.0
210
0.0
220
0.0
230
1.0
 40
0.5773502691896258
 41
3.742856870268578
 42
5.681921090500114
  0
ELLIPSE
  5
AA81
330
A9F8
100
AcDbEntity
  8
0
100
AcDbEllipse
 10
-21.79421569734278
 20
-9.725158266390536
 30
0.0
 11
1.249999999999999
 21
2.165063509461097
 31
0.0
210
0.0
220
0.0
230
0.9999999999999998
 40
0.5773502691896258
 41
0.0
 42
6.283185307179586
  0
ELLIPSE
  5
AA82
330
A9F8
100
AcDbEntity
  8
0
100
AcDbEllipse
 10
-23.20842925971587
 20
7.421269933091716
 30
0.0
 11
1.24999999999987
 21
2.165063509461171
 31
0.0
210
0.0
220
0.0
230
1.0
 40
0.5773502691896258
 41
3.742856870268578
 42
5.681921090500109
  0
ELLIPSE
  5
AA83
330
A9F8
100
AcDbEntity
  8
0
100
AcDbEllipse
 10
-21.79421569734278
 20
6.604773352163988
 30
0.0
 11
1.249999999999999
 21
2.165063509461097
 31
0.0
210
0.0
220
0.0
230
0.9999999999999998
 40
0.5773502691896258
 41
0.0
 42
6.283185307179586
  0
ELLIPSE
  5
AA84
330
A9F8
100
AcDbEntity
  8
0
100
AcDbEllipse
 10
-23.20842925971587
 20
23.75120155164623
 30
0.0
 11
1.24999999999987
 21
2.165063509461171
 31
0.0
210
0.0
220
0.0
230
1.0
 40
0.5773502691896258
 41
3.742856870268578
 42
5.681921090500117
  0
ELLIPSE
  5
AA85
330
A9F8
100
AcDbEntity
  8
0
100
AcDbEllipse
 10
-21.79421569734278
 20
22.93470497071851
 30
0.0
 11
1.249999999999999
 21
2.165063509461097
 31
0.0
210
0.0
220
0.0
230
0.9999999999999998
 40
0.5773502691896258
 41
0.0
 42
6.283185307179586
  0
ELLIPSE
  5
AA86
330
A9F8
100
AcDbEntity
  8
0
100
AcDbEllipse
 10
-23.20842925971587
 20
40.08113317020074
 30
0.0
 11
1.24999999999987
 21
2.165063509461171
 31
0.0
210
0.0
220
0.0
230
1.0
 40
0.5773502691896258
 41
3.742856870268578
 42
5.681921090500117
  0
ELLIPSE
  5
AA87
330
A9F8
100
AcDbEntity
  8
0
100
AcDbEllipse
 10
-21.79421569734278
 20
39.26463658927303
 30
0.0
 11
1.249999999999999
 21
2.165063509461097
 31
0.0
210
0.0
220
0.0
230
0.9999999999999998
 40
0.5773502691896258
 41
0.0
 42
6.283185307179586
  0
ELLIPSE
  5
AA88
330
A9F8
100
AcDbEntity
  8
0
100
AcDbEllipse
 10
-23.20842925971587
 20
56.41106478875528
 30
0.0
 11
1.24999999999987
 21
2.165063509461171
 31
0.0
210
0.0
220
0.0
230
1.0
 40
0.5773502691896258
 41
3.742856870268578
 42
5.681921090500117
  0
ELLIPSE
  5
AA89
330
A9F8
100
AcDbEntity
  8
0
100
AcDbEllipse
 10
-21.79421569734278
 20
55.59456820782756
 30
0.0
 11
1.249999999999999
 21
2.165063509461097
 31
0.0
210
0.0
220
0.0
230
0.9999999999999998
 40
0.5773502691896258
 41
0.0
 42
6.283185307179586
  0
ELLIPSE
  5
AA8A
330
A9F8
100
AcDbEntity
  8
0
100
AcDbEllipse
 10
-23.20842925971587
 20
72.74099640730979
 30
0.0
 11
1.24999999999987
 21
2.165063509461171
 31
0.0
210
0.0
220
0.0
230
1.0
 40
0.5773502691896258
 41
3.742856870268578
 42
5.681921090500117
  0
ELLIPSE
  5
AA8B
330
A9F8
100
AcDbEntity
  8
0
100
AcDbEllipse
 10
-21.79421569734278
 20
71.92449982638208
 30
0.0
 11
1.249999999999999
 21
2.165063509461097
 31
0.0
210
0.0
220
0.0
230
0.9999999999999998
 40
0.5773502691896258
 41
0.0
 42
6.283185307179586
  0
ELLIPSE
  5
AA8C
330
A9F8
100
AcDbEntity
  8
0
100
AcDbEllipse
 10
-23.20842925971587
 20
89.07092802586433
 30
0.0
 11
1.24999999999987
 21
2.165063509461171
 31
0.0
210
0.0
220
0.0
230
1.0
 40
0.5773502691896258
 41
3.742856870268578
 42
5.681921090500101
  0
ELLIPSE
  5
AA8D
330
A9F8
100
AcDbEntity
  8
0
100
AcDbEllipse
 10
-21.79421569734278
 20
88.25443144493661
 30
0.0
 11
1.249999999999999
 21
2.165063509461097
 31
0.0
210
0.0
220
0.0
230
0.9999999999999998
 40
0.5773502691896258
 41
0.0
 42
6.283185307179586
  0
LINE
  5
AA8E
330
A9F8
100
AcDbEntity
  8
0
100
AcDbLine
 10
-27.09751655624189
 20
-14.420013606725
 30
0.0
 11
-55.3817878037038
 21
-57.69433239589448
 31
0.0
  0
LINE
  5
AA8F
330
A9F8
100
AcDbEntity
  8
0
100
AcDbLine
 10
-28.51173011861501
 20
-13.60351702579727
 30
0.0
 11
-27.09751655624189
 21
-14.420013606725
 31
0.0
  0
LINE
  5
AA90
330
A9F8
100
AcDbEntity
  8
0
100
AcDbLine
 10
-56.7960013660769
 20
-56.87783581496674
 30
0.0
 11
-28.51173011861501
 21
-13.60351702579727
 31
0.0
  0
LINE
  5
AA91
330
A9F8
100
AcDbEntity
  8
0
100
AcDbLine
 10
-55.3817878037038
 20
-57.69433239589448
 30
0.0
 11
-56.7960013660769
 21
-56.87783581496674
 31
0.0
  0
LINE
  5
AA92
330
A9F8
100
AcDbEntity
  8
0
100
AcDbLine
 10
-27.09751655624188
 20
89.27505217109626
 30
0.0
 11
-27.09751655624189
 21
-14.42001360672499
 31
0.0
  0
LINE
  5
AA93
330
A9F8
100
AcDbEntity
  8
0
100
AcDbLine
 10
-28.51173011861499
 20
90.09154875202398
 30
0.0
 11
-27.09751655624188
 21
89.27505217109626
 31
0.0
  0
LINE
  5
AA94
330
A9F8
100
AcDbEntity
  8
0
100
AcDbLine
 10
-28.51173011861501
 20
-13.60351702579727
 30
0.0
 11
-28.51173011861499
 21
90.09154875202398
 31
0.0
  0
ENDBLK
  5
A9FA
330
A9F8
100
AcDbEntity
  8
0
100
AcDbBlockEnd
  0
ENDSEC
  0
SECTION
  2
ENTITIES
  0
INSERT
  5
AA95
330
1F
100
AcDbEntity
  8
0
100
AcDbBlockReference
  2
SAE440_70_2-Front
 10
0.0
 20
0.0
 30
0.0
  0
INSERT
  5
AA96
330
1F
100
AcDbEntity
  8
0
100
AcDbBlockReference
  2
SAE440_70_2-Left
 10
132.6
 20
0.0
 30
0.0
  0
INSERT
  5
AA97
330
1F
100
AcDbEntity
  8
0
100
AcDbBlockReference
  2
SAE440_70_2-Right
 10
-132.6
 20
0.0
 30
0.0
  0
INSERT
  5
AA98
330
1F
100
AcDbEntity
  8
0
100
AcDbBlockReference
  2
SAE440_70_2-Top
 10
0.0
 20
-58.10000000000001
 30
0.0
  0
INSERT
  5
AA99
330
1F
100
AcDbEntity
  8
0
100
AcDbBlockReference
  2
SAE440_70_2-Bottom
 10
0.0
 20
241.1
 30
0.0
  0
INSERT
  5
AA9A
330
1F
100
AcDbEntity
  8
0
100
AcDbBlockReference
  2
SAE440_70_2-ISO
 10
189.396001366077
 20
-183.0967775866843
 30
0.0
  0
MTEXT
  5
AA9B
330
1F
100
AcDbEntity
  8
0
100
AcDbMText
 10
0.0
 20
-200.2000000000001
 30
0.0
 40
16.575
 41
0.0
 71
     5
 72
     5
  1
SAE440/70/2
 73
     1
 44
1.0
1001
ACAD
1000
MTEXTBEGIN
1070
    73
1070
     1
1070
    44
1040
1.0
1070
    74
1070
     0
1000
MTEXTEND
  0
ENDSEC
  0
SECTION
  2
OBJECTS
  0
DICTIONARY
  5
C
330
0
100
AcDbDictionary
281
     1
  3
ACAD_CIP_PREVIOUS_PRODUCT_INFO
350
216
  3
ACAD_COLOR
350
6B
  3
ACAD_DETAILVIEWSTYLE
350
21B
  3
ACAD_GROUP
350
D
  3
ACAD_LAYOUT
350
1A
  3
ACAD_MATERIAL
350
6A
  3
ACAD_MLEADERSTYLE
350
12D
  3
ACAD_MLINESTYLE
350
17
  3
ACAD_PLOTSETTINGS
350
19
  3
ACAD_PLOTSTYLENAME
350
E
  3
ACAD_SCALELIST
350
10C
  3
ACAD_SECTIONVIEWSTYLE
350
219
  3
ACAD_TABLESTYLE
350
7E
  3
ACAD_VISUALSTYLE
350
EF
  3
ACDB_RECOMPOSE_DATA
350
AB9C
  3
AcDbVariableDictionary
350
5E
  3
DWGPROPS
350
AB9D
  0
DICTIONARY
  5
AAEC
330
8
100
AcDbDictionary
280
     1
281
     1
  0
DICTIONARY
  5
1FF
330
2
100
AcDbDictionary
280
     1
281
     1
  3
ACAD_LAYERSTATES
360
200
  0
DICTIONARY
  5
13C
330
10
100
AcDbDictionary
280
     1
281
     1
  0
DICTIONARY
  5
1CE
330
1F
100
AcDbDictionary
280
     1
281
     1
  3
ACAD_LAYOUTSELFREF
360
AAF4
  0
DICTIONARY
  5
AA9F
330
D2
100
AcDbDictionary
280
     1
281
     1
  3
ACAD_LAYOUTSELFREF
360
AAFD
  0
DICTIONARY
  5
AAA1
330
D6
100
AcDbDictionary
280
     1
281
     1
  3
ACAD_LAYOUTSELFREF
360
AB00
  0
XRECORD
  5
216
102
{ACAD_REACTORS
330
C
102
}
330
C
100
AcDbXrecord
280
     1
300
ACD
300
2021
300
87393ACD_2021_0F
  0
DICTIONARY
  5
6B
102
{ACAD_REACTORS
330
C
102
}
330
C
100
AcDbDictionary
281
     1
  0
DICTIONARY
  5
21B
102
{ACAD_REACTORS
330
C
102
}
330
C
100
AcDbDictionary
281
     1
  3
Metric50
350
21C
  0
DICTIONARY
  5
D
102
{ACAD_REACTORS
330
C
102
}
330
C
100
AcDbDictionary
281
     1
  0
DICTIONARY
  5
1A
102
{ACAD_REACTORS
330
C
102
}
330
C
100
AcDbDictionary
281
     1
  3
Layout1
350
D3
  3
Layout2
350
D7
  3
Model
350
22
  0
DICTIONARY
  5
6A
102
{ACAD_REACTORS
330
C
102
}
330
C
100
AcDbDictionary
281
     1
  3
ByBlock
350
ED
  3
ByLayer
350
EC
  3
Global
350
EE
  0
DICTIONARY
  5
12D
102
{ACAD_REACTORS
330
C
102
}
330
C
100
AcDbDictionary
281
     1
  3
Standard
350
12E
  0
DICTIONARY
  5
17
102
{ACAD_REACTORS
330
C
102
}
330
C
100
AcDbDictionary
281
     1
  3
Standard
350
18
  0
DICTIONARY
  5
19
102
{ACAD_REACTORS
330
C
102
}
330
C
100
AcDbDictionary
281
     1
  0
ACDBDICTIONARYWDFLT
  5
E
102
{ACAD_REACTORS
330
C
102
}
330
C
100
AcDbDictionary
281
     1
  3
Normal
350
F
100
AcDbDictionaryWithDefault
340
F
  0
DICTIONARY
  5
10C
102
{ACAD_REACTORS
330
C
102
}
330
C
100
AcDbDictionary
281
     1
  3
A0
350
10D
  3
A1
350
1BE
  3
A2
350
1BF
  3
A3
350
1C0
  3
A4
350
1C1
  3
A5
350
1C2
  3
A6
350
1C3
  3
A7
350
1C4
  3
A8
350
1C5
  3
A9
350
1C6
  3
B0
350
1C7
  3
B1
350
1C8
  3
B2
350
1C9
  3
B3
350
1CA
  3
B4
350
1CB
  3
B5
350
1CC
  3
B6
350
1CD
  0
DICTIONARY
  5
219
102
{ACAD_REACTORS
330
C
102
}
330
C
100
AcDbDictionary
281
     1
  3
Metric50
350
21A
  0
DICTIONARY
  5
7E
102
{ACAD_REACTORS
330
C
102
}
330
C
100
AcDbDictionary
281
     1
  3
Standard
350
7F
  0
DICTIONARY
  5
EF
102
{ACAD_REACTORS
330
C
102
}
330
C
100
AcDbDictionary
281
     1
  3
2dWireframe
350
F5
  3
Basic
350
F4
  3
Brighten
350
FB
  3
ColorChange
350
FF
  3
Conceptual
350
F8
  3
Dim
350
FA
  3
EdgeColorOff
350
1E6
  3
Facepattern
350
FE
  3
Flat
350
F0
  3
FlatWithEdges
350
F1
  3
Gouraud
350
F2
  3
GouraudWithEdges
350
F3
  3
Hidden
350
F7
  3
JitterOff
350
1E4
  3
Linepattern
350
FD
  3
OverhangOff
350
1E5
  3
Realistic
350
F9
  3
Shaded
350
1F3
  3
Shaded with edges
350
1F2
  3
Shades of Gray
350
1EF
  3
Sketchy
350
1F0
  3
Thicken
350
FC
  3
Wireframe
350
F6
  3
X-Ray
350
1F1
  0
XRECORD
  5
AB9C
102
{ACAD_REACTORS
330
C
102
}
330
C
100
AcDbXrecord
280
     1
 90
        1
330
7F
  0
DICTIONARY
  5
5E
102
{ACAD_REACTORS
330
C
102
}
330
C
100
AcDbDictionary
281
     1
  3
CANNOSCALE
350
146
  3
CENTEREXE
350
259
  3
CENTERLTYPEFILE
350
25A
  3
CMLEADERSTYLE
350
145
  3
CTABLESTYLE
350
84
  3
CVIEWDETAILSTYLE
350
227
  3
CVIEWSECTIONSTYLE
350
228
  3
DIMASSOC
350
5F
  3
HIDETEXT
350
63
  3
INDEXCTL
350
AB49
  3
LAYEREVAL
350
1AE
  3
LAYERNOTIFY
350
1AF
  3
LIGHTINGUNITS
350
AB47
  3
MSLTSCALE
350
AB46
  3
PSOLHEIGHT
350
AB99
  3
PSOLWIDTH
350
AB98
  3
SORTENTS
350
AB48
  3
XCLIPFRAME
350
AB9A
  0
XRECORD
  5
AB9D
102
{ACAD_REACTORS
330
C
102
}
330
C
100
AcDbXrecord
280
     1
  1
DWGPROPS COOKIE
  2

  3

  4

  6

  7

  8
truole
  9

300
=
301
=
302
=
303
=
304
=
305
=
306
=
307
=
308
=
309
=
 40
0.0078819444444444
 41
2460398.356956019
 42
2460398.37556713
  1

 90
        0
  0
DICTIONARY
  5
200
102
{ACAD_REACTORS
330
1FF
102
}
330
1FF
100
AcDbDictionary
281
     1
  0
XRECORD
  5
AAF4
102
{ACAD_REACTORS
330
1CE
102
}
330
1CE
100
AcDbXrecord
280
     1
340
1F
  0
XRECORD
  5
AAFD
102
{ACAD_REACTORS
330
AA9F
102
}
330
AA9F
100
AcDbXrecord
280
     1
340
D2
  0
XRECORD
  5
AB00
102
{ACAD_REACTORS
330
AAA1
102
}
330
AAA1
100
AcDbXrecord
280
     1
340
D6
  0
ACDBDETAILVIEWSTYLE
  5
21C
102
{ACAD_XDICTIONARY
360
ABDC
102
}
102
{ACAD_REACTORS
330
21B
102
}
330
21B
100
AcDbModelDocViewStyle
 70
     0
  3
Metric50
290
     0
100
AcDbDetailViewStyle
 70
     0
 71
     0
 90
        3
 71
     1
340
11
 40
5.0
340
0
 40
5.0
300

 40
0.0
280
     1
 71
     2
340
16
 90
       25
 71
     3
340
11
 40
5.0
 90
        0
 40
15.0
 90
        1
300
%<\AcVar ViewDetailId>% (%<\AcVar ViewScale \f "%sn">%)
 71
     4
340
16
 90
       25
340
16
 90
       25
280
     0
  0
LAYOUT
  5
D3
102
{ACAD_XDICTIONARY
360
ABA1
102
}
102
{ACAD_REACTORS
330
1A
102
}
330
1A
100
AcDbPlotSettings
  1

  2
C:\Documents and Settings\basas\Application Data\Autodesk\AutoCAD 2005\R16.1\enu\plotters\Default Windows System Printer.pc3
  4

  6

 40
0.0
 41
0.0
 42
0.0
 43
0.0
 44
0.0
 45
0.0
 46
0.0
 47
0.0
 48
0.0
 49
0.0
140
0.0
141
0.0
142
1.0
143
1.0
 70
   688
 72
     0
 73
     0
 74
     5
  7

 75
    16
147
1.0
148
0.0
149
0.0
100
AcDbLayout
  1
Layout1
 70
     1
 71
     1
 10
0.0
 20
0.0
 11
12.0
 21
9.0
 12
0.0
 22
0.0
 32
0.0
 14
0.0
 24
0.0
 34
0.0
 15
0.0
 25
0.0
 35
0.0
146
0.0
 13
0.0
 23
0.0
 33
0.0
 16
1.0
 26
0.0
 36
0.0
 17
0.0
 27
1.0
 37
0.0
 76
     0
330
D2
  0
LAYOUT
  5
D7
102
{ACAD_XDICTIONARY
360
ABA3
102
}
102
{ACAD_REACTORS
330
1A
102
}
330
1A
100
AcDbPlotSettings
  1

  2
C:\Documents and Settings\basas\Application Data\Autodesk\AutoCAD 2005\R16.1\enu\plotters\Default Windows System Printer.pc3
  4

  6

 40
0.0
 41
0.0
 42
0.0
 43
0.0
 44
0.0
 45
0.0
 46
0.0
 47
0.0
 48
0.0
 49
0.0
140
0.0
141
0.0
142
1.0
143
1.0
 70
   688
 72
     0
 73
     0
 74
     5
  7

 75
    16
147
1.0
148
0.0
149
0.0
100
AcDbLayout
  1
Layout2
 70
     1
 71
     2
 10
0.0
 20
0.0
 11
12.0
 21
9.0
 12
0.0
 22
0.0
 32
0.0
 14
0.0
 24
0.0
 34
0.0
 15
0.0
 25
0.0
 35
0.0
146
0.0
 13
0.0
 23
0.0
 33
0.0
 16
1.0
 26
0.0
 36
0.0
 17
0.0
 27
1.0
 37
0.0
 76
     0
330
D6
  0
LAYOUT
  5
22
102
{ACAD_XDICTIONARY
360
AB9E
102
}
102
{ACAD_REACTORS
330
1A
102
}
330
1A
100
AcDbPlotSettings
  1

  2
none_device
  4
ISO_A4_(210.00_x_297.00_MM)
  6

 40
7.5
 41
20.0
 42
7.5
 43
20.0
 44
210.0
 45
297.0
 46
11.54999923706054
 47
-13.65000009536743
 48
0.0
 49
0.0
140
0.0
141
0.0
142
1.0
143
8.704084754739808
 70
 11952
 72
     1
 73
     0
 74
     0
  7

 75
     0
147
0.1148885871608098
148
0.0
149
0.0
100
AcDbLayout
  1
Model
 70
     1
 71
     0
 10
0.0
 20
0.0
 11
12.0
 21
9.0
 12
0.0
 22
0.0
 32
0.0
 14
0.0
 24
0.0
 34
0.0
 15
0.0
 25
0.0
 35
0.0
146
0.0
 13
0.0
 23
0.0
 33
0.0
 16
1.0
 26
0.0
 36
0.0
 17
0.0
 27
1.0
 37
0.0
 76
     0
330
1F
331
EA
1001
ACAD_PSEXT
1000
None
1000
None
1000
Not applicable
1000
The layout will not be plotted unless a new plotter configuration name is selected.
1070
     0
  0
MATERIAL
  5
ED
102
{ACAD_XDICTIONARY
360
1F9
102
}
102
{ACAD_REACTORS
330
6A
102
}
330
6A
100
AcDbMaterial
  1
ByBlock
  0
MATERIAL
  5
EC
102
{ACAD_XDICTIONARY
360
1F7
102
}
102
{ACAD_REACTORS
330
6A
102
}
330
6A
100
AcDbMaterial
  1
ByLayer
  0
MATERIAL
  5
EE
102
{ACAD_XDICTIONARY
360
173
102
}
102
{ACAD_REACTORS
330
6A
102
}
330
6A
100
AcDbMaterial
  1
Global
 43
0.0007999999797903
 43
0.0
 43
0.0
 43
0.0
 43
0.0
 43
0.0007999999797903
 43
0.0
 43
0.0
 43
0.0
 43
0.0
 43
1.0
 43
0.0
 43
0.0
 43
0.0
 43
0.0
 43
1.0
 49
0.0007999999797903
 49
0.0
 49
0.0
 49
0.0
 49
0.0
 49
0.0007999999797903
 49
0.0
 49
0.0
 49
0.0
 49
0.0
 49
1.0
 49
0.0
 49
0.0
 49
0.0
 49
0.0
 49
1.0
142
0.0007999999797903
142
0.0
142
0.0
142
0.0
142
0.0
142
0.0007999999797903
142
0.0
142
0.0
142
0.0
142
0.0
142
1.0
142
0.0
142
0.0
142
0.0
142
0.0
142
1.0
144
0.0007999999797903
144
0.0
144
0.0
144
0.0
144
0.0
144
0.0007999999797903
144
0.0
144
0.0
144
0.0
144
0.0
144
1.0
144
0.0
144
0.0
144
0.0
144
0.0
144
1.0
1001
ACAD
1070
    -1
1070
     3
1070
     0
1000

1071
        0
1070
     0
  0
MLEADERSTYLE
  5
12E
102
{ACAD_XDICTIONARY
360
ABC8
102
}
102
{ACAD_REACTORS
330
12D
102
}
330
12D
100
AcDbMLeaderStyle
170
     2
171
     1
172
     0
 90
        2
 40
0.0
 41
0.0
173
     1
 91
-1056964608
340
14
 92
       -2
290
     1
 42
2.0
291
     1
 43
8.0
  3
Standard
 44
4.0
300

342
11
174
     1
178
     1
175
     1
176
     0
 93
-1056964608
 45
4.0
292
     0
297
     0
 46
4.0
 94
-1056964608
 47
1.0
 49
1.0
140
1.0
293
     1
141
0.0
294
     1
177
     0
142
1.0
295
     0
296
     0
143
3.75
1001
ACAD_MLEADERVER
1070
     2
  0
MLINESTYLE
  5
18
102
{ACAD_REACTORS
330
17
102
}
330
17
100
AcDbMlineStyle
  2
STANDARD
 70
     0
  3

 62
   256
 51
90.0
 52
90.0
 71
     2
 49
0.5
 62
   256
  6
BYLAYER
 49
-0.5
 62
   256
  6
BYLAYER
  0
ACDBPLACEHOLDER
  5
F
102
{ACAD_REACTORS
330
E
102
}
330
E
  0
SCALE
  5
10D
102
{ACAD_REACTORS
330
10C
102
}
330
10C
100
AcDbScale
 70
     0
300
1:1
140
1.0
141
1.0
290
     1
  0
SCALE
  5
1BE
102
{ACAD_REACTORS
330
10C
102
}
330
10C
100
AcDbScale
 70
     0
300
1:2
140
1.0
141
2.0
290
     0
  0
SCALE
  5
1BF
102
{ACAD_REACTORS
330
10C
102
}
330
10C
100
AcDbScale
 70
     0
300
1:4
140
1.0
141
4.0
290
     0
  0
SCALE
  5
1C0
102
{ACAD_REACTORS
330
10C
102
}
330
10C
100
AcDbScale
 70
     0
300
1:5
140
1.0
141
5.0
290
     0
  0
SCALE
  5
1C1
102
{ACAD_REACTORS
330
10C
102
}
330
10C
100
AcDbScale
 70
     0
300
1:8
140
1.0
141
8.0
290
     0
  0
SCALE
  5
1C2
102
{ACAD_REACTORS
330
10C
102
}
330
10C
100
AcDbScale
 70
     0
300
1:10
140
1.0
141
10.0
290
     0
  0
SCALE
  5
1C3
102
{ACAD_REACTORS
330
10C
102
}
330
10C
100
AcDbScale
 70
     0
300
1:16
140
1.0
141
16.0
290
     0
  0
SCALE
  5
1C4
102
{ACAD_REACTORS
330
10C
102
}
330
10C
100
AcDbScale
 70
     0
300
1:20
140
1.0
141
20.0
290
     0
  0
SCALE
  5
1C5
102
{ACAD_REACTORS
330
10C
102
}
330
10C
100
AcDbScale
 70
     0
300
1:30
140
1.0
141
30.0
290
     0
  0
SCALE
  5
1C6
102
{ACAD_REACTORS
330
10C
102
}
330
10C
100
AcDbScale
 70
     0
300
1:40
140
1.0
141
40.0
290
     0
  0
SCALE
  5
1C7
102
{ACAD_REACTORS
330
10C
102
}
330
10C
100
AcDbScale
 70
     0
300
1:50
140
1.0
141
50.0
290
     0
  0
SCALE
  5
1C8
102
{ACAD_REACTORS
330
10C
102
}
330
10C
100
AcDbScale
 70
     0
300
1:100
140
1.0
141
100.0
290
     0
  0
SCALE
  5
1C9
102
{ACAD_REACTORS
330
10C
102
}
330
10C
100
AcDbScale
 70
     0
300
2:1
140
2.0
141
1.0
290
     0
  0
SCALE
  5
1CA
102
{ACAD_REACTORS
330
10C
102
}
330
10C
100
AcDbScale
 70
     0
300
4:1
140
4.0
141
1.0
290
     0
  0
SCALE
  5
1CB
102
{ACAD_REACTORS
330
10C
102
}
330
10C
100
AcDbScale
 70
     0
300
8:1
140
8.0
141
1.0
290
     0
  0
SCALE
  5
1CC
102
{ACAD_REACTORS
330
10C
102
}
330
10C
100
AcDbScale
 70
     0
300
10:1
140
10.0
141
1.0
290
     0
  0
SCALE
  5
1CD
102
{ACAD_REACTORS
330
10C
102
}
330
10C
100
AcDbScale
 70
     0
300
100:1
140
100.0
141
1.0
290
     0
  0
ACDBSECTIONVIEWSTYLE
  5
21A
102
{ACAD_XDICTIONARY
360
ABDA
102
}
102
{ACAD_REACTORS
330
219
102
}
330
219
100
AcDbModelDocViewStyle
 70
     0
  3
Metric50
290
     0
100
AcDbSectionViewStyle
 70
     0
 71
     0
 90
      102
 71
     1
340
11
 40
5.0
340
0
340
0
 40
5.0
300
I, O, Q, S, X, Z
 40
10.0
 90
        0
 40
2.5
 90
        0
 71
     2
340
16
 90
       25
340
16
 90
       50
 40
5.0
 40
2.5
 40
5.0
 71
     3
340
11
 40
5.0
 90
        0
 40
15.0
 90
        1
300
%<\AcVar ViewSectionStartId>%-%<\AcVar ViewSectionEndId>% (%<\AcVar ViewScale \f "%sn">%)
 71
     4
300
ANSI31
 40
1.0
 90
        0
290
     0
290
     0
 90
        6
 40
0.0
 40
1.570796326794896
 40
0.2617993877991494
 40
1.308996938995747
 40
-0.2617993877991494
 40
1.832595714594046
  0
TABLESTYLE
  5
7F
102
{ACAD_XDICTIONARY
360
162
102
}
102
{ACAD_REACTORS
330
7E
102
}
330
7E
100
AcDbTableStyle
  3
Standard
 70
     0
 71
     0
 40
1.5
 41
1.5
280
     0
281
     0
  7
Standard
140
4.5
170
     2
 62
     0
 63
     7
283
     0
274
    -2
284
     1
 64
     0
275
    -2
285
     1
 65
     0
276
    -2
286
     1
 66
     0
277
    -2
287
     1
 67
     0
278
    -2
288
     1
 68
     0
279
    -2
289
     1
 69
     0
  7
Standard
140
6.0
170
     5
 62
     0
 63
     7
283
     0
274
    -2
284
     1
 64
     0
275
    -2
285
     1
 65
     0
276
    -2
286
     1
 66
     0
277
    -2
287
     1
 67
     0
278
    -2
288
     1
 68
     0
279
    -2
289
     1
 69
     0
  7
Standard
140
4.5
170
     5
 62
     0
 63
     7
283
     0
274
    -2
284
     1
 64
     0
275
    -2
285
     1
 65
     0
276
    -2
286
     1
 66
     0
277
    -2
287
     1
 67
     0
278
    -2
288
     1
 68
     0
279
    -2
289
     1
 69
     0
  0
VISUALSTYLE
  5
F5
102
{ACAD_XDICTIONARY
360
ABB2
102
}
102
{ACAD_REACTORS
330
EF
102
}
330
EF
100
AcDbVisualStyle
  2
2dWireframe
 70
     4
 71
     0
 72
     2
 73
     1
 90
        0
 40
-0.6
 41
-30.0
 62
     5
 63
     7
 74
     1
 91
        4
 64
     7
 65
   257
 75
     1
175
     1
 42
1.0
 92
        0
 66
   257
 43
1.0
 76
     1
 77
     6
 78
     2
 67
     7
 79
     5
170
     0
171
     0
290
     0
174
     0
 93
        1
 44
0.0
173
     0
291
     0
 45
0.0
1001
ACAD
1000
AcDbSavedByObjectVersion
1070
     0
  0
VISUALSTYLE
  5
F4
102
{ACAD_XDICTIONARY
360
ABB0
102
}
102
{ACAD_REACTORS
330
EF
102
}
330
EF
100
AcDbVisualStyle
  2
Basic
 70
     7
 71
     1
 72
     0
 73
     1
 90
        0
 40
-0.6
 41
-30.0
 62
     5
 63
     7
 74
     0
 91
        4
 64
     7
 65
   257
 75
     1
175
     1
 42
1.0
 92
        8
 66
     7
 43
1.0
 76
     1
 77
     6
 78
     2
 67
     7
 79
     5
170
     0
171
     0
290
     0
174
     0
 93
        1
 44
0.0
173
     0
291
     1
 45
0.0
1001
ACAD
1000
AcDbSavedByObjectVersion
1070
     0
  0
VISUALSTYLE
  5
FB
102
{ACAD_XDICTIONARY
360
ABBE
102
}
102
{ACAD_REACTORS
330
EF
102
}
330
EF
100
AcDbVisualStyle
  2
Brighten
 70
    12
 71
     2
 72
     2
 73
     1
 90
        0
 40
-0.6
 41
-30.0
 62
     5
 63
     7
 74
     1
 91
        4
 64
     7
 65
   257
 75
     1
175
     1
 42
1.0
 92
        8
 66
     7
 43
1.0
 76
     1
 77
     6
 78
     2
 67
     7
 79
     5
170
     0
171
     0
290
     0
174
     0
 93
        1
 44
50.0
173
     0
291
     1
 45
0.0
1001
ACAD
1000
AcDbSavedByObjectVersion
1070
     0
  0
VISUALSTYLE
  5
FF
102
{ACAD_XDICTIONARY
360
ABC6
102
}
102
{ACAD_REACTORS
330
EF
102
}
330
EF
100
AcDbVisualStyle
  2
ColorChange
 70
    16
 71
     2
 72
     2
 73
     3
 90
        0
 40
-0.6
 41
-30.0
 62
     5
 63
     8
 74
     1
 91
        4
 64
     7
 65
   257
 75
     1
175
     1
 42
1.0
 92
        8
 66
     8
 43
1.0
 76
     1
 77
     6
 78
     2
 67
     7
 79
     5
170
     0
171
     0
290
     0
174
     0
 93
        1
 44
0.0
173
     0
291
     1
 45
0.0
1001
ACAD
1000
AcDbSavedByObjectVersion
1070
     0
  0
VISUALSTYLE
  5
F8
102
{ACAD_XDICTIONARY
360
ABB8
102
}
102
{ACAD_REACTORS
330
EF
102
}
330
EF
100
AcDbVisualStyle
  2
Conceptual
 70
     9
 71
     3
 72
     2
 73
     1
 90
        0
 40
-0.6
 41
-30.0
 62
     5
 63
     7
 74
     2
 91
        2
 64
     7
 65
   257
 75
     1
175
     1
 42
40.0
 92
        8
 66
     7
 43
1.0
 76
     1
 77
     6
 78
     2
 67
     7
 79
     3
170
     0
171
     0
290
     0
174
     0
 93
        1
 44
0.0
173
     0
291
     0
 45
0.0
1001
ACAD
1000
AcDbSavedByObjectVersion
1070
     0
  0
VISUALSTYLE
  5
FA
102
{ACAD_XDICTIONARY
360
ABBC
102
}
102
{ACAD_REACTORS
330
EF
102
}
330
EF
100
AcDbVisualStyle
  2
Dim
 70
    11
 71
     2
 72
     2
 73
     1
 90
        0
 40
-0.6
 41
-30.0
 62
     5
 63
     7
 74
     1
 91
        4
 64
     7
 65
   257
 75
     1
175
     1
 42
1.0
 92
        8
 66
     7
 43
1.0
 76
     1
 77
     6
 78
     2
 67
     7
 79
     5
170
     0
171
     0
290
     0
174
     0
 93
        1
 44
-50.0
173
     0
291
     1
 45
0.0
1001
ACAD
1000
AcDbSavedByObjectVersion
1070
     0
  0
VISUALSTYLE
  5
1E6
102
{ACAD_XDICTIONARY
360
ABCE
102
}
102
{ACAD_REACTORS
330
EF
102
}
330
EF
100
AcDbVisualStyle
  2
EdgeColorOff
 70
    22
 71
     2
 72
     2
 73
     0
 90
        0
 40
-0.6
 41
-30.0
 62
     5
 63
     7
 74
     1
 91
        4
 64
     7
 65
   257
 75
     1
175
     1
 42
1.0
 92
        8
 66
     7
 43
1.0
 76
     1
 77
     6
 78
     2
 67
     7
 79
     5
170
     0
171
     0
290
     0
174
     0
 93
        1
 44
0.0
173
     0
291
     1
 45
0.0
1001
ACAD
1000
AcDbSavedByObjectVersion
1070
     0
  0
VISUALSTYLE
  5
FE
102
{ACAD_XDICTIONARY
360
ABC4
102
}
102
{ACAD_REACTORS
330
EF
102
}
330
EF
100
AcDbVisualStyle
  2
Facepattern
 70
    15
 71
     2
 72
     2
 73
     1
 90
        0
 40
-0.6
 41
-30.0
 62
     5
 63
     7
 74
     1
 91
        4
 64
     7
 65
   257
 75
     1
175
     1
 42
1.0
 92
        8
 66
     7
 43
1.0
 76
     1
 77
     6
 78
     2
 67
     7
 79
     5
170
     0
171
     0
290
     0
174
     0
 93
        1
 44
0.0
173
     0
291
     1
 45
0.0
1001
ACAD
1000
AcDbSavedByObjectVersion
1070
     0
  0
VISUALSTYLE
  5
F0
102
{ACAD_XDICTIONARY
360
ABA8
102
}
102
{ACAD_REACTORS
330
EF
102
}
330
EF
100
AcDbVisualStyle
  2
Flat
 70
     0
 71
     2
 72
     1
 73
     1
 90
        2
 40
-0.6
 41
30.0
 62
     5
 63
     7
 74
     0
 91
        0
 64
     7
 65
   257
 75
     1
175
     1
 42
1.0
 92
        8
 66
     7
 43
1.0
 76
     1
 77
     6
 78
     2
 67
     7
 79
     5
170
     0
171
     0
290
     0
174
     0
 93
       13
 44
0.0
173
     0
291
     1
 45
0.0
1001
ACAD
1000
AcDbSavedByObjectVersion
1070
     0
  0
VISUALSTYLE
  5
F1
102
{ACAD_XDICTIONARY
360
ABAA
102
}
102
{ACAD_REACTORS
330
EF
102
}
330
EF
100
AcDbVisualStyle
  2
FlatWithEdges
 70
     1
 71
     2
 72
     1
 73
     1
 90
        2
 40
-0.6
 41
30.0
 62
     5
 63
     7
 74
     1
 91
        0
 64
     7
 65
   257
 75
     1
175
     1
 42
1.0
 92
        0
 66
   257
 43
1.0
 76
     1
 77
     6
 78
     2
 67
     7
 79
     5
170
     0
171
     0
290
     0
174
     0
 93
       13
 44
0.0
173
     0
291
     1
 45
0.0
1001
ACAD
1000
AcDbSavedByObjectVersion
1070
     0
  0
VISUALSTYLE
  5
F2
102
{ACAD_XDICTIONARY
360
ABAC
102
}
102
{ACAD_REACTORS
330
EF
102
}
330
EF
100
AcDbVisualStyle
  2
Gouraud
 70
     2
 71
     2
 72
     2
 73
     1
 90
        2
 40
-0.6
 41
30.0
 62
     5
 63
     7
 74
     0
 91
        0
 64
     7
 65
   257
 75
     1
175
     1
 42
1.0
 92
        0
 66
     7
 43
1.0
 76
     1
 77
     6
 78
     2
 67
     7
 79
     5
170
     0
171
     0
290
     0
174
     0
 93
       13
 44
0.0
173
     0
291
     1
 45
0.0
1001
ACAD
1000
AcDbSavedByObjectVersion
1070
     0
  0
VISUALSTYLE
  5
F3
102
{ACAD_XDICTIONARY
360
ABAE
102
}
102
{ACAD_REACTORS
330
EF
102
}
330
EF
100
AcDbVisualStyle
  2
GouraudWithEdges
 70
     3
 71
     2
 72
     2
 73
     1
 90
        2
 40
-0.6
 41
30.0
 62
     5
 63
     7
 74
     1
 91
        0
 64
     7
 65
   257
 75
     1
175
     1
 42
1.0
 92
        0
 66
   257
 43
1.0
 76
     1
 77
     6
 78
     2
 67
     7
 79
     5
170
     0
171
     0
290
     0
174
     0
 93
       13
 44
0.0
173
     0
291
     1
 45
0.0
1001
ACAD
1000
AcDbSavedByObjectVersion
1070
     0
  0
VISUALSTYLE
  5
F7
102
{ACAD_XDICTIONARY
360
ABB6
102
}
102
{ACAD_REACTORS
330
EF
102
}
330
EF
100
AcDbVisualStyle
  2
Hidden
 70
     6
 71
     1
 72
     2
 73
     2
 90
        0
 40
-0.6
 41
-30.0
 62
     5
 63
     7
 74
     2
 91
        2
 64
     7
 65
   257
 75
     2
175
     1
 42
40.0
 92
        0
 66
   257
 43
1.0
 76
     1
 77
     6
 78
     2
 67
     7
 79
     3
170
     0
171
     0
290
     0
174
     0
 93
        1
 44
0.0
173
     0
291
     0
 45
0.0
1001
ACAD
1000
AcDbSavedByObjectVersion
1070
     0
  0
VISUALSTYLE
  5
1E4
102
{ACAD_XDICTIONARY
360
ABCA
102
}
102
{ACAD_REACTORS
330
EF
102
}
330
EF
100
AcDbVisualStyle
  2
JitterOff
 70
    20
 71
     2
 72
     2
 73
     0
 90
        0
 40
-0.6
 41
-30.0
 62
     5
 63
     7
 74
     1
 91
        4
 64
     7
 65
   257
 75
     1
175
     1
 42
1.0
 92
       10
 66
     7
 43
1.0
 76
     1
 77
     6
 78
     2
 67
     7
 79
     5
170
     0
171
     0
290
     0
174
     0
 93
        1
 44
0.0
173
     0
291
     1
 45
0.0
1001
ACAD
1000
AcDbSavedByObjectVersion
1070
     0
  0
VISUALSTYLE
  5
FD
102
{ACAD_XDICTIONARY
360
ABC2
102
}
102
{ACAD_REACTORS
330
EF
102
}
330
EF
100
AcDbVisualStyle
  2
Linepattern
 70
    14
 71
     2
 72
     2
 73
     1
 90
        0
 40
-0.6
 41
-30.0
 62
     5
 63
     7
 74
     1
 91
        4
 64
     7
 65
   257
 75
     7
175
     7
 42
1.0
 92
        8
 66
     7
 43
1.0
 76
     1
 77
     6
 78
     2
 67
     7
 79
     5
170
     0
171
     0
290
     0
174
     0
 93
        1
 44
0.0
173
     0
291
     1
 45
0.0
1001
ACAD
1000
AcDbSavedByObjectVersion
1070
     0
  0
VISUALSTYLE
  5
1E5
102
{ACAD_XDICTIONARY
360
ABCC
102
}
102
{ACAD_REACTORS
330
EF
102
}
330
EF
100
AcDbVisualStyle
  2
OverhangOff
 70
    21
 71
     2
 72
     2
 73
     0
 90
        0
 40
-0.6
 41
-30.0
 62
     5
 63
     7
 74
     1
 91
        4
 64
     7
 65
   257
 75
     1
175
     1
 42
1.0
 92
        9
 66
     7
 43
1.0
 76
     1
 77
     6
 78
     2
 67
     7
 79
     5
170
     0
171
     0
290
     0
174
     0
 93
        1
 44
0.0
173
     0
291
     1
 45
0.0
1001
ACAD
1000
AcDbSavedByObjectVersion
1070
     0
  0
VISUALSTYLE
  5
F9
102
{ACAD_XDICTIONARY
360
ABBA
102
}
102
{ACAD_REACTORS
330
EF
102
}
330
EF
100
AcDbVisualStyle
  2
Realistic
 70
     8
 71
     2
 72
     2
 73
     0
 90
        2
 40
-0.6
 41
30.0
 62
     5
 63
     7
 74
     0
 91
        0
 64
     7
 65
   257
 75
     1
175
     1
 42
1.0
 92
        8
 66
   257
 43
1.0
 76
     1
 77
     6
 78
     2
 67
     7
 79
     3
170
     0
171
     0
290
     0
174
     0
 93
       13
 44
0.0
173
     0
291
     0
 45
0.0
1001
ACAD
1000
AcDbSavedByObjectVersion
1070
     0
  0
VISUALSTYLE
  5
1F3
102
{ACAD_XDICTIONARY
360
ABD8
102
}
102
{ACAD_REACTORS
330
EF
102
}
330
EF
100
AcDbVisualStyle
  2
Shaded
 70
    27
 71
     2
 72
     2
 73
     1
 90
        2
 40
-0.6
 41
30.0
 62
     5
 63
     7
 74
     0
 91
        4
 64
     7
 65
   257
 75
     1
175
     1
 42
1.0
 92
        8
 66
   257
 43
1.0
 76
     1
 77
     6
 78
     2
 67
     8
 79
     3
170
     0
171
     0
290
     0
174
     0
 93
        5
 44
0.0
173
     0
291
     0
 45
0.0
1001
ACAD
1000
AcDbSavedByObjectVersion
1070
     0
  0
VISUALSTYLE
  5
1F2
102
{ACAD_XDICTIONARY
360
ABD6
102
}
102
{ACAD_REACTORS
330
EF
102
}
330
EF
100
AcDbVisualStyle
  2
Shaded with edges
 70
    26
 71
     2
 72
     2
 73
     1
 90
        2
 40
-0.6
 41
30.0
 62
     5
 63
     7
 74
     1
 91
        2
 64
     7
 65
   257
 75
     2
175
     1
 42
1.0
 92
        8
 66
   257
 43
1.0
 76
     1
 77
     6
 78
     2
 67
     7
 79
     3
170
     0
171
     0
290
     0
174
     0
 93
        5
 44
0.0
173
     0
291
     0
 45
0.0
1001
ACAD
1000
AcDbSavedByObjectVersion
1070
     0
  0
VISUALSTYLE
  5
1EF
102
{ACAD_XDICTIONARY
360
ABD0
102
}
102
{ACAD_REACTORS
330
EF
102
}
330
EF
100
AcDbVisualStyle
  2
Shades of Gray
 70
    23
 71
     2
 72
     2
 73
     3
 90
        0
 40
-0.6
 41
-30.0
 62
     5
 63
     7
 74
     2
 91
        2
 64
     7
 65
     7
 75
     1
175
     1
 42
40.0
 92
        8
 66
     7
 43
1.0
 76
     1
 77
     6
 78
     2
 67
     7
 79
     3
170
     0
171
     0
290
     0
174
     0
 93
        1
 44
0.0
173
     0
291
     0
 45
0.0
1001
ACAD
1000
AcDbSavedByObjectVersion
1070
     0
  0
VISUALSTYLE
  5
1F0
102
{ACAD_XDICTIONARY
360
ABD2
102
}
102
{ACAD_REACTORS
330
EF
102
}
330
EF
100
AcDbVisualStyle
  2
Sketchy
 70
    24
 71
     1
 72
     2
 73
     2
 90
        0
 40
-0.6
 41
-30.0
 62
     5
 63
     7
 74
     2
 91
        2
 64
     7
 65
     7
 75
     1
175
     1
 42
40.0
 92
       11
 66
     7
 43
1.0
 76
     1
 77
     6
 78
     2
 67
     7
 79
     6
170
     0
171
     0
290
     0
174
     0
 93
        1
 44
0.0
173
     0
291
     0
 45
0.0
1001
ACAD
1000
AcDbSavedByObjectVersion
1070
     0
  0
VISUALSTYLE
  5
FC
102
{ACAD_XDICTIONARY
360
ABC0
102
}
102
{ACAD_REACTORS
330
EF
102
}
330
EF
100
AcDbVisualStyle
  2
Thicken
 70
    13
 71
     2
 72
     2
 73
     1
 90
        0
 40
-0.6
 41
-30.0
 62
     5
 63
     7
 74
     1
 91
        4
 64
     7
 65
   257
 75
     1
175
     1
 42
1.0
 92
       12
 66
     7
 43
1.0
 76
     1
 77
     6
 78
     2
 67
     7
 79
     5
170
     0
171
     0
290
     0
174
     0
 93
        1
 44
0.0
173
     0
291
     1
 45
0.0
1001
ACAD
1000
AcDbSavedByObjectVersion
1070
     0
  0
VISUALSTYLE
  5
F6
102
{ACAD_XDICTIONARY
360
ABB4
102
}
102
{ACAD_REACTORS
330
EF
102
}
330
EF
100
AcDbVisualStyle
  2
Wireframe
 70
     5
 71
     0
 72
     2
 73
     0
 90
        0
 40
-0.6
 41
-30.0
 62
     5
 63
     7
 74
     1
 91
        4
 64
     7
 65
   257
 75
     1
175
     1
 42
1.0
 92
        0
 66
   257
 43
1.0
 76
     1
 77
     6
 78
     2
 67
     7
 79
     3
170
     0
171
     0
290
     0
174
     0
 93
        1
 44
0.0
173
     0
291
     0
 45
0.0
1001
ACAD
1000
AcDbSavedByObjectVersion
1070
     0
  0
VISUALSTYLE
  5
1F1
102
{ACAD_XDICTIONARY
360
ABD4
102
}
102
{ACAD_REACTORS
330
EF
102
}
330
EF
100
AcDbVisualStyle
  2
X-Ray
 70
    25
 71
     2
 72
     2
 73
     1
 90
        1
 40
0.5
 41
-30.0
 62
     5
 63
     7
 74
     1
 91
        0
 64
     7
 65
   257
 75
     1
175
     1
 42
1.0
 92
        8
 66
     7
 43
1.0
 76
     1
 77
     6
 78
     2
 67
     7
 79
     3
170
     0
171
     0
290
     0
174
     0
 93
       13
 44
0.0
173
     0
291
     0
 45
0.0
1001
ACAD
1000
AcDbSavedByObjectVersion
1070
     0
  0
DICTIONARYVAR
  5
146
102
{ACAD_REACTORS
330
5E
102
}
330
5E
100
DictionaryVariables
280
     0
  1
1:1
  0
DICTIONARYVAR
  5
259
102
{ACAD_REACTORS
330
5E
102
}
330
5E
100
DictionaryVariables
280
     0
  1
3.500000
  0
DICTIONARYVAR
  5
25A
102
{ACAD_REACTORS
330
5E
102
}
330
5E
100
DictionaryVariables
280
     0
  1
acadiso.lin
  0
DICTIONARYVAR
  5
145
102
{ACAD_REACTORS
330
5E
102
}
330
5E
100
DictionaryVariables
280
     0
  1
STANDARD
  0
DICTIONARYVAR
  5
84
102
{ACAD_REACTORS
330
5E
102
}
330
5E
100
DictionaryVariables
280
     0
  1
STANDARD
  0
DICTIONARYVAR
  5
227
102
{ACAD_REACTORS
330
5E
102
}
330
5E
100
DictionaryVariables
280
     0
  1
Metric50
  0
DICTIONARYVAR
  5
228
102
{ACAD_REACTORS
330
5E
102
}
330
5E
100
DictionaryVariables
280
     0
  1
Metric50
  0
DICTIONARYVAR
  5
5F
102
{ACAD_REACTORS
330
5E
102
}
330
5E
100
DictionaryVariables
280
     0
  1
2
  0
DICTIONARYVAR
  5
63
102
{ACAD_REACTORS
330
5E
102
}
330
5E
100
DictionaryVariables
280
     0
  1
1
  0
DICTIONARYVAR
  5
AB49
102
{ACAD_REACTORS
330
5E
102
}
330
5E
100
DictionaryVariables
280
     0
  1
0
  0
DICTIONARYVAR
  5
1AE
102
{ACAD_REACTORS
330
5E
102
}
330
5E
100
DictionaryVariables
280
     0
  1
0
  0
DICTIONARYVAR
  5
1AF
102
{ACAD_REACTORS
330
5E
102
}
330
5E
100
DictionaryVariables
280
     0
  1
0
  0
DICTIONARYVAR
  5
AB47
102
{ACAD_REACTORS
330
5E
102
}
330
5E
100
DictionaryVariables
280
     0
  1
2
  0
DICTIONARYVAR
  5
AB46
102
{ACAD_REACTORS
330
5E
102
}
330
5E
100
DictionaryVariables
280
     0
  1
1
  0
DICTIONARYVAR
  5
AB99
102
{ACAD_REACTORS
330
5E
102
}
330
5E
100
DictionaryVariables
280
     0
  1
80.000000
  0
DICTIONARYVAR
  5
AB98
102
{ACAD_REACTORS
330
5E
102
}
330
5E
100
DictionaryVariables
280
     0
  1
5.000000
  0
DICTIONARYVAR
  5
AB48
102
{ACAD_REACTORS
330
5E
102
}
330
5E
100
DictionaryVariables
280
     0
  1
127
  0
DICTIONARYVAR
  5
AB9A
102
{ACAD_REACTORS
330
5E
102
}
330
5E
100
DictionaryVariables
280
     0
  1
2
  0
DICTIONARY
  5
ABDC
330
21C
100
AcDbDictionary
280
     1
281
     1
  3
ACAD_XREC_ROUNDTRIP
360
ABDD
  0
DICTIONARY
  5
ABA1
330
D3
100
AcDbDictionary
280
     1
281
     1
  3
ACAD_XREC_ROUNDTRIP
360
ABA2
  0
DICTIONARY
  5
ABA3
330
D7
100
AcDbDictionary
280
     1
281
     1
  3
ACAD_XREC_ROUNDTRIP
360
ABA4
  0
DICTIONARY
  5
AB9E
330
22
100
AcDbDictionary
280
     1
281
     1
  3
ACAD_XREC_ROUNDTRIP
360
AB9F
  0
DICTIONARY
  5
1F9
330
ED
100
AcDbDictionary
280
     1
281
     1
  3
ACAD_XREC_ROUNDTRIP
360
ABA6
  3
FBXASSET
360
1FA
  0
DICTIONARY
  5
1F7
330
EC
100
AcDbDictionary
280
     1
281
     1
  3
ACAD_XREC_ROUNDTRIP
360
ABA5
  3
FBXASSET
360
1F8
  0
DICTIONARY
  5
173
330
EE
100
AcDbDictionary
280
     1
281
     1
  3
ACAD_XREC_ROUNDTRIP
360
ABA7
  3
BUMPTILE
360
175
  3
DIFFUSETILE
360
174
  3
FBXASSET
360
1FB
  3
OPACITYTILE
360
176
  3
REFLECTIONTILE
360
177
  0
DICTIONARY
  5
ABC8
330
12E
100
AcDbDictionary
280
     1
281
     1
  3
ACAD_XREC_ROUNDTRIP
360
ABC9
  0
DICTIONARY
  5
ABDA
330
21A
100
AcDbDictionary
280
     1
281
     1
  3
ACAD_XREC_ROUNDTRIP
360
ABDB
  0
DICTIONARY
  5
162
330
7F
100
AcDbDictionary
280
     1
281
     1
  3
ACAD_ROUNDTRIP_2008_TABLESTYLE_CELLSTYLEMAP
360
AB9B
  3
ACAD_XREC_ROUNDTRIP
360
ABA0
  0
DICTIONARY
  5
ABB2
330
F5
100
AcDbDictionary
280
     1
281
     1
  3
ACAD_XREC_ROUNDTRIP
360
ABB3
  0
DICTIONARY
  5
ABB0
330
F4
100
AcDbDictionary
280
     1
281
     1
  3
ACAD_XREC_ROUNDTRIP
360
ABB1
  0
DICTIONARY
  5
ABBE
330
FB
100
AcDbDictionary
280
     1
281
     1
  3
ACAD_XREC_ROUNDTRIP
360
ABBF
  0
DICTIONARY
  5
ABC6
330
FF
100
AcDbDictionary
280
     1
281
     1
  3
ACAD_XREC_ROUNDTRIP
360
ABC7
  0
DICTIONARY
  5
ABB8
330
F8
100
AcDbDictionary
280
     1
281
     1
  3
ACAD_XREC_ROUNDTRIP
360
ABB9
  0
DICTIONARY
  5
ABBC
330
FA
100
AcDbDictionary
280
     1
281
     1
  3
ACAD_XREC_ROUNDTRIP
360
ABBD
  0
DICTIONARY
  5
ABCE
330
1E6
100
AcDbDictionary
280
     1
281
     1
  3
ACAD_XREC_ROUNDTRIP
360
ABCF
  0
DICTIONARY
  5
ABC4
330
FE
100
AcDbDictionary
280
     1
281
     1
  3
ACAD_XREC_ROUNDTRIP
360
ABC5
  0
DICTIONARY
  5
ABA8
330
F0
100
AcDbDictionary
280
     1
281
     1
  3
ACAD_XREC_ROUNDTRIP
360
ABA9
  0
DICTIONARY
  5
ABAA
330
F1
100
AcDbDictionary
280
     1
281
     1
  3
ACAD_XREC_ROUNDTRIP
360
ABAB
  0
DICTIONARY
  5
ABAC
330
F2
100
AcDbDictionary
280
     1
281
     1
  3
ACAD_XREC_ROUNDTRIP
360
ABAD
  0
DICTIONARY
  5
ABAE
330
F3
100
AcDbDictionary
280
     1
281
     1
  3
ACAD_XREC_ROUNDTRIP
360
ABAF
  0
DICTIONARY
  5
ABB6
330
F7
100
AcDbDictionary
280
     1
281
     1
  3
ACAD_XREC_ROUNDTRIP
360
ABB7
  0
DICTIONARY
  5
ABCA
330
1E4
100
AcDbDictionary
280
     1
281
     1
  3
ACAD_XREC_ROUNDTRIP
360
ABCB
  0
DICTIONARY
  5
ABC2
330
FD
100
AcDbDictionary
280
     1
281
     1
  3
ACAD_XREC_ROUNDTRIP
360
ABC3
  0
DICTIONARY
  5
ABCC
330
1E5
100
AcDbDictionary
280
     1
281
     1
  3
ACAD_XREC_ROUNDTRIP
360
ABCD
  0
DICTIONARY
  5
ABBA
330
F9
100
AcDbDictionary
280
     1
281
     1
  3
ACAD_XREC_ROUNDTRIP
360
ABBB
  0
DICTIONARY
  5
ABD8
330
1F3
100
AcDbDictionary
280
     1
281
     1
  3
ACAD_XREC_ROUNDTRIP
360
ABD9
  0
DICTIONARY
  5
ABD6
330
1F2
100
AcDbDictionary
280
     1
281
     1
  3
ACAD_XREC_ROUNDTRIP
360
ABD7
  0
DICTIONARY
  5
ABD0
330
1EF
100
AcDbDictionary
280
     1
281
     1
  3
ACAD_XREC_ROUNDTRIP
360
ABD1
  0
DICTIONARY
  5
ABD2
330
1F0
100
AcDbDictionary
280
     1
281
     1
  3
ACAD_XREC_ROUNDTRIP
360
ABD3
  0
DICTIONARY
  5
ABC0
330
FC
100
AcDbDictionary
280
     1
281
     1
  3
ACAD_XREC_ROUNDTRIP
360
ABC1
  0
DICTIONARY
  5
ABB4
330
F6
100
AcDbDictionary
280
     1
281
     1
  3
ACAD_XREC_ROUNDTRIP
360
ABB5
  0
DICTIONARY
  5
ABD4
330
1F1
100
AcDbDictionary
280
     1
281
     1
  3
ACAD_XREC_ROUNDTRIP
360
ABD5
  0
XRECORD
  5
ABDD
102
{ACAD_REACTORS
330
ABDC
102
}
330
ABDC
100
AcDbXrecord
280
     1
102
DISPLAYNAME
  1
Metric50
102
FLAGS
 90
        0
  0
XRECORD
  5
ABA2
102
{ACAD_REACTORS
330
ABA1
102
}
330
ABA1
100
AcDbXrecord
280
     1
102
SHADEPLOT
 70
     0
102
SHADEPLOTRESLEVEL
 70
     2
102
SHADEPLOTCUSTOMDPI
 70
   300
  0
XRECORD
  5
ABA4
102
{ACAD_REACTORS
330
ABA3
102
}
330
ABA3
100
AcDbXrecord
280
     1
102
SHADEPLOT
 70
     0
102
SHADEPLOTRESLEVEL
 70
     2
102
SHADEPLOTCUSTOMDPI
 70
   300
  0
XRECORD
  5
AB9F
102
{ACAD_REACTORS
330
AB9E
102
}
330
AB9E
100
AcDbXrecord
280
     1
102
SHADEPLOT
 70
     0
102
SHADEPLOTRESLEVEL
 70
     2
102
SHADEPLOTCUSTOMDPI
 70
   300
  0
XRECORD
  5
ABA6
102
{ACAD_REACTORS
330
1F9
102
}
330
1F9
100
AcDbXrecord
280
     1
102
MATERIAL
148
0.0
149
0.0
149
0.0
 93
        0
 94
       63
282
     0
 72
     1
 77
     1
171
     1
175
     1
179
     1
273
     0
  0
XRECORD
  5
1FA
102
{ACAD_REACTORS
330
1F9
102
}
330
1F9
100
AcDbXrecord
280
     1
 70
     1
 90
429727718
  1
D62C5603-E3A1-4AEA-B7FB-FE5D8D0755AF
310
504B03040A0000080000CC70623B3DEE336E79000000790000001B0000006175746F6465736B2D64657369676E2D7061636B6167652E786D6C3C3F786D6C2076657273696F6E3D22312E302220656E636F64696E673D227574662D3822203F3E3C666F726D6174733E3C666F726D61743E687474703A2F2F736368656D612E
310
6175746F6465736B2E636F6D2F64657369676E2D7061636B6167652F323030393C2F666F726D61743E3C2F666F726D6174733E504B0304140006080800CC70623BD486FD9CA0000000F4000000130000005B436F6E74656E745F54797065735D2E786D6C7D8EC10E82300C865F65E91D8A1E8C310C0EEA1BF002731658846E
310
D98AC1B77784ABF1D8FE5FBFBF75BBCE937A534CCEB38643598122B6FEE978D0B0485F9C41B54DDD7D022595594E1A469170414C76A4D9A4D207E29CF43ECE46F218070CC6BECC4078ACAA135ACF422C856C0E68EA1BF5669944DDD7BCDE7B1F8E415D77AECB980613C2E4AC91FC167A2B244592486606FC29C8FD7F045B9A
310
EF7053A7E60B504B0304140006080800CC70623B853B8169EB0000007C01000008000000636F72652E786D6C8D90416EC3201045AF62CDB6C206821CC7C244919D9CA01740401C94182C03558F5F9C3852BBEB6A467FFE9B197D7EFC9E1EC5975982F5AE035262288C535E5B377690E21535501C055FBC8FBF6C503839990E
310
5619041F179FE64D52DE45E362569DD7661365082642A11EB9E920A89B99642953CC8E702F67A9EE7234257977194EC9EAE275C4EABCCF5EAD5940D4AC6F0E35A568B8F43562CD7046CD199FD07E60174276A7BE677B5EADB0E0D14EEFFB6A31321A0D82627C4084204C3F096B71DD52F6819B16635EADF63F509AF53FA164
310
5DDCD1EDDD17164090FCC8732078B56691CB33A85CD7DCC40F504B0304140006080800CC70623B55019EA25F0000007C00000007000000636E782E786D6C4DCB3B0E80201045D1AD90E915ED2CF8AC45050C11660C8261F98AB1B07AC9C97D42D718D865D3E909258CFD00CCE24AC6E326A164D74DC0B4128928FF32603847
310
2BA13128B1252AC747C6BAB984FC68F0B87FE8960A5C09FE86CFB69FBA01504B0304140006080800CC70623BDBABAAF470010000D40300000C0000006662782F636F72652E786D6CC553D16E823014FD95A6AF4B694182CC941A83FA05FB810A9511A125A5257EFE2E82712ECEB8A7F100CD39F7F69E734AF9FADC366850B6
310
AF8DCE7018308C942E4C59EB2AC3DE1D498AD15A706B8CFB56869196ADCAF00863C12B6B7C374385D14E6907A836A59A41D9F7CA615434B0C8705F7CAA5606D23BA8E84F41278B93AC54100640439DE0BDB320004D43C63716C7C399D30917DCFBBA9CD9BA8469F5B156168B24CED3F7248AC8769F27244EB73B92EED8862C
310
B7F13E0C179B3C8F979C8ECD82BBBABDAA2BAC924E9558448CBD9330242CFA08E3154B5651FCC6D215639C8EE5774DBE2B5F6CF2B5768B68963BB5F5588420E442FC700B1139D4CB01F450C1E918227C2E09DF070D8140C84E1E9AAB8F1340832A9CB13130A5F1376A908D57309505ECF2A0DF179C4E9D30F5B239B87E3823
310
7A79C6F31DE1A8A5AEC08474B03C7837EAE4938639B44E5932B833D2C6B6B279CDC613877FA26EE21F4A2A4C63EC7F29A2F301D1F9F7A0E37D145F504B0304140006080800CC70623B9C113CC27E0000009D0000000B0000006662782F636E782E786D6C4DCCDF0A83201C86E15B91DFB94BFB330DD428C8FB886521330DA7
310
6397BF1A1DECE883878F57749FCDA1B7892F1BBC047A23808C7F84D9FA55424E0BE6803A256208E9EF06C84F9B91703228B1C690F78B66B34CD9A5439DF5CF0BFBF65E35BCA1B8D6A5C6F540381E886698B5741C695F9503EBA150A2F8958E3DC3EA0B504B0304140006080800CC70623B7DF2F77C2A010000120200003100
310
00006662782F41393633353835312D344632462D344230382D423046372D3739314545314133324237412F636F72652E786D6C8D51DB8EC22014FC15C2939B0D2DB4B45643319AE817EC0F6041255A68B86CFCFC856D4D76DF7CE190393373060EDB3DC707F856CE6B6B7A480A0C81328395DA5C7B18C3057510EC3873D686
310
3F34088C18550F330C39BB3A1BA7051AAC09CA84841A2BD5020AEF55806078A44B0FFD7053A328440C89E1EFC52486BBB8AA8214A99D789CF9E05200300FC927E4FB4D5B375D43103D5527440FB843077C5AA3F5861C8F645F5787F59E95B390B318B55CE45AA638FAA2957BD7248B390B7A7CC51F9C124149C82B8C378810
310
84AB2F42B7B8DD56F413775B8C5999E9FF4471926F8AA236A1AE96B8B3CC434E5839373893369E1FAF30EA395917409EB7F26AF8801C171837A4A6AC9C89E9F9C9B1A58BA30FD6A5EF5DDDCF894B9AD9B6A59C957943A9FCAE2FD5BC4DFE03504B0304140006080800CC70623BAD7543B64E01000033030000300000006662
310
782F41393633353835312D344632462D344230382D423046372D3739314545314133324237412F636E782E786D6CD593CD6EC32010845F0571AD6CE3D48AD20813A9873E410FBD12D82434182C7EAAE6EDBB2424CD25871E7B41D6EC30B3FA84F9E67BB2E40B4234DE8DB46F1925E094D7C6ED479AD3AE5951B2113C789FEE
310
6C943839C1488B4C05DF079FE72A69D8C96C13AAD6B8631503449F83828872B949AC57D26200B826A308D316B4064D6E46FCDA41C05550DC9E483A00797BFD207EFB092A45DE9514C1BBD22178396BD39D891265658C238DEA00936C654E5E433CB65A26D9F6EDB5EBC14EBF49A45CB856E66048291F6939A9A81BB5C89177
310
38143CA680F4AA299D66A042CEB3354A2684DC9D8D178FE0D9B8B41CAAD720F880EE7EF93C0C18769E099ECC04D5A102C8049A8A05632F4DDF376CF1DE0F6BB65C2F8627B65A33C6BB62177CEBBDAD973006829F89F22E814B54F4BC2BE347F8AA8F681390B50FA73F804400B5F542E796F19FF974E7F78DB802FE05E20750
310
4B0304140006080800CC70623BE75B7789680500003C100000340000006662782F41393633353835312D344632462D344230382D423046372D3739314545314133324237412F6F626A656374732E786D6CAD575B8F9B3818FD2B887D06C22499CB8AA1CA655245D5B455A356FB305264C061D8018C6C3393D95FBFC7600890
310
A4CD5EF210B0B1BFEBF98E3F7B1FF6596ABC522E1296DF9BAE3D320D9A872C4AF2F8DE2CE5CEBA358D0FBEC719939D65A691938CDE9B6ADAF4BD98B3B2D05311DD91329583D9D5FC0F438434A7A611A644887B5384CF34233629258BA878B12322891DEFF6B66BD70BFB62634E8AE781D082709A4B588AF91C528CDA28B73F
310
1C998EEF39EABBEFA97FBD6A7C7E9553F9D3D79FE442923C3C523610337627CB87ABE99D359D4CC6D6E4FACAB5E6ABF9D2726FC6A3C5F56271377BB88362213924694B38DD99FE47C48627A1E7D49F5A8BB5E1A74C0A599ED3B0F21F1E56366B89112D681E218F0915D0D6F17AD41FBA2A369DCF6335D62ABBD39779D5DDD1
310
11D4D8DE3CBB96B2E04FB8202E41051754A1AA8E8F76B4C6DFE810B580B1547F4B84911149794252234D024EF8BBE963A95AE27B3D310A9D5C215C7960FAEE415ED75694C6AFB17BCACA5D99A60A9AA65F217B0BFC53292ACB92BF283FAD0D3621576592CB5BED907C2FA8E9DF794E35E97BEA31BED21FEB401ABB94C44839
310
DCACBF0E1C5DA8DA5B2F4DFFD32AD86F543D9E565E7056502E157C00AD2671CD534549AB752FCA9CDA00677A313F04E51B22FF19E57B300579E3C97EB29F682D92935CEC18CF901B7B54FD8C51F362B56FC72FE0B3C1EAE335EDCCBF5AEC39ADB17DC238973F804BA5E6F6BFE7AF1FB32E523BE9F3BD571418E3631DCA4D48
310
5250CF639223210A9446CA30052EDF057BD35F8329C1ECD84552BF0DC8D18BE7BCE23BFE6BD960AB4A7DE79923A103BEBD80F911CBAA2C60DB19B01CF164A5583B772EE6D3FFA56666CBCDA74DC97724A48F9A58967497E489C4D979006FD7A05E227A1EBDD0F737C623387A9C844D3709995625106D157315F8B8392CD4E0
310
A0B9A720C4BE9829CEF37EA1E13111214D53925356365ADA634861B52519DD27A00AEB808EAF0628E6F435519D446F45CF2C9CF5214F0A15B2F6D06B79DA3EE3CBF7F56780D2F4E7EF73A0F5E5B02A38D07DC852C6B7C1FBB6664213E0C39E3EBA7FF4E1AD23EA2829407C85E586727488B751B2DB9502BC7B228A3FD68B6E
310
A65A22397E690AA8D158D7E404EC8CDA235CC3B7D1898680131CEC2CDF2638C65196279577750F15884AEE19F94199155B92B13297978469D4F8D358DF0AEF7631E28DC8F0D9F437D5D39A83B2231A1D52D543813A824EF8D44BCFF2FA6A31BD1E8DAD87F1CCB526B3879935BF59CDADD5C37479BB1CDD4CA7B3556B516589
310
EF352754B706114D9C885EC9131DE6EFEB43D99AFE2391C2F958179413D7CFEF6B1B6DB1E7600F00DE6E5C67454A339A4BA2E0FBA85ED26F045D454F463DBFCE484C2F90F2E5E3666003662ED8F755951A7D1BECD5B30B550B2785C8E7320B7292A4838DDA71BBC863ED7613CAF659337A3354231D4FF4A182A54904C2898C
310
98B28C4AD0CE056CCF332A80986E571EE9DBC305BB5FEB7E509220A58D25CF042D712A806AC0AD0C657FDEF80D2D9CEAA2EE4D1C76F60BFE74219A06527D6F82DF6412526107381E55E353090704D085B52408A8913C4ED159D79BDA71BB4BC506F4831350EB6F975CD22D69BF7AC49B91A2C0A9DDA3D5CA36AD20FC478E37
310
E61844E2352865EBCB61A275A65283CAAA9DD27703B4102F5AF51EF5F573B75CBB5AD38BC845F7A49F82A0966A49C2E3EA5EA0ECD326CD965F1DB402C6FA8B51A4658C5C5E2EC9E214602E55810345408596591009A82E7E7FFACA19EEA299B14A0081A705CB3296EBC14CDF658DCD336EA6D1136881AAEB87B81AB9EE53D5
310
F5EB8BC8362082DA24122F98680A4E7930C01A0079749CEA14382A0783E5EBA5A10F8C098456A03D6A4AEB6BB881E2513747552A5DB22C7EDAF83BD5528081A365F7FF06504B0304140006080000CC70623B000000000000000000000000350000006662782F41393633353835312D344632462D344230382D423046372D37
310
39314545314133324237412F76657274696365732E62696E504B0304140006080800CC70623BF270F1330600000004000000360000006662782F41393633353835312D344632462D344230382D423046372D3739314545314133324237412F747269616E676C65732E62696E636660600000504B0304140006080000CC7062
310
3B000000000000000000000000370000006662782F41393633353835312D344632462D344230382D423046372D3739314545314133324237412F617474726962757465732E62696E504B0304140006080800CC70623B08DA0BD19000000041010000360000006662782F41393633353835312D344632462D344230382D4230
310
46372D3739314545314133324237412F6469726563746F72792E786D6C858F410AC3201045AF22B36F53E9A60B35CBEEBAE80D244E44489C6234F4F835464A48035D0DF398FF9F8AF63D0E6CC63039F212F8F9020C7D47C6792B21C5FE7403D62A1188E2E60C98D7234A5830286103A55745067B9D86B8A3CF9C7F90C11DE6
310
07FB144396D7B6A82D282E9A152AD114D5EF2CB866EEE831B8EEA07A7BB5A8D7D61A2BAAEB7FD5F70921FF497D00504B0304140006080800CC70623BEDD1DC58FD000000A00100003B0000006662782F41393633353835312D344632462D344230382D423046372D3739314545314133324237412F7265736F75726365732F
310
636F72652E786D6C8D504B6E833010BD0A9A6D65B00922041947112427E8052C33A156828DFCA97AFC9A40A576D7CDCCE87D344F8F9FBFE667F689CE6B6B3A6039850C8DB2A336530731DC4903D95970676DF82583CCC8193B5861107C72362E3BA4AC096842428D1D7107A5F7182053CF7474E0D507CE32973124857FE48B
310
540F3961CEF244279DE03EB81420DB9EAC1384436FA353E879B1B182C7A8C75DA3C7F453DF353A1075D537A7BA6464B8F535A99AE14A9A2BBD90E350DD183B5CFABE3AF262350B1EF4FC9351399401471025A527C218A1E53BAB5A5AB765F5469B96525EACF23FA6B88CFF34456DC2A1DCE36E360F82A5202F42F062ED2BAD
310
579969AFDD8A6F504B010214000A0000080000CC70623B3DEE336E79000000790000001B00000000000000000000000000000000006175746F6465736B2D64657369676E2D7061636B6167652E786D6C504B01021400140006080800CC70623BD486FD9CA0000000F40000001300000000000000000000000000B20000005B
310
436F6E74656E745F54797065735D2E786D6C504B01021400140006080800CC70623B853B8169EB0000007C010000080000000000000000000000000083010000636F72652E786D6C504B01021400140006080800CC70623B55019EA25F0000007C000000070000000000000000000000000094020000636E782E786D6C504B
310
01021400140006080800CC70623BDBABAAF470010000D40300000C00000000000000000000000000180300006662782F636F72652E786D6C504B01021400140006080800CC70623B9C113CC27E0000009D0000000B00000000000000000000000000B20400006662782F636E782E786D6C504B01021400140006080800CC70
310
623B7DF2F77C2A010000120200003100000000000000000000000000590500006662782F41393633353835312D344632462D344230382D423046372D3739314545314133324237412F636F72652E786D6C504B01021400140006080800CC70623BAD7543B64E010000330300003000000000000000000000000000D2060000
310
6662782F41393633353835312D344632462D344230382D423046372D3739314545314133324237412F636E782E786D6C504B01021400140006080800CC70623BE75B7789680500003C10000034000000000000000000000000006E0800006662782F41393633353835312D344632462D344230382D423046372D3739314545
310
314133324237412F6F626A656374732E786D6C504B01021400140006080000CC70623B0000000000000000000000003500000000000000000000000000280E00006662782F41393633353835312D344632462D344230382D423046372D3739314545314133324237412F76657274696365732E62696E504B01021400140006
310
080800CC70623BF270F133060000000400000036000000000000000000000000007B0E00006662782F41393633353835312D344632462D344230382D423046372D3739314545314133324237412F747269616E676C65732E62696E504B01021400140006080000CC70623B0000000000000000000000003700000000000000
310
000000000000D50E00006662782F41393633353835312D344632462D344230382D423046372D3739314545314133324237412F617474726962757465732E62696E504B01021400140006080800CC70623B08DA0BD1900000004101000036000000000000000000000000002A0F00006662782F41393633353835312D344632
310
462D344230382D423046372D3739314545314133324237412F6469726563746F72792E786D6C504B01021400140006080800CC70623BEDD1DC58FD000000A00100003B000000000000000000000000000E1000006662782F41393633353835312D344632462D344230382D423046372D3739314545314133324237412F7265
310
736F75726365732F636F72652E786D6C504B0506000000000E000E0080040000641100000000
  0
XRECORD
  5
ABA5
102
{ACAD_REACTORS
330
1F7
102
}
330
1F7
100
AcDbXrecord
280
     1
102
MATERIAL
148
0.0
149
0.0
149
0.0
 93
        0
 94
       63
282
     0
 72
     1
 77
     1
171
     1
175
     1
179
     1
273
     0
  0
XRECORD
  5
1F8
102
{ACAD_REACTORS
330
1F7
102
}
330
1F7
100
AcDbXrecord
280
     1
 70
     1
 90
429727718
  1
30362254-06B7-45E0-A893-8CFA70E3D6BC
310
504B03040A0000080000CC70623B3DEE336E79000000790000001B0000006175746F6465736B2D64657369676E2D7061636B6167652E786D6C3C3F786D6C2076657273696F6E3D22312E302220656E636F64696E673D227574662D3822203F3E3C666F726D6174733E3C666F726D61743E687474703A2F2F736368656D612E
310
6175746F6465736B2E636F6D2F64657369676E2D7061636B6167652F323030393C2F666F726D61743E3C2F666F726D6174733E504B0304140006080800CC70623BD486FD9CA0000000F4000000130000005B436F6E74656E745F54797065735D2E786D6C7D8EC10E82300C865F65E91D8A1E8C310C0EEA1BF002731658846E
310
D98AC1B77784ABF1D8FE5FBFBF75BBCE937A534CCEB38643598122B6FEE978D0B0485F9C41B54DDD7D022595594E1A469170414C76A4D9A4D207E29CF43ECE46F218070CC6BECC4078ACAA135ACF422C856C0E68EA1BF5669944DDD7BCDE7B1F8E415D77AECB980613C2E4AC91FC167A2B244592486606FC29C8FD7F045B9A
310
EF7053A7E60B504B0304140006080800CC70623B1EC5D7A3EB0000007C01000008000000636F72652E786D6C8D90416EC3201045AF82665B6103C6756C6122AB4D4ED00B204C5C94182C03558F5F9C3852BBEB6A467FFE9B197D71FC9E6FE8CBACC17AD7032D0820E3B41FAD9B7A48F1820F808E52ACDEC75F36404ECDA687
310
4D0629A6D5A76597B477D1B89855E747B38B2A041301E95B6E7A08FAD3CCAA50296647B8168BD2573599823EBB0CA76447F43862C7BCCF5EAC59410E4DDD9C7973C2755553CCCFA4C603E3040F1565ED3B1FDE4E432BCA0D9622DAF9795FAF464533826484B498524CD807E51D79ED187F21878E10516EF63F505AC67F42C9
310
BA58B1FDDD071640D2FCC87D2045B96591CB3DA85CB7DCE40F504B0304140006080800CC70623B55019EA25F0000007C00000007000000636E782E786D6C4DCB3B0E80201045D1AD90E915ED2CF8AC45050C11660C8261F98AB1B07AC9C97D42D718D865D3E909258CFD00CCE24AC6E326A164D74DC0B4128928FF32603847
310
2BA13128B1252AC747C6BAB984FC68F0B87FE8960A5C09FE86CFB69FBA01504B0304140006080800CC70623B8C9102E971010000D40300000C0000006662782F636F72652E786D6CC5535B6E833010BC8AE5DF0A6C08340F1947A84D4ED00B38C6A128602363A31CBFCB234A53A551FA553EC09AD9F5CE8C31DB9E9B1AF5CA
310
7695D1198E428A91D2D214952E33ECDD315861B4E5CC1AE3BE9561A445A3323CC098B3D21ADFCE9034DA29ED00D5A6503328BA4E398C640D8B0C77F253352214DE4145770A5B214FA2546114020D759C75CE8200340D19DE981F0F6746269C33EFAB6266AB02A655C74A59CCF365BADC27CB5D902ED22848F6340DF238A141
310
BE88E2F57B92BFEDF23523433367AE6A2EEAA455C2A902F398D2751045018D3FA264435F3771F242571B4A1919CA6F9A7C5B3CD9E42BED16F12C776AEB308F40C848FC700B1139D4891EF410CEC810227CC6846F8386402064270EF5C5C709A05E49676C024C61FC95EA45ED154CA5211D1FF4FB8291A913A68E9B83EBBB33
310
E2A7673CDE118E5AE8124C0807CB8377834E366998436B950D7A7746DAD846D4CFD978E0F04FD455FC5D49D2D4C6FE9722321F10997F0F32DC47FE05504B0304140006080800CC70623BFFEA85907E0000009D0000000B0000006662782F636E782E786D6C4DCCD10A83201886E15B91FFDC95D95A811AB6F23E625948A6C3
310
E9D8E5AF46073BFAE0E1E365ED67B3E8ADC3CB78C7815C7240DA3DFC64DCC221C519D7805AC182F7F1EF06C88D9BE6703008B6049F9E274D7A1E938DBB5AE3D6131B2589BA0D3D965551E0B2EA732C9B9A624AAEB41E3A557677029960D9AFB4EF11165F504B0304140006080800CC70623B4FEEA4082C0100001202000031
310
0000006662782F39464131463745442D413632322D343644302D413938332D3331353338454246344243312F636F72652E786D6C8D515B6EC32010BC0AE2AB55850DD871ED0813254D72825EC00192A2C460F1A872FC42ED48ED5F7E00CDCECCCEB26C731F6FE05B39AFADE921293004CA082BB5B9F43086336A21D870E6AC
310
0D7F68109861543DCC30E4ECE26C9C164858139409093556AA051CBC570102714B8F1E7AF1A5C6A11862480C7F2DA6415C878B2A4891CA89C7990F2E050073937C42DE1DB7E4F87ED8A36D4329AA9B3D46DBAEAD504556557BD81DEBDD0761E52CE42C462D17B996298E3E6BE59E35C962CE821E1FF18553435012728A7187
310
0841987E927A8D9B35ADDF70BBC6989599FE4F1427F9A4286A132ABAC49D651EF234CD5CE04CDA78BA3DC2A8FB645D00B9DF8B57E215725C60BCA2A463E54C4CE327C7A65E1C7DB02E7DEFCBF594B864C5CA6CDBD49C957943E9FA5D5FBAF336F90F504B0304140006080800CC70623BAD7543B64E01000033030000300000
310
006662782F39464131463745442D413632322D343644302D413938332D3331353338454246344243312F636E782E786D6CD593CD6EC32010845F0571AD6CE3D48AD20813A9873E410FBD12D82434182C7EAAE6EDBB2424CD25871E7B41D6EC30B3FA84F9E67BB2E40B4234DE8DB46F1925E094D7C6ED479AD3AE5951B2113C
310
789FEE6C943839C1488B4C05DF079FE72A69D8C96C13AAD6B8631503449F83828872B949AC57D26200B826A308D316B4064D6E46FCDA41C05550DC9E483A00797BFD207EFB092A45DE9514C1BBD22178396BD39D891265658C238DEA00936C654E5E433CB65A26D9F6EDB5EBC14EBF49A45CB856E66048291F6939A9A81BB5
310
C8917738143CA680F4AA299D66A042CEB3354A2684DC9D8D178FE0D9B8B41CAAD720F880EE7EF93C0C18769E099ECC04D5A102C8049A8A05632F4DDF376CF1DE0F6BB65C2F8627B65A33C6BB62177CEBBDAD973006829F89F22E814B54F4BC2BE347F8AA8F681390B50FA73F804400B5F542E796F19FF974E7F78DB802FE05
310
E207504B0304140006080800CC70623B16AB87BA640500003C100000340000006662782F39464131463745442D413632322D343644302D413938332D3331353338454246344243312F6F626A656374732E786D6CAD575B6FA33818FD2B887DE6924B3BED8A326A92B68A663B534DD4D13E548A0C38942D60649B369D5FBFC7
310
600890A493BDE42160637FD7F31D7FF63E6FB3D478A55C242CBF3247B66B1A340F5994E4F19559CA8D75611A9F7D8F33263BCB4C232719BD32D5B4E97B316765A1A722BA21652A07B3B7B33F0D11D29C9A46981221AE4C113ED38CD8A4942CA2E2C58E882476BCD9DA23BB5ED8171B73523C0F841684D35CC252CCE79062D4
310
468DFA43D7747CCF51DF7D4FFDEB5593E3AB9CCA9FBEFE241792E4E19EB28198C968BAB8199F5D5A67D3E9C49A9E8F47D6EC76B6B0469F26EEFC7C3EBFBCBEB98462213924694B38DD98FE1D62C393D073EA4FADC5DAF04326852CCF6958F90F0F2B9BB5C48816348F90C7840A68EB78EDF68723159BCEE7891A6B95DDE9D3
310
BCEAEEE8086A6C6F9E5D4B59F0175C10A7A0820BAA5055C7473B5AE3CFDD452D602CD5DF12616444529E90D448938013FE6EFA58AA96F85E4F8C42275708571E98FE6827AF6B2B4AE3D7D83D64E5A64C53054DD3AF90BD06FEA9149565C94FCA0F6B834DC85599E4F2423B24DF0B6AFA979E534DFA9E7A4CC6FA631D486393
310
921829879BF5D781A373557BCB85E97FB90DB62B558F8795179C15944B051F40AB495CF35451D26A4727654E6D8033BD98EF82F21D91FF8AF2DD9982BCF1643BDD4EB516C9492E368C67C88DED563FC36D5EACF66DFF057C3658BDBFA69DF9578B3DA735B64F18C7F20770A9D45CFCF7FCF563D6456A277DBEF78A02637CA2
310
43B90A490AEAB94F72244481D24819A6C0E59B606BFA4B3025981DBB48EAB701D97BF19C577CC77F2D1B6C55A9EF3C732474C0B727303F625995056C3B02963D9EAC146BE78EC5FCEC7FA999EBC5EACBAAE41B12D27B4D2C0BBA49F244E2ECDC81B76B502F113D8F5EE8FB1BE3111CDD4FC2AA9B844CAB1288B68AB90A7CDC
310
1C166AB0D3DC5310625FCC14E779BFD0709F8890A629C9292B1B2DED31A4B0DA928CEE135085754027E3018A397D4D5427D15BD1330B677DC8934285AC3DF45A9EB68FF8F2B8FC0A509AFEECFD0FF2DE25CC6047F7214B195F07EFEB9A094D800F7BFAE8FED187B78EA8A3A400F115961BCAD1215E47C966530AF0EE8128FE
310
58CEBB996A8964FFA529A046635D9353B0336A8F700DDF46271A024E70B0B37C9DE01847591E54DED53D54202AB947E4076556AC49C6CA5C9E1226B7F1A7B1BE15DEED62C41B91E1B3E9AFAAA735036547343A925075041DF0A9979E893B391F8FCFA6967B3EFB644DCF6E5CEBFAE272625DCC6FAF3FB93793C5F90CE1EF57
310
407342756B10D1C489E8953CD1617E5CEECAD6F4EF8914CE5D5D504E5C3F1F9736DA62CFC11E00BCDDB8CC8A9466349744C1F75EBDA4DF09BA8A9E8C7A7E9991989E20E5DBDD6A6003664ED8F7A04A8DBE0DF6EAD9B9AA858342E47399053949D2C146EDB85DE4B176BB0965FBAC19BD19AA918E27FA50C1D22402E144464C
310
59462568E704B6E71915404CB72B8FF4EDE184DDAF753F284990D2C6926782963815403548A70C657FDEF80D2D9CEAA2AE4C1C76F60BFE74219A06527D6582DF6412526107381E55E353090704D085B52408D0933C4ED159D79BDA71BB4BC506F4831350EB6F979CD22D69BF7AC49B91A2C0A9DDA3D5CA36AD20FC478E37E6
310
1844E2352865EBCB6EA275A652E3836BE04EFB400BF1A2556F515F1FBB35B2AB35BD889C744FFA1004B5544B121E57F70215746DD2F5E2C1412B602CBF19455AC6C8E5E9922C4E01E65215385004546899059180EAFCF7A707CE7017CD8CDB0410789AB32C63B91E5CEBBBACB17AC6CD347A022D5075FD106377347AAABA7E
310
7D11590744509B44E205134DC1290F06580320F78E537D3D73540E06CB970B431F185308AD40BBD794D6D77003C5A36E8EAA54BA64597CD8F83BD552A080A365F7FF06504B0304140006080000CC70623B000000000000000000000000350000006662782F39464131463745442D413632322D343644302D413938332D3331
310
353338454246344243312F76657274696365732E62696E504B0304140006080800CC70623BF270F1330600000004000000360000006662782F39464131463745442D413632322D343644302D413938332D3331353338454246344243312F747269616E676C65732E62696E636660600000504B0304140006080000CC70623B
310
000000000000000000000000370000006662782F39464131463745442D413632322D343644302D413938332D3331353338454246344243312F617474726962757465732E62696E504B0304140006080800CC70623B08DA0BD19000000041010000360000006662782F39464131463745442D413632322D343644302D413938
310
332D3331353338454246344243312F6469726563746F72792E786D6C858F410AC3201045AF22B36F53E9A60B35CBEEBAE80D244E44489C6234F4F835464A48035D0DF398FF9F8AF63D0E6CC63039F212F8F9020C7D47C6792B21C5FE7403D62A1188E2E60C98D7234A5830286103A55745067B9D86B8A3CF9C7F90C11DE607
310
FB144396D7B6A82D282E9A152AD114D5EF2CB866EEE831B8EEA07A7BB5A8D7D61A2BAAEB7FD5F70921FF497D00504B0304140006080800CC70623B0D6EF93BFE000000A00100003B0000006662782F39464131463745442D413632322D343644302D413938332D3331353338454246344243312F7265736F75726365732F63
310
6F72652E786D6C8D50596E833010BD0A9ADFCA60B334011947A8694ED00B586642AC041B79A97AFC9A40A5F6AF3F33A3B7689E1E3F7DCD8FEC139DD7D6F4C0720A191A65476DA61E62B892236427C19DB5E1970C322367EC618541F0C9D9B8EC90B226A009093576C41D94DE63804C3DD2D18357379C652E63480A7FCF17A9
310
EE72C29CE5894E3AC17D702940B63D59270887DE46A7D0F36263058F518FBB468FE9A7BE6A7420864373B8D4873369AA8691FA421B3294352543C5CAF65C0F6FEF43CB8BD52C78D0F34F46E550061C419494B6843142CB0F5677F4B52BEB177AEC28E5C52AFF638ACBF84F53D42654E51E77B379102C05791282176B5F693D
310
CB4C7BED567C03504B010214000A0000080000CC70623B3DEE336E79000000790000001B00000000000000000000000000000000006175746F6465736B2D64657369676E2D7061636B6167652E786D6C504B01021400140006080800CC70623BD486FD9CA0000000F40000001300000000000000000000000000B20000005B
310
436F6E74656E745F54797065735D2E786D6C504B01021400140006080800CC70623B1EC5D7A3EB0000007C010000080000000000000000000000000083010000636F72652E786D6C504B01021400140006080800CC70623B55019EA25F0000007C000000070000000000000000000000000094020000636E782E786D6C504B
310
01021400140006080800CC70623B8C9102E971010000D40300000C00000000000000000000000000180300006662782F636F72652E786D6C504B01021400140006080800CC70623BFFEA85907E0000009D0000000B00000000000000000000000000B30400006662782F636E782E786D6C504B01021400140006080800CC70
310
623B4FEEA4082C0100001202000031000000000000000000000000005A0500006662782F39464131463745442D413632322D343644302D413938332D3331353338454246344243312F636F72652E786D6C504B01021400140006080800CC70623BAD7543B64E010000330300003000000000000000000000000000D5060000
310
6662782F39464131463745442D413632322D343644302D413938332D3331353338454246344243312F636E782E786D6C504B01021400140006080800CC70623B16AB87BA640500003C1000003400000000000000000000000000710800006662782F39464131463745442D413632322D343644302D413938332D3331353338
310
454246344243312F6F626A656374732E786D6C504B01021400140006080000CC70623B0000000000000000000000003500000000000000000000000000270E00006662782F39464131463745442D413632322D343644302D413938332D3331353338454246344243312F76657274696365732E62696E504B01021400140006
310
080800CC70623BF270F133060000000400000036000000000000000000000000007A0E00006662782F39464131463745442D413632322D343644302D413938332D3331353338454246344243312F747269616E676C65732E62696E504B01021400140006080000CC70623B0000000000000000000000003700000000000000
310
000000000000D40E00006662782F39464131463745442D413632322D343644302D413938332D3331353338454246344243312F617474726962757465732E62696E504B01021400140006080800CC70623B08DA0BD190000000410100003600000000000000000000000000290F00006662782F39464131463745442D413632
310
322D343644302D413938332D3331353338454246344243312F6469726563746F72792E786D6C504B01021400140006080800CC70623B0D6EF93BFE000000A00100003B000000000000000000000000000D1000006662782F39464131463745442D413632322D343644302D413938332D3331353338454246344243312F7265
310
736F75726365732F636F72652E786D6C504B0506000000000E000E0080040000641100000000
  0
XRECORD
  5
ABA7
102
{ACAD_REACTORS
330
173
102
}
330
173
100
AcDbXrecord
280
     1
102
MATERIAL
148
0.0
149
0.0
149
0.0
 93
        0
 94
       63
282
     0
 72
     1
 77
     1
171
     1
175
     1
179
     1
273
     0
  0
XRECORD
  5
175
102
{ACAD_REACTORS
330
173
102
}
330
173
100
AcDbXrecord
280
     1
270
     1
271
     1
  0
XRECORD
  5
174
102
{ACAD_REACTORS
330
173
102
}
330
173
100
AcDbXrecord
280
     1
270
     1
271
     1
  0
XRECORD
  5
1FB
102
{ACAD_REACTORS
330
173
102
}
330
173
100
AcDbXrecord
280
     1
 70
     0
 90
1673772943
  1
ECE7A1D2-D628-4531-984C-D00F80459256
310
504B03040A0000080000CC70623B3DEE336E79000000790000001B0000006175746F6465736B2D64657369676E2D7061636B6167652E786D6C3C3F786D6C2076657273696F6E3D22312E302220656E636F64696E673D227574662D3822203F3E3C666F726D6174733E3C666F726D61743E687474703A2F2F736368656D612E
310
6175746F6465736B2E636F6D2F64657369676E2D7061636B6167652F323030393C2F666F726D61743E3C2F666F726D6174733E504B0304140006080800CC70623BD486FD9CA0000000F4000000130000005B436F6E74656E745F54797065735D2E786D6C7D8EC10E82300C865F65E91D8A1E8C310C0EEA1BF002731658846E
310
D98AC1B77784ABF1D8FE5FBFBF75BBCE937A534CCEB38643598122B6FEE978D0B0485F9C41B54DDD7D022595594E1A469170414C76A4D9A4D207E29CF43ECE46F218070CC6BECC4078ACAA135ACF422C856C0E68EA1BF5669944DDD7BCDE7B1F8E415D77AECB980613C2E4AC91FC167A2B244592486606FC29C8FD7F045B9A
310
EF7053A7E60B504B0304140006080800CC70623BD9DDAED0EC0000007C01000008000000636F72652E786D6C8D90416EC3201045AF82665B61836D9CD8C2444DD39CA01740405C94182C03558F5F9C3852BBEB6A467FFE9B197D7EF89E6EE8CB2CC17A37002D0820E394D7D68D03A478C17B4007C117EFE32F1B20272733C0
310
2A83E0E3E2D3BC49CABB685CCCAAF3DA6CA20CC14440EA969B0182FA34932C648AD911AEC52CD5558EA6A0CF2EC329598D1E47ACCEFBECC59A050463A7EA5833865FEBDD0E37353BE3EE8DBDE3F6786A48D375FBF6CC78B9C282473B3DEFABC5C86834888A900E538A49F5419B9EB47DD5BC907D4F082F57FB1F28CDFA9F50
310
B22ED6D5F6EE030B20687EE43E10BC5CB3C8E51E54AE6B6EE207504B0304140006080800CC70623B55019EA25F0000007C00000007000000636E782E786D6C4DCB3B0E80201045D1AD90E915ED2CF8AC45050C11660C8261F98AB1B07AC9C97D42D718D865D3E909258CFD00CCE24AC6E326A164D74DC0B4128928FF326038
310
472BA13128B1252AC747C6BAB984FC68F0B87FE8960A5C09FE86CFB69FBA01504B0304140006080800CC70623BA24EB22D72010000D40300000C0000006662782F636F72652E786D6CC5535B6E833010BC8AE5DF0A6C5E49888CA3A6694ED00B38E05014B091B1518EDFE511A5A9D228FD2A1F60CDEC7A67C6986DCE4D8D7A
310
69BA4AAB0C073EC548AA5C17952A33ECECD15B61B4E1CC686DBF9561A44423333CC098B3D268D7CE50AE9595CA02AA74216750749DB418E5352C32DCE59FB211BE70162ABA93DF8AFC244AE9073ED050C759670D0840D390E18DF9F1706664C23973AE2A66B62A605A75ACA4C13C4976E1364A12EF355A2EBD384AF65EFA96
310
BC7B8BED2EA6719AAE16FB8491A199335B351775B991C2CA02F390D2D40B028F861F41BCA68B7518BFD0D59A524686F29B26D7164F36B94AD9289CE54E6D1DE6010819891F6E21228B3AD1831EC219194284CF98F06DD01008846CC5A1BEF83801D4CBDC6A1303536877A57A513B0953A94FC707FDBE6064EA84A9E3E6E0FA
310
EE8CF0E9198F7784A316AA0413C2C2F2E0ECA0934D1AE6D05A69BCDE9E91D2A611F573361E38FC1375157F5752AE6B6DFE4B11990F88CCBF0719EE23FF02504B0304140006080800CC70623B408A7D3B7C0000009D0000000B0000006662782F636E782E786D6C4DCCD10A83201886E15B91FFDC552A92A0064DBC8F581632
310
D3703A76F9ABD1C18E3E78F878E5F0D9027ABBFCF2292AE86E2D20171F69F6715550CB827B40839639A5F2770314A7CD293819B45C73AAFB45B35BA61ACAA1C1C7E7855C58C15BC331339661262CC762340413D68D77DA5B42298546CBE6573AF60CEB2F504B0304140006080800CC70623B449FB9BD290100001202000031
310
0000006662782F36394639363044362D344446342D343946362D394244322D3234314243333846323333332F636F72652E786D6C8D515B6EC32010BC0AE22B55850D98B871848994463E412FE002495162B07854397EA176A4F62F3F2C9A9D991D587EB84F37F0AD7D30CEF6905418026DA553C65E7A98E219ED203808EE9D
310
8B7F6810D871D23D2C3014FCE25D9A57483A1BB58D19B54EE9151C43D0110279CB971E06F9A5A7B11A53CC8C70ADE6515EC78BAE4895DB992778883E0700CB907242D17643D7E2538BD869608875438BBAE38922CAC8F1BDD90DB4691A5E2F42C153326A951B95E398B3D1FE599322163C9AE9115F7A3D46ADA0A018778810
310
84E907617BDCEE297BC5BB3DC6BC2EF47FA234AB2745C9D8D8D035EE220B50105E2F0DC1954B9FB747187D9F9D8FA0CCDB042D5FA0C015C65B42DF78BD10F3F3B363CB56C7109DCFDFBBB97E662ED92EB62D13BC2E1BCAE5777DB9966D8A1F504B0304140006080800CC70623BAD7543B64E01000033030000300000006662
310
782F36394639363044362D344446342D343946362D394244322D3234314243333846323333332F636E782E786D6CD593CD6EC32010845F0571AD6CE3D48AD20813A9873E410FBD12D82434182C7EAAE6EDBB2424CD25871E7B41D6EC30B3FA84F9E67BB2E40B4234DE8DB46F1925E094D7C6ED479AD3AE5951B2113C789FEE
310
6C943839C1488B4C05DF079FE72A69D8C96C13AAD6B8631503449F83828872B949AC57D26200B826A308D316B4064D6E46FCDA41C05550DC9E483A00797BFD207EFB092A45DE9514C1BBD22178396BD39D891265658C238DEA00936C654E5E433CB65A26D9F6EDB5EBC14EBF49A45CB856E66048291F6939A9A81BB5C89177
310
38143CA680F4AA299D66A042CEB3354A2684DC9D8D178FE0D9B8B41CAAD720F880EE7EF93C0C18769E099ECC04D5A102C8049A8A05632F4DDF376CF1DE0F6BB65C2F8627B65A33C6BB62177CEBBDAD973006829F89F22E814B54F4BC2BE347F8AA8F681390B50FA73F804400B5F542E796F19FF974E7F78DB802FE05E20750
310
4B0304140006080800CC70623B8D05915C650500003B100000340000006662782F36394639363044362D344446342D343946362D394244322D3234314243333846323333332F6F626A656374732E786D6CAD575B6FA33814FE2B887D06429276DA1565D4266D158D3A339A6846FB502932E050B66023DB74D2FDF5FB190C01
310
9276B2973C046C8ECFF53B17071F77456EBD502133CEAE6CDF9DD81665314F32965ED995DA3A17B6F5310C04E7AA47665B8C14F4CAD6DB7618A48257A5D94AE89654B91AEDDEDDFC61C998326A5B714EA4BCB265FC440BE2924AF184CA6737218AB8E976E7FA6E4338649B0A523E8D98964450A6A029F619B8588D52FE7039
310
B1BD30F0F4F730D0FF866AF6369557DB33949F31A9088B0F848DD8CCFCF9F2767A76E99CCDE733677E3EF59D9BBB9BA5E37F984D16E78BC5E5F5ED25044B25C0C96822E8D60EEFE11B91C581D77CEA34368A1F5329E68CD1B8B61F16D63A1B8E092D294B10C78C4A48EB593D192E7DED9BDEE7995E1B91FDEDD3ACEA9FE831
310
6A756F9F7D4D79F4274C90A7A04248AA51D5F8C718DAE06FB2F75AC4796EBE65D22A88A22223B995679120E2D50E41AA49C260C046A35368846B0BECD0DFF3EBEB8AD4F835768F69B9ADF25C43D30E6B646F807FAA64AD59F61715C7A54127C4AACA98BA3006A9D792DAE165E0D59B61A01FB3A9F9D838D2DAE62445C86166
310
F37564E842E7DE6A69879FEEA2DD5AE7E371E1A5E025154AC307D06A03D73EB5978C58FFA4C8E9033066E0F3BD53BEC1F39F91BE7B55103791EDE6BBB991A2046172CB4581D8B893FA674DDA17A77B3B7C413D1B511FD2743BFF8A38F03A658705E3ADF8015C3A3417FF3D7E439FF591DA0B5F18BC20C1B8981957AE6392A3
310
F43C640C01D1A0B4728E2DD4F26DB4B3C3152A252A3B4E913CEC1C72F012782FF88EFF8637AA552DBEF76408E8A8DE9E50F9E1CB3A2DA0DB1B6039A893B56063DC5B3E3FFB5F72E67AB9FEB4AEC496C4F4C1149625DD662C53E89D7BF0F6151A046260D1337DFDC94502430F83B0EE07A130A224BCAD7DAE1D9FB6CD422FF6
310
920702629C4BB9AE79C12F243C6432A6794E18E5552BA56B431AAB5D91317302B2B071E86C3A42B1A02F999E24061403B5D0EB639195DA655DD3EBEAB4FB862DDF579F014AD0E73C22F99E28DA57FB98E75C6CA2D74D53086D600F4786E0FE3144B771A8A7B900F03594DB8A633CBC49B2EDB69228BB479CF863B5E807AAAB
310
23872F6DFEB4129B949CA33823F58830E86D65621E10047D9DB34D862E8EAC3C2ABC2F7B2C40D67CDFE01F5545B92105AF983AC54D93D69E56FB8E797F88913F898A9FEC705D3F9D1B54EC8426FB500D40A03BD0119B06E1B95DDC7EB8F6975367793EBD70E66733DFB9BC982F9CE564727731999F5D4ECFCE3B8D6A4DC2A0
310
6D50FD148437D110834A64C6CDDF57FBACB5C307A2A477DFE4939736CFEF2B175371E0E10CF0DD1D5C15654E0BCA14D1E87DD02FF93782A162C0A3D95F1524A52770F972BF1EE9809D13CE7DD599467F8ECE9ADD85CE85A34CD45355448C64F9E8A031DC2D596ACC6E5DD93D9B82DE2EF5CAF81363A8E47996A0DE24564A79
310
4115AACE09C55E14540231FDA13C319787134EBF34E3A022514E5B4D9E0826E25C02D5805B15ABE1BEF51B26383D445DD9E875EE33FE4C22DA16427D65A3BCA92CA6D28DD01DF5DC53330704308475351050232CCD31583787BA75774AFB06E5070DD0C8EF484E19968C5D83BA5B90B244D31E54D55A372320FE4786B7EA58
310
44E135AA5467CB7EA333A61683CC6A8C3257034C10CF46F40EF9F5BE59BE5BD30C3C72D235E95D10345C1D45445A5F0BB47E46A5EBE5570F9380B5FA629579952296A773720405982B9DE04011506178964401AA8BDF1FBF0A8EAB6861DD6580C0E38217056766716DAEB2D6FA0917D3E4116581EADB879C4E7CFFB11EFACD
310
3D641311495D92C8676CB409A72D18610D803CE8A626049E8EC1887CB5B44CC39883690DDA8399B4B9855B481E7D71D4A9D22F96E5BB73BF5793020C02137BF837504B0304140006080000CC70623B000000000000000000000000350000006662782F36394639363044362D344446342D343946362D394244322D32343142
310
43333846323333332F76657274696365732E62696E504B0304140006080800CC70623BF270F1330600000004000000360000006662782F36394639363044362D344446342D343946362D394244322D3234314243333846323333332F747269616E676C65732E62696E636660600000504B0304140006080000CC70623B0000
310
00000000000000000000370000006662782F36394639363044362D344446342D343946362D394244322D3234314243333846323333332F617474726962757465732E62696E504B0304140006080800CC70623B08DA0BD19000000041010000360000006662782F36394639363044362D344446342D343946362D394244322D
310
3234314243333846323333332F6469726563746F72792E786D6C858F410AC3201045AF22B36F53E9A60B35CBEEBAE80D244E44489C6234F4F835464A48035D0DF398FF9F8AF63D0E6CC63039F212F8F9020C7D47C6792B21C5FE7403D62A1188E2E60C98D7234A5830286103A55745067B9D86B8A3CF9C7F90C11DE607FB14
310
4396D7B6A82D282E9A152AD114D5EF2CB866EEE831B8EEA07A7BB5A8D7D61A2BAAEB7FD5F70921FF497D00504B0304140006080800CC70623BCA768048FE000000A00100003B0000006662782F36394639363044362D344446342D343946362D394244322D3234314243333846323333332F7265736F75726365732F636F72
310
652E786D6C8D50596E833010BD0A9ADFCA60D600328E9AA639412F609909B1126CE4A5EAF16B0295DABFFECC8CDEA2797AECF8353F924FB44E193D409E5248504B332A3D0D10FC95B4901C39B3C6F85F3248B49871801506CE266BC2B243D2688FDA47549B11775038871E12F988C7004EDE7016A9083E2ADC3D5D84BC8B09
310
D33C8D74D471E6BC8D0192EDC93A815B742658898E651BCB59086ADC356A8C3FD555A1055ED7E7E254D615792D0F075295F585746FF53B694EE78A565DD736979A65AB9933AFE69F8CD2A2F038022F28ED489E135A7CE4554F9BBEA85E68DB53CAB255FEC71496F19FA6A0B42F8B3DEE6673C0F318E4497096AD7DC5F52C33
310
EEB55BFE0D504B010214000A0000080000CC70623B3DEE336E79000000790000001B00000000000000000000000000000000006175746F6465736B2D64657369676E2D7061636B6167652E786D6C504B01021400140006080800CC70623BD486FD9CA0000000F40000001300000000000000000000000000B20000005B436F
310
6E74656E745F54797065735D2E786D6C504B01021400140006080800CC70623BD9DDAED0EC0000007C010000080000000000000000000000000083010000636F72652E786D6C504B01021400140006080800CC70623B55019EA25F0000007C000000070000000000000000000000000095020000636E782E786D6C504B0102
310
1400140006080800CC70623BA24EB22D72010000D40300000C00000000000000000000000000190300006662782F636F72652E786D6C504B01021400140006080800CC70623B408A7D3B7C0000009D0000000B00000000000000000000000000B50400006662782F636E782E786D6C504B01021400140006080800CC70623B
310
449FB9BD290100001202000031000000000000000000000000005A0500006662782F36394639363044362D344446342D343946362D394244322D3234314243333846323333332F636F72652E786D6C504B01021400140006080800CC70623BAD7543B64E010000330300003000000000000000000000000000D20600006662
310
782F36394639363044362D344446342D343946362D394244322D3234314243333846323333332F636E782E786D6C504B01021400140006080800CC70623B8D05915C650500003B10000034000000000000000000000000006E0800006662782F36394639363044362D344446342D343946362D394244322D32343142433338
310
46323333332F6F626A656374732E786D6C504B01021400140006080000CC70623B0000000000000000000000003500000000000000000000000000250E00006662782F36394639363044362D344446342D343946362D394244322D3234314243333846323333332F76657274696365732E62696E504B010214001400060808
310
00CC70623BF270F13306000000040000003600000000000000000000000000780E00006662782F36394639363044362D344446342D343946362D394244322D3234314243333846323333332F747269616E676C65732E62696E504B01021400140006080000CC70623B00000000000000000000000037000000000000000000
310
00000000D20E00006662782F36394639363044362D344446342D343946362D394244322D3234314243333846323333332F617474726962757465732E62696E504B01021400140006080800CC70623B08DA0BD190000000410100003600000000000000000000000000270F00006662782F36394639363044362D344446342D
310
343946362D394244322D3234314243333846323333332F6469726563746F72792E786D6C504B01021400140006080800CC70623BCA768048FE000000A00100003B000000000000000000000000000B1000006662782F36394639363044362D344446342D343946362D394244322D3234314243333846323333332F7265736F
310
75726365732F636F72652E786D6C504B0506000000000E000E0080040000621100000000
  0
XRECORD
  5
176
102
{ACAD_REACTORS
330
173
102
}
330
173
100
AcDbXrecord
280
     1
270
     1
271
     1
  0
XRECORD
  5
177
102
{ACAD_REACTORS
330
173
102
}
330
173
100
AcDbXrecord
280
     1
270
     1
271
     1
  0
XRECORD
  5
ABC9
102
{ACAD_REACTORS
330
ABC8
102
}
330
ABC8
100
AcDbXrecord
280
     1
102
ACAD_ROUNDTRIP_2012_MLEADER_STYLE
298
     1
  0
XRECORD
  5
ABDB
102
{ACAD_REACTORS
330
ABDA
102
}
330
ABDA
100
AcDbXrecord
280
     1
102
DISPLAYNAME
  1
Metric50
102
FLAGS
 90
        0
  0
CELLSTYLEMAP
  5
AB9B
102
{ACAD_REACTORS
330
162
102
}
330
162
100
AcDbCellStyleMap
 90
        3
300
CELLSTYLE
  1
TABLEFORMAT_BEGIN
 90
        5
170
     1
 91
        0
 92
    32768
 62
   257
 93
        1
300
CONTENTFORMAT
  1
CONTENTFORMAT_BEGIN
 90
        0
 91
        0
 92
      512
 93
        0
300

 40
0.0
140
1.0
 94
        5
 62
     0
340
11
144
6.0
309
CONTENTFORMAT_END
171
     1
301
MARGIN
  1
CELLMARGIN_BEGIN
 40
1.5
 40
1.5
 40
1.5
 40
1.5
 40
4.5
 40
4.5
309
CELLMARGIN_END
 94
        6
 95
        1
302
GRIDFORMAT
  1
GRIDFORMAT_BEGIN
 90
        0
 91
        1
 62
     0
 92
       -2
340
14
 93
        0
 40
1.125
309
GRIDFORMAT_END
 95
        2
302
GRIDFORMAT
  1
GRIDFORMAT_BEGIN
 90
        0
 91
        1
 62
     0
 92
       -2
340
14
 93
        0
 40
1.125
309
GRIDFORMAT_END
 95
        4
302
GRIDFORMAT
  1
GRIDFORMAT_BEGIN
 90
        0
 91
        1
 62
     0
 92
       -2
340
14
 93
        0
 40
1.125
309
GRIDFORMAT_END
 95
        8
302
GRIDFORMAT
  1
GRIDFORMAT_BEGIN
 90
        0
 91
        1
 62
     0
 92
       -2
340
14
 93
        0
 40
1.125
309
GRIDFORMAT_END
 95
       16
302
GRIDFORMAT
  1
GRIDFORMAT_BEGIN
 90
        0
 91
        1
 62
     0
 92
       -2
340
14
 93
        0
 40
1.125
309
GRIDFORMAT_END
 95
       32
302
GRIDFORMAT
  1
GRIDFORMAT_BEGIN
 90
        0
 91
        1
 62
     0
 92
       -2
340
14
 93
        0
 40
1.125
309
GRIDFORMAT_END
309
TABLEFORMAT_END
  1
CELLSTYLE_BEGIN
 90
        1
 91
        1
300
_TITLE
309
CELLSTYLE_END
300
CELLSTYLE
  1
TABLEFORMAT_BEGIN
 90
        5
170
     1
 91
        0
 92
        0
 62
   257
 93
        1
300
CONTENTFORMAT
  1
CONTENTFORMAT_BEGIN
 90
        0
 91
        0
 92
      512
 93
        0
300

 40
0.0
140
1.0
 94
        5
 62
     0
340
11
144
4.5
309
CONTENTFORMAT_END
171
     1
301
MARGIN
  1
CELLMARGIN_BEGIN
 40
1.5
 40
1.5
 40
1.5
 40
1.5
 40
4.5
 40
4.5
309
CELLMARGIN_END
 94
        6
 95
        1
302
GRIDFORMAT
  1
GRIDFORMAT_BEGIN
 90
        0
 91
        1
 62
     0
 92
       -2
340
14
 93
        0
 40
1.125
309
GRIDFORMAT_END
 95
        2
302
GRIDFORMAT
  1
GRIDFORMAT_BEGIN
 90
        0
 91
        1
 62
     0
 92
       -2
340
14
 93
        0
 40
1.125
309
GRIDFORMAT_END
 95
        4
302
GRIDFORMAT
  1
GRIDFORMAT_BEGIN
 90
        0
 91
        1
 62
     0
 92
       -2
340
14
 93
        0
 40
1.125
309
GRIDFORMAT_END
 95
        8
302
GRIDFORMAT
  1
GRIDFORMAT_BEGIN
 90
        0
 91
        1
 62
     0
 92
       -2
340
14
 93
        0
 40
1.125
309
GRIDFORMAT_END
 95
       16
302
GRIDFORMAT
  1
GRIDFORMAT_BEGIN
 90
        0
 91
        1
 62
     0
 92
       -2
340
14
 93
        0
 40
1.125
309
GRIDFORMAT_END
 95
       32
302
GRIDFORMAT
  1
GRIDFORMAT_BEGIN
 90
        0
 91
        1
 62
     0
 92
       -2
340
14
 93
        0
 40
1.125
309
GRIDFORMAT_END
309
TABLEFORMAT_END
  1
CELLSTYLE_BEGIN
 90
        2
 91
        1
300
_HEADER
309
CELLSTYLE_END
300
CELLSTYLE
  1
TABLEFORMAT_BEGIN
 90
        5
170
     1
 91
        0
 92
        0
 62
   257
 93
        1
300
CONTENTFORMAT
  1
CONTENTFORMAT_BEGIN
 90
        0
 91
        0
 92
      512
 93
        0
300

 40
0.0
140
1.0
 94
        2
 62
     0
340
11
144
4.5
309
CONTENTFORMAT_END
171
     1
301
MARGIN
  1
CELLMARGIN_BEGIN
 40
1.5
 40
1.5
 40
1.5
 40
1.5
 40
4.5
 40
4.5
309
CELLMARGIN_END
 94
        6
 95
        1
302
GRIDFORMAT
  1
GRIDFORMAT_BEGIN
 90
        0
 91
        1
 62
     0
 92
       -2
340
14
 93
        0
 40
1.125
309
GRIDFORMAT_END
 95
        2
302
GRIDFORMAT
  1
GRIDFORMAT_BEGIN
 90
        0
 91
        1
 62
     0
 92
       -2
340
14
 93
        0
 40
1.125
309
GRIDFORMAT_END
 95
        4
302
GRIDFORMAT
  1
GRIDFORMAT_BEGIN
 90
        0
 91
        1
 62
     0
 92
       -2
340
14
 93
        0
 40
1.125
309
GRIDFORMAT_END
 95
        8
302
GRIDFORMAT
  1
GRIDFORMAT_BEGIN
 90
        0
 91
        1
 62
     0
 92
       -2
340
14
 93
        0
 40
1.125
309
GRIDFORMAT_END
 95
       16
302
GRIDFORMAT
  1
GRIDFORMAT_BEGIN
 90
        0
 91
        1
 62
     0
 92
       -2
340
14
 93
        0
 40
1.125
309
GRIDFORMAT_END
 95
       32
302
GRIDFORMAT
  1
GRIDFORMAT_BEGIN
 90
        0
 91
        1
 62
     0
 92
       -2
340
14
 93
        0
 40
1.125
309
GRIDFORMAT_END
309
TABLEFORMAT_END
  1
CELLSTYLE_BEGIN
 90
        3
 91
        2
300
_DATA
309
CELLSTYLE_END
  0
XRECORD
  5
ABA0
102
{ACAD_REACTORS
330
162
102
}
330
162
100
AcDbXrecord
280
     1
102
ACAD_ROUNDTRIP_PRE2007_TABLESTYLE
 90
      512
 91
        0
  1

 92
      512
 93
        0
  2

 94
      512
 95
        0
  3

  0
XRECORD
  5
ABB3
102
{ACAD_REACTORS
330
ABB2
102
}
330
ABB2
100
AcDbXrecord
280
     1
102
RTVSPost2010Prop28
280
     1
102
RTVSPost2010PropOp28
 70
     1
102
RTVSPost2010Prop29
280
     1
102
RTVSPost2010PropOp29
 70
     1
102
RTVSPost2010Prop30
280
     0
102
RTVSPost2010PropOp30
 70
     1
102
RTVSPost2010Prop31
280
     0
102
RTVSPost2010PropOp31
 70
     1
102
RTVSPost2010Prop32
280
     0
102
RTVSPost2010PropOp32
 70
     1
102
RTVSPost2010Prop33
280
     0
102
RTVSPost2010PropOp33
 70
     1
102
RTVSPost2010Prop34
280
     0
102
RTVSPost2010PropOp34
 70
     1
102
RTVSPost2010Prop35
280
     0
102
RTVSPost2010PropOp35
 70
     1
102
RTVSPost2010Prop36
280
     0
102
RTVSPost2010PropOp36
 70
     1
102
RTVSPost2010Prop37
 90
       50
102
RTVSPost2010PropOp37
 70
     1
102
RTVSPost2010Prop38
140
0.0
102
RTVSPost2010PropOp38
 70
     1
102
RTVSPost2010Prop39
140
1.0
102
RTVSPost2010PropOp39
 70
     1
102
RTVSPost2010Prop40
 90
        0
102
RTVSPost2010PropOp40
 70
     1
102
RTVSPost2010Prop41ColorIndex
 90
       18
102
RTVSPost2010Prop41ColorRGB
 90
        0
102
RTVSPost2010PropOp41
 70
     1
102
RTVSPost2010Prop42
 90
       50
102
RTVSPost2010PropOp42
 70
     1
102
RTVSPost2010Prop43
 90
        3
102
RTVSPost2010PropOp43
 70
     1
102
RTVSPost2010Prop44ColorIndex
 90
        5
102
RTVSPost2010Prop44ColorRGB
 90
      255
102
RTVSPost2010PropOp44
 70
     1
102
RTVSPost2010Prop45
280
     0
102
RTVSPost2010PropOp45
 70
     1
102
RTVSPost2010Prop46
 90
       50
102
RTVSPost2010PropOp46
 70
     1
102
RTVSPost2010Prop47
 90
       50
102
RTVSPost2010PropOp47
 70
     1
102
RTVSPost2010Prop48
 90
       50
102
RTVSPost2010PropOp48
 70
     1
102
RTVSPost2010Prop49
280
     0
102
RTVSPost2010PropOp49
 70
     1
102
RTVSPost2010Prop50
 90
       50
102
RTVSPost2010PropOp50
 70
     1
102
RTVSPost2010Prop51ColorIndex
 90
      256
102
RTVSPost2010Prop51ColorRGB
 90
-16777216
102
RTVSPost2010PropOp51
 70
     0
102
RTVSPost2010Prop52
140
1.0
102
RTVSPost2010PropOp52
 70
     0
102
RTVSPost2010Prop53
 90
        2
102
RTVSPost2010PropOp53
 70
     1
102
RTVSPost2010Prop54
  1
strokes_ogs.tif
102
RTVSPost2010PropOp54
 70
     1
102
RTVSPost2010Prop55
280
     0
102
RTVSPost2010PropOp55
 70
     1
102
RTVSPost2010Prop56
140
1.0
102
RTVSPost2010PropOp56
 70
     1
102
RTVSPost2010Prop57
140
1.0
102
RTVSPost2010PropOp57
 70
     1
102
RTVSPropertyOp0
 70
     1
102
RTVSPropertyOp1
 70
     1
102
RTVSPropertyOp2
 70
     1
102
RTVSPropertyOp3
 70
     1
102
RTVSPropertyOp4
 70
     1
102
RTVSPropertyOp5
 70
     1
102
RTVSPropertyOp6
 70
     1
102
RTVSPropertyOp7
 70
     1
102
RTVSPropertyOp8
 70
     1
102
RTVSPropertyOp9
 70
     1
102
RTVSPropertyOp10
 70
     1
102
RTVSPropertyOp11
 70
     1
102
RTVSPropertyOp12
 70
     1
102
RTVSPropertyOp13
 70
     1
102
RTVSPropertyOp14
 70
     1
102
RTVSPropertyOp15
 70
     1
102
RTVSPropertyOp16
 70
     1
102
RTVSPropertyOp17
 70
     1
102
RTVSPropertyOp18
 70
     1
102
RTVSPropertyOp19
 70
     1
102
RTVSPropertyOp20
 70
     1
102
RTVSPropertyOp21
 70
     1
102
RTVSPropertyOp22
 70
     1
102
RTVSPropertyOp23
 70
     1
102
RTVSPropertyOp24
 70
     1
102
RTVSPropertyOp25
 70
     1
102
RTVSPropertyOp26
 70
     1
102
RTVSPropertyOp27
 70
     1
102
RTVSPropertyOp28
 70
     1
102
RTVSPropertyOp29
 70
     1
102
RTVSPropertyOp30
 70
     1
102
RTVSPropertyOp31
 70
     1
102
RTVSPropertyOp32
 70
     1
102
RTVSPropertyOp33
 70
     1
102
RTVSPropertyOp34
 70
     1
102
RTVSPropertyOp35
 70
     1
102
RTVSPropertyOp36
 70
     1
102
RTVSPropertyOp37
 70
     1
102
RTVSPropertyOp38
 70
     1
102
RTVSPropertyOp39
 70
     1
102
RTVSPropertyOp40
 70
     1
102
RTVSPropertyOp41
 70
     1
102
RTVSPropertyOp42
 70
     1
102
RTVSPropertyOp43
 70
     1
102
RTVSPropertyOp44
 70
     1
102
RTVSPropertyOp45
 70
     1
102
RTVSPropertyOp46
 70
     1
102
RTVSPropertyOp47
 70
     1
102
RTVSPropertyOp48
 70
     1
102
RTVSPropertyOp49
 70
     1
102
RTVSPropertyOp50
 70
     1
102
RTVSPropertyOp51
 70
     0
102
RTVSPropertyOp52
 70
     0
102
RTVSPropertyOp53
 70
     1
102
RTVSPropertyOp54
 70
     1
102
RTVSPropertyOp55
 70
     1
102
RTVSPropertyOp56
 70
     1
102
RTVSPropertyOp57
 70
     1
102
RTVSPropertyOp58
 70
     1
102
RTVSPropertyOp59
 70
     1
102
RTVSPropertyOp60
 70
     1
102
RTVSPropertyOp61
 70
     1
102
RTVSPropertyOp62
 70
     1
  0
XRECORD
  5
ABB1
102
{ACAD_REACTORS
330
ABB0
102
}
330
ABB0
100
AcDbXrecord
280
     1
102
RTVSPost2010Prop28
280
     0
102
RTVSPost2010PropOp28
 70
     1
102
RTVSPost2010Prop29
280
     1
102
RTVSPost2010PropOp29
 70
     1
102
RTVSPost2010Prop30
280
     1
102
RTVSPost2010PropOp30
 70
     1
102
RTVSPost2010Prop31
280
     0
102
RTVSPost2010PropOp31
 70
     1
102
RTVSPost2010Prop32
280
     0
102
RTVSPost2010PropOp32
 70
     1
102
RTVSPost2010Prop33
280
     0
102
RTVSPost2010PropOp33
 70
     1
102
RTVSPost2010Prop34
280
     0
102
RTVSPost2010PropOp34
 70
     1
102
RTVSPost2010Prop35
280
     0
102
RTVSPost2010PropOp35
 70
     1
102
RTVSPost2010Prop36
280
     0
102
RTVSPost2010PropOp36
 70
     1
102
RTVSPost2010Prop37
 90
       50
102
RTVSPost2010PropOp37
 70
     1
102
RTVSPost2010Prop38
140
0.0
102
RTVSPost2010PropOp38
 70
     1
102
RTVSPost2010Prop39
140
1.0
102
RTVSPost2010PropOp39
 70
     1
102
RTVSPost2010Prop40
 90
        0
102
RTVSPost2010PropOp40
 70
     1
102
RTVSPost2010Prop41ColorIndex
 90
       18
102
RTVSPost2010Prop41ColorRGB
 90
        0
102
RTVSPost2010PropOp41
 70
     1
102
RTVSPost2010Prop42
 90
       50
102
RTVSPost2010PropOp42
 70
     1
102
RTVSPost2010Prop43
 90
        3
102
RTVSPost2010PropOp43
 70
     1
102
RTVSPost2010Prop44ColorIndex
 90
        5
102
RTVSPost2010Prop44ColorRGB
 90
      255
102
RTVSPost2010PropOp44
 70
     1
102
RTVSPost2010Prop45
280
     0
102
RTVSPost2010PropOp45
 70
     1
102
RTVSPost2010Prop46
 90
       50
102
RTVSPost2010PropOp46
 70
     1
102
RTVSPost2010Prop47
 90
       50
102
RTVSPost2010PropOp47
 70
     1
102
RTVSPost2010Prop48
 90
       50
102
RTVSPost2010PropOp48
 70
     1
102
RTVSPost2010Prop49
280
     0
102
RTVSPost2010PropOp49
 70
     1
102
RTVSPost2010Prop50
 90
       50
102
RTVSPost2010PropOp50
 70
     1
102
RTVSPost2010Prop51ColorIndex
 90
      256
102
RTVSPost2010Prop51ColorRGB
 90
-16777216
102
RTVSPost2010PropOp51
 70
     0
102
RTVSPost2010Prop52
140
1.0
102
RTVSPost2010PropOp52
 70
     0
102
RTVSPost2010Prop53
 90
        2
102
RTVSPost2010PropOp53
 70
     1
102
RTVSPost2010Prop54
  1
strokes_ogs.tif
102
RTVSPost2010PropOp54
 70
     1
102
RTVSPost2010Prop55
280
     0
102
RTVSPost2010PropOp55
 70
     1
102
RTVSPost2010Prop56
140
1.0
102
RTVSPost2010PropOp56
 70
     1
102
RTVSPost2010Prop57
140
1.0
102
RTVSPost2010PropOp57
 70
     1
102
RTVSPropertyOp0
 70
     1
102
RTVSPropertyOp1
 70
     1
102
RTVSPropertyOp2
 70
     1
102
RTVSPropertyOp3
 70
     1
102
RTVSPropertyOp4
 70
     1
102
RTVSPropertyOp5
 70
     1
102
RTVSPropertyOp6
 70
     1
102
RTVSPropertyOp7
 70
     1
102
RTVSPropertyOp8
 70
     1
102
RTVSPropertyOp9
 70
     1
102
RTVSPropertyOp10
 70
     1
102
RTVSPropertyOp11
 70
     1
102
RTVSPropertyOp12
 70
     1
102
RTVSPropertyOp13
 70
     1
102
RTVSPropertyOp14
 70
     1
102
RTVSPropertyOp15
 70
     1
102
RTVSPropertyOp16
 70
     1
102
RTVSPropertyOp17
 70
     1
102
RTVSPropertyOp18
 70
     1
102
RTVSPropertyOp19
 70
     1
102
RTVSPropertyOp20
 70
     1
102
RTVSPropertyOp21
 70
     1
102
RTVSPropertyOp22
 70
     1
102
RTVSPropertyOp23
 70
     1
102
RTVSPropertyOp24
 70
     1
102
RTVSPropertyOp25
 70
     1
102
RTVSPropertyOp26
 70
     1
102
RTVSPropertyOp27
 70
     1
102
RTVSPropertyOp28
 70
     1
102
RTVSPropertyOp29
 70
     1
102
RTVSPropertyOp30
 70
     1
102
RTVSPropertyOp31
 70
     1
102
RTVSPropertyOp32
 70
     1
102
RTVSPropertyOp33
 70
     1
102
RTVSPropertyOp34
 70
     1
102
RTVSPropertyOp35
 70
     1
102
RTVSPropertyOp36
 70
     1
102
RTVSPropertyOp37
 70
     1
102
RTVSPropertyOp38
 70
     1
102
RTVSPropertyOp39
 70
     1
102
RTVSPropertyOp40
 70
     1
102
RTVSPropertyOp41
 70
     1
102
RTVSPropertyOp42
 70
     1
102
RTVSPropertyOp43
 70
     1
102
RTVSPropertyOp44
 70
     1
102
RTVSPropertyOp45
 70
     1
102
RTVSPropertyOp46
 70
     1
102
RTVSPropertyOp47
 70
     1
102
RTVSPropertyOp48
 70
     1
102
RTVSPropertyOp49
 70
     1
102
RTVSPropertyOp50
 70
     1
102
RTVSPropertyOp51
 70
     0
102
RTVSPropertyOp52
 70
     0
102
RTVSPropertyOp53
 70
     1
102
RTVSPropertyOp54
 70
     1
102
RTVSPropertyOp55
 70
     1
102
RTVSPropertyOp56
 70
     1
102
RTVSPropertyOp57
 70
     1
102
RTVSPropertyOp58
 70
     1
102
RTVSPropertyOp59
 70
     1
102
RTVSPropertyOp60
 70
     1
102
RTVSPropertyOp61
 70
     1
102
RTVSPropertyOp62
 70
     1
  0
XRECORD
  5
ABBF
102
{ACAD_REACTORS
330
ABBE
102
}
330
ABBE
100
AcDbXrecord
280
     1
102
RTVSPost2010Prop28
280
     0
102
RTVSPost2010PropOp28
 70
     1
102
RTVSPost2010Prop29
280
     1
102
RTVSPost2010PropOp29
 70
     1
102
RTVSPost2010Prop30
280
     1
102
RTVSPost2010PropOp30
 70
     1
102
RTVSPost2010Prop31
280
     0
102
RTVSPost2010PropOp31
 70
     1
102
RTVSPost2010Prop32
280
     0
102
RTVSPost2010PropOp32
 70
     1
102
RTVSPost2010Prop33
280
     0
102
RTVSPost2010PropOp33
 70
     1
102
RTVSPost2010Prop34
280
     0
102
RTVSPost2010PropOp34
 70
     1
102
RTVSPost2010Prop35
280
     0
102
RTVSPost2010PropOp35
 70
     1
102
RTVSPost2010Prop36
280
     0
102
RTVSPost2010PropOp36
 70
     1
102
RTVSPost2010Prop37
 90
       50
102
RTVSPost2010PropOp37
 70
     1
102
RTVSPost2010Prop38
140
0.0
102
RTVSPost2010PropOp38
 70
     1
102
RTVSPost2010Prop39
140
1.0
102
RTVSPost2010PropOp39
 70
     1
102
RTVSPost2010Prop40
 90
        0
102
RTVSPost2010PropOp40
 70
     1
102
RTVSPost2010Prop41ColorIndex
 90
       18
102
RTVSPost2010Prop41ColorRGB
 90
        0
102
RTVSPost2010PropOp41
 70
     1
102
RTVSPost2010Prop42
 90
       50
102
RTVSPost2010PropOp42
 70
     1
102
RTVSPost2010Prop43
 90
        3
102
RTVSPost2010PropOp43
 70
     1
102
RTVSPost2010Prop44ColorIndex
 90
        5
102
RTVSPost2010Prop44ColorRGB
 90
      255
102
RTVSPost2010PropOp44
 70
     1
102
RTVSPost2010Prop45
280
     0
102
RTVSPost2010PropOp45
 70
     1
102
RTVSPost2010Prop46
 90
       50
102
RTVSPost2010PropOp46
 70
     1
102
RTVSPost2010Prop47
 90
       50
102
RTVSPost2010PropOp47
 70
     1
102
RTVSPost2010Prop48
 90
       50
102
RTVSPost2010PropOp48
 70
     1
102
RTVSPost2010Prop49
280
     0
102
RTVSPost2010PropOp49
 70
     1
102
RTVSPost2010Prop50
 90
       50
102
RTVSPost2010PropOp50
 70
     1
102
RTVSPost2010Prop51ColorIndex
 90
      256
102
RTVSPost2010Prop51ColorRGB
 90
-16777216
102
RTVSPost2010PropOp51
 70
     0
102
RTVSPost2010Prop52
140
1.0
102
RTVSPost2010PropOp52
 70
     0
102
RTVSPost2010Prop53
 90
        2
102
RTVSPost2010PropOp53
 70
     1
102
RTVSPost2010Prop54
  1
strokes_ogs.tif
102
RTVSPost2010PropOp54
 70
     1
102
RTVSPost2010Prop55
280
     0
102
RTVSPost2010PropOp55
 70
     1
102
RTVSPost2010Prop56
140
1.0
102
RTVSPost2010PropOp56
 70
     1
102
RTVSPost2010Prop57
140
1.0
102
RTVSPost2010PropOp57
 70
     1
102
RTVSPropertyOp0
 70
     1
102
RTVSPropertyOp1
 70
     1
102
RTVSPropertyOp2
 70
     1
102
RTVSPropertyOp3
 70
     1
102
RTVSPropertyOp4
 70
     1
102
RTVSPropertyOp5
 70
     1
102
RTVSPropertyOp6
 70
     1
102
RTVSPropertyOp7
 70
     1
102
RTVSPropertyOp8
 70
     1
102
RTVSPropertyOp9
 70
     1
102
RTVSPropertyOp10
 70
     1
102
RTVSPropertyOp11
 70
     1
102
RTVSPropertyOp12
 70
     1
102
RTVSPropertyOp13
 70
     1
102
RTVSPropertyOp14
 70
     1
102
RTVSPropertyOp15
 70
     1
102
RTVSPropertyOp16
 70
     1
102
RTVSPropertyOp17
 70
     1
102
RTVSPropertyOp18
 70
     1
102
RTVSPropertyOp19
 70
     1
102
RTVSPropertyOp20
 70
     1
102
RTVSPropertyOp21
 70
     1
102
RTVSPropertyOp22
 70
     1
102
RTVSPropertyOp23
 70
     1
102
RTVSPropertyOp24
 70
     1
102
RTVSPropertyOp25
 70
     1
102
RTVSPropertyOp26
 70
     1
102
RTVSPropertyOp27
 70
     1
102
RTVSPropertyOp28
 70
     1
102
RTVSPropertyOp29
 70
     1
102
RTVSPropertyOp30
 70
     1
102
RTVSPropertyOp31
 70
     1
102
RTVSPropertyOp32
 70
     1
102
RTVSPropertyOp33
 70
     1
102
RTVSPropertyOp34
 70
     1
102
RTVSPropertyOp35
 70
     1
102
RTVSPropertyOp36
 70
     1
102
RTVSPropertyOp37
 70
     1
102
RTVSPropertyOp38
 70
     1
102
RTVSPropertyOp39
 70
     1
102
RTVSPropertyOp40
 70
     1
102
RTVSPropertyOp41
 70
     1
102
RTVSPropertyOp42
 70
     1
102
RTVSPropertyOp43
 70
     1
102
RTVSPropertyOp44
 70
     1
102
RTVSPropertyOp45
 70
     1
102
RTVSPropertyOp46
 70
     1
102
RTVSPropertyOp47
 70
     1
102
RTVSPropertyOp48
 70
     1
102
RTVSPropertyOp49
 70
     1
102
RTVSPropertyOp50
 70
     1
102
RTVSPropertyOp51
 70
     0
102
RTVSPropertyOp52
 70
     0
102
RTVSPropertyOp53
 70
     1
102
RTVSPropertyOp54
 70
     1
102
RTVSPropertyOp55
 70
     1
102
RTVSPropertyOp56
 70
     1
102
RTVSPropertyOp57
 70
     1
102
RTVSPropertyOp58
 70
     1
102
RTVSPropertyOp59
 70
     1
102
RTVSPropertyOp60
 70
     1
102
RTVSPropertyOp61
 70
     1
102
RTVSPropertyOp62
 70
     1
  0
XRECORD
  5
ABC7
102
{ACAD_REACTORS
330
ABC6
102
}
330
ABC6
100
AcDbXrecord
280
     1
102
RTVSPost2010Prop28
280
     0
102
RTVSPost2010PropOp28
 70
     1
102
RTVSPost2010Prop29
280
     1
102
RTVSPost2010PropOp29
 70
     1
102
RTVSPost2010Prop30
280
     1
102
RTVSPost2010PropOp30
 70
     1
102
RTVSPost2010Prop31
280
     0
102
RTVSPost2010PropOp31
 70
     1
102
RTVSPost2010Prop32
280
     0
102
RTVSPost2010PropOp32
 70
     1
102
RTVSPost2010Prop33
280
     0
102
RTVSPost2010PropOp33
 70
     1
102
RTVSPost2010Prop34
280
     0
102
RTVSPost2010PropOp34
 70
     1
102
RTVSPost2010Prop35
280
     0
102
RTVSPost2010PropOp35
 70
     1
102
RTVSPost2010Prop36
280
     0
102
RTVSPost2010PropOp36
 70
     1
102
RTVSPost2010Prop37
 90
       50
102
RTVSPost2010PropOp37
 70
     1
102
RTVSPost2010Prop38
140
0.0
102
RTVSPost2010PropOp38
 70
     1
102
RTVSPost2010Prop39
140
1.0
102
RTVSPost2010PropOp39
 70
     1
102
RTVSPost2010Prop40
 90
        0
102
RTVSPost2010PropOp40
 70
     1
102
RTVSPost2010Prop41ColorIndex
 90
       18
102
RTVSPost2010Prop41ColorRGB
 90
        0
102
RTVSPost2010PropOp41
 70
     1
102
RTVSPost2010Prop42
 90
       50
102
RTVSPost2010PropOp42
 70
     1
102
RTVSPost2010Prop43
 90
        3
102
RTVSPost2010PropOp43
 70
     1
102
RTVSPost2010Prop44ColorIndex
 90
        5
102
RTVSPost2010Prop44ColorRGB
 90
      255
102
RTVSPost2010PropOp44
 70
     1
102
RTVSPost2010Prop45
280
     0
102
RTVSPost2010PropOp45
 70
     1
102
RTVSPost2010Prop46
 90
       50
102
RTVSPost2010PropOp46
 70
     1
102
RTVSPost2010Prop47
 90
       50
102
RTVSPost2010PropOp47
 70
     1
102
RTVSPost2010Prop48
 90
       50
102
RTVSPost2010PropOp48
 70
     1
102
RTVSPost2010Prop49
280
     0
102
RTVSPost2010PropOp49
 70
     1
102
RTVSPost2010Prop50
 90
       50
102
RTVSPost2010PropOp50
 70
     1
102
RTVSPost2010Prop51ColorIndex
 90
      256
102
RTVSPost2010Prop51ColorRGB
 90
-16777216
102
RTVSPost2010PropOp51
 70
     0
102
RTVSPost2010Prop52
140
1.0
102
RTVSPost2010PropOp52
 70
     0
102
RTVSPost2010Prop53
 90
        2
102
RTVSPost2010PropOp53
 70
     1
102
RTVSPost2010Prop54
  1
strokes_ogs.tif
102
RTVSPost2010PropOp54
 70
     1
102
RTVSPost2010Prop55
280
     0
102
RTVSPost2010PropOp55
 70
     1
102
RTVSPost2010Prop56
140
1.0
102
RTVSPost2010PropOp56
 70
     1
102
RTVSPost2010Prop57
140
1.0
102
RTVSPost2010PropOp57
 70
     1
102
RTVSPropertyOp0
 70
     1
102
RTVSPropertyOp1
 70
     1
102
RTVSPropertyOp2
 70
     1
102
RTVSPropertyOp3
 70
     1
102
RTVSPropertyOp4
 70
     1
102
RTVSPropertyOp5
 70
     1
102
RTVSPropertyOp6
 70
     1
102
RTVSPropertyOp7
 70
     1
102
RTVSPropertyOp8
 70
     1
102
RTVSPropertyOp9
 70
     1
102
RTVSPropertyOp10
 70
     1
102
RTVSPropertyOp11
 70
     1
102
RTVSPropertyOp12
 70
     1
102
RTVSPropertyOp13
 70
     1
102
RTVSPropertyOp14
 70
     1
102
RTVSPropertyOp15
 70
     1
102
RTVSPropertyOp16
 70
     1
102
RTVSPropertyOp17
 70
     1
102
RTVSPropertyOp18
 70
     1
102
RTVSPropertyOp19
 70
     1
102
RTVSPropertyOp20
 70
     1
102
RTVSPropertyOp21
 70
     1
102
RTVSPropertyOp22
 70
     1
102
RTVSPropertyOp23
 70
     1
102
RTVSPropertyOp24
 70
     1
102
RTVSPropertyOp25
 70
     1
102
RTVSPropertyOp26
 70
     1
102
RTVSPropertyOp27
 70
     1
102
RTVSPropertyOp28
 70
     1
102
RTVSPropertyOp29
 70
     1
102
RTVSPropertyOp30
 70
     1
102
RTVSPropertyOp31
 70
     1
102
RTVSPropertyOp32
 70
     1
102
RTVSPropertyOp33
 70
     1
102
RTVSPropertyOp34
 70
     1
102
RTVSPropertyOp35
 70
     1
102
RTVSPropertyOp36
 70
     1
102
RTVSPropertyOp37
 70
     1
102
RTVSPropertyOp38
 70
     1
102
RTVSPropertyOp39
 70
     1
102
RTVSPropertyOp40
 70
     1
102
RTVSPropertyOp41
 70
     1
102
RTVSPropertyOp42
 70
     1
102
RTVSPropertyOp43
 70
     1
102
RTVSPropertyOp44
 70
     1
102
RTVSPropertyOp45
 70
     1
102
RTVSPropertyOp46
 70
     1
102
RTVSPropertyOp47
 70
     1
102
RTVSPropertyOp48
 70
     1
102
RTVSPropertyOp49
 70
     1
102
RTVSPropertyOp50
 70
     1
102
RTVSPropertyOp51
 70
     0
102
RTVSPropertyOp52
 70
     0
102
RTVSPropertyOp53
 70
     1
102
RTVSPropertyOp54
 70
     1
102
RTVSPropertyOp55
 70
     1
102
RTVSPropertyOp56
 70
     1
102
RTVSPropertyOp57
 70
     1
102
RTVSPropertyOp58
 70
     1
102
RTVSPropertyOp59
 70
     1
102
RTVSPropertyOp60
 70
     1
102
RTVSPropertyOp61
 70
     1
102
RTVSPropertyOp62
 70
     1
  0
XRECORD
  5
ABB9
102
{ACAD_REACTORS
330
ABB8
102
}
330
ABB8
100
AcDbXrecord
280
     1
102
RTVSPost2010Prop28
280
     0
102
RTVSPost2010PropOp28
 70
     1
102
RTVSPost2010Prop29
280
     1
102
RTVSPost2010PropOp29
 70
     1
102
RTVSPost2010Prop30
280
     1
102
RTVSPost2010PropOp30
 70
     1
102
RTVSPost2010Prop31
280
     0
102
RTVSPost2010PropOp31
 70
     1
102
RTVSPost2010Prop32
280
     0
102
RTVSPost2010PropOp32
 70
     1
102
RTVSPost2010Prop33
280
     0
102
RTVSPost2010PropOp33
 70
     1
102
RTVSPost2010Prop34
280
     0
102
RTVSPost2010PropOp34
 70
     1
102
RTVSPost2010Prop35
280
     0
102
RTVSPost2010PropOp35
 70
     1
102
RTVSPost2010Prop36
280
     0
102
RTVSPost2010PropOp36
 70
     1
102
RTVSPost2010Prop37
 90
       50
102
RTVSPost2010PropOp37
 70
     1
102
RTVSPost2010Prop38
140
0.0
102
RTVSPost2010PropOp38
 70
     1
102
RTVSPost2010Prop39
140
1.0
102
RTVSPost2010PropOp39
 70
     1
102
RTVSPost2010Prop40
 90
        0
102
RTVSPost2010PropOp40
 70
     1
102
RTVSPost2010Prop41ColorIndex
 90
       18
102
RTVSPost2010Prop41ColorRGB
 90
        0
102
RTVSPost2010PropOp41
 70
     1
102
RTVSPost2010Prop42
 90
       50
102
RTVSPost2010PropOp42
 70
     1
102
RTVSPost2010Prop43
 90
        3
102
RTVSPost2010PropOp43
 70
     1
102
RTVSPost2010Prop44ColorIndex
 90
        5
102
RTVSPost2010Prop44ColorRGB
 90
      255
102
RTVSPost2010PropOp44
 70
     1
102
RTVSPost2010Prop45
280
     0
102
RTVSPost2010PropOp45
 70
     1
102
RTVSPost2010Prop46
 90
       50
102
RTVSPost2010PropOp46
 70
     1
102
RTVSPost2010Prop47
 90
       50
102
RTVSPost2010PropOp47
 70
     1
102
RTVSPost2010Prop48
 90
       50
102
RTVSPost2010PropOp48
 70
     1
102
RTVSPost2010Prop49
280
     0
102
RTVSPost2010PropOp49
 70
     1
102
RTVSPost2010Prop50
 90
       50
102
RTVSPost2010PropOp50
 70
     1
102
RTVSPost2010Prop51ColorIndex
 90
      256
102
RTVSPost2010Prop51ColorRGB
 90
-16777216
102
RTVSPost2010PropOp51
 70
     0
102
RTVSPost2010Prop52
140
1.0
102
RTVSPost2010PropOp52
 70
     0
102
RTVSPost2010Prop53
 90
        2
102
RTVSPost2010PropOp53
 70
     1
102
RTVSPost2010Prop54
  1
strokes_ogs.tif
102
RTVSPost2010PropOp54
 70
     1
102
RTVSPost2010Prop55
280
     0
102
RTVSPost2010PropOp55
 70
     1
102
RTVSPost2010Prop56
140
1.0
102
RTVSPost2010PropOp56
 70
     1
102
RTVSPost2010Prop57
140
1.0
102
RTVSPost2010PropOp57
 70
     1
102
RTVSPropertyOp0
 70
     1
102
RTVSPropertyOp1
 70
     1
102
RTVSPropertyOp2
 70
     1
102
RTVSPropertyOp3
 70
     1
102
RTVSPropertyOp4
 70
     1
102
RTVSPropertyOp5
 70
     1
102
RTVSPropertyOp6
 70
     1
102
RTVSPropertyOp7
 70
     1
102
RTVSPropertyOp8
 70
     1
102
RTVSPropertyOp9
 70
     1
102
RTVSPropertyOp10
 70
     1
102
RTVSPropertyOp11
 70
     1
102
RTVSPropertyOp12
 70
     1
102
RTVSPropertyOp13
 70
     1
102
RTVSPropertyOp14
 70
     1
102
RTVSPropertyOp15
 70
     1
102
RTVSPropertyOp16
 70
     1
102
RTVSPropertyOp17
 70
     1
102
RTVSPropertyOp18
 70
     1
102
RTVSPropertyOp19
 70
     1
102
RTVSPropertyOp20
 70
     1
102
RTVSPropertyOp21
 70
     1
102
RTVSPropertyOp22
 70
     1
102
RTVSPropertyOp23
 70
     1
102
RTVSPropertyOp24
 70
     1
102
RTVSPropertyOp25
 70
     1
102
RTVSPropertyOp26
 70
     1
102
RTVSPropertyOp27
 70
     1
102
RTVSPropertyOp28
 70
     1
102
RTVSPropertyOp29
 70
     1
102
RTVSPropertyOp30
 70
     1
102
RTVSPropertyOp31
 70
     1
102
RTVSPropertyOp32
 70
     1
102
RTVSPropertyOp33
 70
     1
102
RTVSPropertyOp34
 70
     1
102
RTVSPropertyOp35
 70
     1
102
RTVSPropertyOp36
 70
     1
102
RTVSPropertyOp37
 70
     1
102
RTVSPropertyOp38
 70
     1
102
RTVSPropertyOp39
 70
     1
102
RTVSPropertyOp40
 70
     1
102
RTVSPropertyOp41
 70
     1
102
RTVSPropertyOp42
 70
     1
102
RTVSPropertyOp43
 70
     1
102
RTVSPropertyOp44
 70
     1
102
RTVSPropertyOp45
 70
     1
102
RTVSPropertyOp46
 70
     1
102
RTVSPropertyOp47
 70
     1
102
RTVSPropertyOp48
 70
     1
102
RTVSPropertyOp49
 70
     1
102
RTVSPropertyOp50
 70
     1
102
RTVSPropertyOp51
 70
     0
102
RTVSPropertyOp52
 70
     0
102
RTVSPropertyOp53
 70
     1
102
RTVSPropertyOp54
 70
     1
102
RTVSPropertyOp55
 70
     1
102
RTVSPropertyOp56
 70
     1
102
RTVSPropertyOp57
 70
     1
102
RTVSPropertyOp58
 70
     1
102
RTVSPropertyOp59
 70
     1
102
RTVSPropertyOp60
 70
     1
102
RTVSPropertyOp61
 70
     1
102
RTVSPropertyOp62
 70
     1
  0
XRECORD
  5
ABBD
102
{ACAD_REACTORS
330
ABBC
102
}
330
ABBC
100
AcDbXrecord
280
     1
102
RTVSPost2010Prop28
280
     0
102
RTVSPost2010PropOp28
 70
     1
102
RTVSPost2010Prop29
280
     1
102
RTVSPost2010PropOp29
 70
     1
102
RTVSPost2010Prop30
280
     1
102
RTVSPost2010PropOp30
 70
     1
102
RTVSPost2010Prop31
280
     0
102
RTVSPost2010PropOp31
 70
     1
102
RTVSPost2010Prop32
280
     0
102
RTVSPost2010PropOp32
 70
     1
102
RTVSPost2010Prop33
280
     0
102
RTVSPost2010PropOp33
 70
     1
102
RTVSPost2010Prop34
280
     0
102
RTVSPost2010PropOp34
 70
     1
102
RTVSPost2010Prop35
280
     0
102
RTVSPost2010PropOp35
 70
     1
102
RTVSPost2010Prop36
280
     0
102
RTVSPost2010PropOp36
 70
     1
102
RTVSPost2010Prop37
 90
       50
102
RTVSPost2010PropOp37
 70
     1
102
RTVSPost2010Prop38
140
0.0
102
RTVSPost2010PropOp38
 70
     1
102
RTVSPost2010Prop39
140
1.0
102
RTVSPost2010PropOp39
 70
     1
102
RTVSPost2010Prop40
 90
        0
102
RTVSPost2010PropOp40
 70
     1
102
RTVSPost2010Prop41ColorIndex
 90
       18
102
RTVSPost2010Prop41ColorRGB
 90
        0
102
RTVSPost2010PropOp41
 70
     1
102
RTVSPost2010Prop42
 90
       50
102
RTVSPost2010PropOp42
 70
     1
102
RTVSPost2010Prop43
 90
        3
102
RTVSPost2010PropOp43
 70
     1
102
RTVSPost2010Prop44ColorIndex
 90
        5
102
RTVSPost2010Prop44ColorRGB
 90
      255
102
RTVSPost2010PropOp44
 70
     1
102
RTVSPost2010Prop45
280
     0
102
RTVSPost2010PropOp45
 70
     1
102
RTVSPost2010Prop46
 90
       50
102
RTVSPost2010PropOp46
 70
     1
102
RTVSPost2010Prop47
 90
       50
102
RTVSPost2010PropOp47
 70
     1
102
RTVSPost2010Prop48
 90
       50
102
RTVSPost2010PropOp48
 70
     1
102
RTVSPost2010Prop49
280
     0
102
RTVSPost2010PropOp49
 70
     1
102
RTVSPost2010Prop50
 90
       50
102
RTVSPost2010PropOp50
 70
     1
102
RTVSPost2010Prop51ColorIndex
 90
      256
102
RTVSPost2010Prop51ColorRGB
 90
-16777216
102
RTVSPost2010PropOp51
 70
     0
102
RTVSPost2010Prop52
140
1.0
102
RTVSPost2010PropOp52
 70
     0
102
RTVSPost2010Prop53
 90
        2
102
RTVSPost2010PropOp53
 70
     1
102
RTVSPost2010Prop54
  1
strokes_ogs.tif
102
RTVSPost2010PropOp54
 70
     1
102
RTVSPost2010Prop55
280
     0
102
RTVSPost2010PropOp55
 70
     1
102
RTVSPost2010Prop56
140
1.0
102
RTVSPost2010PropOp56
 70
     1
102
RTVSPost2010Prop57
140
1.0
102
RTVSPost2010PropOp57
 70
     1
102
RTVSPropertyOp0
 70
     1
102
RTVSPropertyOp1
 70
     1
102
RTVSPropertyOp2
 70
     1
102
RTVSPropertyOp3
 70
     1
102
RTVSPropertyOp4
 70
     1
102
RTVSPropertyOp5
 70
     1
102
RTVSPropertyOp6
 70
     1
102
RTVSPropertyOp7
 70
     1
102
RTVSPropertyOp8
 70
     1
102
RTVSPropertyOp9
 70
     1
102
RTVSPropertyOp10
 70
     1
102
RTVSPropertyOp11
 70
     1
102
RTVSPropertyOp12
 70
     1
102
RTVSPropertyOp13
 70
     1
102
RTVSPropertyOp14
 70
     1
102
RTVSPropertyOp15
 70
     1
102
RTVSPropertyOp16
 70
     1
102
RTVSPropertyOp17
 70
     1
102
RTVSPropertyOp18
 70
     1
102
RTVSPropertyOp19
 70
     1
102
RTVSPropertyOp20
 70
     1
102
RTVSPropertyOp21
 70
     1
102
RTVSPropertyOp22
 70
     1
102
RTVSPropertyOp23
 70
     1
102
RTVSPropertyOp24
 70
     1
102
RTVSPropertyOp25
 70
     1
102
RTVSPropertyOp26
 70
     1
102
RTVSPropertyOp27
 70
     1
102
RTVSPropertyOp28
 70
     1
102
RTVSPropertyOp29
 70
     1
102
RTVSPropertyOp30
 70
     1
102
RTVSPropertyOp31
 70
     1
102
RTVSPropertyOp32
 70
     1
102
RTVSPropertyOp33
 70
     1
102
RTVSPropertyOp34
 70
     1
102
RTVSPropertyOp35
 70
     1
102
RTVSPropertyOp36
 70
     1
102
RTVSPropertyOp37
 70
     1
102
RTVSPropertyOp38
 70
     1
102
RTVSPropertyOp39
 70
     1
102
RTVSPropertyOp40
 70
     1
102
RTVSPropertyOp41
 70
     1
102
RTVSPropertyOp42
 70
     1
102
RTVSPropertyOp43
 70
     1
102
RTVSPropertyOp44
 70
     1
102
RTVSPropertyOp45
 70
     1
102
RTVSPropertyOp46
 70
     1
102
RTVSPropertyOp47
 70
     1
102
RTVSPropertyOp48
 70
     1
102
RTVSPropertyOp49
 70
     1
102
RTVSPropertyOp50
 70
     1
102
RTVSPropertyOp51
 70
     0
102
RTVSPropertyOp52
 70
     0
102
RTVSPropertyOp53
 70
     1
102
RTVSPropertyOp54
 70
     1
102
RTVSPropertyOp55
 70
     1
102
RTVSPropertyOp56
 70
     1
102
RTVSPropertyOp57
 70
     1
102
RTVSPropertyOp58
 70
     1
102
RTVSPropertyOp59
 70
     1
102
RTVSPropertyOp60
 70
     1
102
RTVSPropertyOp61
 70
     1
102
RTVSPropertyOp62
 70
     1
  0
XRECORD
  5
ABCF
102
{ACAD_REACTORS
330
ABCE
102
}
330
ABCE
100
AcDbXrecord
280
     1
102
RTVSPost2010Prop28
280
     0
102
RTVSPost2010PropOp28
 70
     1
102
RTVSPost2010Prop29
280
     1
102
RTVSPost2010PropOp29
 70
     1
102
RTVSPost2010Prop30
280
     1
102
RTVSPost2010PropOp30
 70
     1
102
RTVSPost2010Prop31
280
     0
102
RTVSPost2010PropOp31
 70
     1
102
RTVSPost2010Prop32
280
     0
102
RTVSPost2010PropOp32
 70
     1
102
RTVSPost2010Prop33
280
     0
102
RTVSPost2010PropOp33
 70
     1
102
RTVSPost2010Prop34
280
     0
102
RTVSPost2010PropOp34
 70
     1
102
RTVSPost2010Prop35
280
     0
102
RTVSPost2010PropOp35
 70
     1
102
RTVSPost2010Prop36
280
     0
102
RTVSPost2010PropOp36
 70
     1
102
RTVSPost2010Prop37
 90
       50
102
RTVSPost2010PropOp37
 70
     1
102
RTVSPost2010Prop38
140
0.0
102
RTVSPost2010PropOp38
 70
     1
102
RTVSPost2010Prop39
140
1.0
102
RTVSPost2010PropOp39
 70
     1
102
RTVSPost2010Prop40
 90
        0
102
RTVSPost2010PropOp40
 70
     1
102
RTVSPost2010Prop41ColorIndex
 90
       18
102
RTVSPost2010Prop41ColorRGB
 90
        0
102
RTVSPost2010PropOp41
 70
     1
102
RTVSPost2010Prop42
 90
       50
102
RTVSPost2010PropOp42
 70
     1
102
RTVSPost2010Prop43
 90
        3
102
RTVSPost2010PropOp43
 70
     1
102
RTVSPost2010Prop44ColorIndex
 90
        5
102
RTVSPost2010Prop44ColorRGB
 90
      255
102
RTVSPost2010PropOp44
 70
     1
102
RTVSPost2010Prop45
280
     0
102
RTVSPost2010PropOp45
 70
     1
102
RTVSPost2010Prop46
 90
       50
102
RTVSPost2010PropOp46
 70
     1
102
RTVSPost2010Prop47
 90
       50
102
RTVSPost2010PropOp47
 70
     1
102
RTVSPost2010Prop48
 90
       50
102
RTVSPost2010PropOp48
 70
     1
102
RTVSPost2010Prop49
280
     0
102
RTVSPost2010PropOp49
 70
     1
102
RTVSPost2010Prop50
 90
       50
102
RTVSPost2010PropOp50
 70
     1
102
RTVSPost2010Prop51ColorIndex
 90
      256
102
RTVSPost2010Prop51ColorRGB
 90
-16777216
102
RTVSPost2010PropOp51
 70
     0
102
RTVSPost2010Prop52
140
1.0
102
RTVSPost2010PropOp52
 70
     0
102
RTVSPost2010Prop53
 90
        2
102
RTVSPost2010PropOp53
 70
     1
102
RTVSPost2010Prop54
  1
strokes_ogs.tif
102
RTVSPost2010PropOp54
 70
     1
102
RTVSPost2010Prop55
280
     0
102
RTVSPost2010PropOp55
 70
     1
102
RTVSPost2010Prop56
140
1.0
102
RTVSPost2010PropOp56
 70
     1
102
RTVSPost2010Prop57
140
1.0
102
RTVSPost2010PropOp57
 70
     1
102
RTVSPropertyOp0
 70
     0
102
RTVSPropertyOp1
 70
     0
102
RTVSPropertyOp2
 70
     0
102
RTVSPropertyOp3
 70
     0
102
RTVSPropertyOp4
 70
     0
102
RTVSPropertyOp5
 70
     0
102
RTVSPropertyOp6
 70
     0
102
RTVSPropertyOp7
 70
     0
102
RTVSPropertyOp8
 70
     0
102
RTVSPropertyOp9
 70
     0
102
RTVSPropertyOp10
 70
     0
102
RTVSPropertyOp11
 70
     0
102
RTVSPropertyOp12
 70
     0
102
RTVSPropertyOp13
 70
     0
102
RTVSPropertyOp14
 70
     2
102
RTVSPropertyOp15
 70
     0
102
RTVSPropertyOp16
 70
     0
102
RTVSPropertyOp17
 70
     0
102
RTVSPropertyOp18
 70
     0
102
RTVSPropertyOp19
 70
     0
102
RTVSPropertyOp20
 70
     0
102
RTVSPropertyOp21
 70
     0
102
RTVSPropertyOp22
 70
     0
102
RTVSPropertyOp23
 70
     0
102
RTVSPropertyOp24
 70
     0
102
RTVSPropertyOp25
 70
     0
102
RTVSPropertyOp26
 70
     0
102
RTVSPropertyOp27
 70
     0
102
RTVSPropertyOp28
 70
     1
102
RTVSPropertyOp29
 70
     1
102
RTVSPropertyOp30
 70
     1
102
RTVSPropertyOp31
 70
     1
102
RTVSPropertyOp32
 70
     1
102
RTVSPropertyOp33
 70
     1
102
RTVSPropertyOp34
 70
     1
102
RTVSPropertyOp35
 70
     1
102
RTVSPropertyOp36
 70
     1
102
RTVSPropertyOp37
 70
     1
102
RTVSPropertyOp38
 70
     1
102
RTVSPropertyOp39
 70
     1
102
RTVSPropertyOp40
 70
     1
102
RTVSPropertyOp41
 70
     1
102
RTVSPropertyOp42
 70
     1
102
RTVSPropertyOp43
 70
     1
102
RTVSPropertyOp44
 70
     1
102
RTVSPropertyOp45
 70
     1
102
RTVSPropertyOp46
 70
     1
102
RTVSPropertyOp47
 70
     1
102
RTVSPropertyOp48
 70
     1
102
RTVSPropertyOp49
 70
     1
102
RTVSPropertyOp50
 70
     1
102
RTVSPropertyOp51
 70
     0
102
RTVSPropertyOp52
 70
     0
102
RTVSPropertyOp53
 70
     1
102
RTVSPropertyOp54
 70
     1
102
RTVSPropertyOp55
 70
     1
102
RTVSPropertyOp56
 70
     1
102
RTVSPropertyOp57
 70
     1
102
RTVSPropertyOp58
 70
     1
102
RTVSPropertyOp59
 70
     1
102
RTVSPropertyOp60
 70
     1
102
RTVSPropertyOp61
 70
     1
102
RTVSPropertyOp62
 70
     1
  0
XRECORD
  5
ABC5
102
{ACAD_REACTORS
330
ABC4
102
}
330
ABC4
100
AcDbXrecord
280
     1
102
RTVSPost2010Prop28
280
     0
102
RTVSPost2010PropOp28
 70
     1
102
RTVSPost2010Prop29
280
     1
102
RTVSPost2010PropOp29
 70
     1
102
RTVSPost2010Prop30
280
     1
102
RTVSPost2010PropOp30
 70
     1
102
RTVSPost2010Prop31
280
     0
102
RTVSPost2010PropOp31
 70
     1
102
RTVSPost2010Prop32
280
     0
102
RTVSPost2010PropOp32
 70
     1
102
RTVSPost2010Prop33
280
     0
102
RTVSPost2010PropOp33
 70
     1
102
RTVSPost2010Prop34
280
     0
102
RTVSPost2010PropOp34
 70
     1
102
RTVSPost2010Prop35
280
     0
102
RTVSPost2010PropOp35
 70
     1
102
RTVSPost2010Prop36
280
     0
102
RTVSPost2010PropOp36
 70
     1
102
RTVSPost2010Prop37
 90
       50
102
RTVSPost2010PropOp37
 70
     1
102
RTVSPost2010Prop38
140
0.0
102
RTVSPost2010PropOp38
 70
     1
102
RTVSPost2010Prop39
140
1.0
102
RTVSPost2010PropOp39
 70
     1
102
RTVSPost2010Prop40
 90
        0
102
RTVSPost2010PropOp40
 70
     1
102
RTVSPost2010Prop41ColorIndex
 90
       18
102
RTVSPost2010Prop41ColorRGB
 90
        0
102
RTVSPost2010PropOp41
 70
     1
102
RTVSPost2010Prop42
 90
       50
102
RTVSPost2010PropOp42
 70
     1
102
RTVSPost2010Prop43
 90
        3
102
RTVSPost2010PropOp43
 70
     1
102
RTVSPost2010Prop44ColorIndex
 90
        5
102
RTVSPost2010Prop44ColorRGB
 90
      255
102
RTVSPost2010PropOp44
 70
     1
102
RTVSPost2010Prop45
280
     0
102
RTVSPost2010PropOp45
 70
     1
102
RTVSPost2010Prop46
 90
       50
102
RTVSPost2010PropOp46
 70
     1
102
RTVSPost2010Prop47
 90
       50
102
RTVSPost2010PropOp47
 70
     1
102
RTVSPost2010Prop48
 90
       50
102
RTVSPost2010PropOp48
 70
     1
102
RTVSPost2010Prop49
280
     0
102
RTVSPost2010PropOp49
 70
     1
102
RTVSPost2010Prop50
 90
       50
102
RTVSPost2010PropOp50
 70
     1
102
RTVSPost2010Prop51ColorIndex
 90
      256
102
RTVSPost2010Prop51ColorRGB
 90
-16777216
102
RTVSPost2010PropOp51
 70
     0
102
RTVSPost2010Prop52
140
1.0
102
RTVSPost2010PropOp52
 70
     0
102
RTVSPost2010Prop53
 90
        2
102
RTVSPost2010PropOp53
 70
     1
102
RTVSPost2010Prop54
  1
strokes_ogs.tif
102
RTVSPost2010PropOp54
 70
     1
102
RTVSPost2010Prop55
280
     0
102
RTVSPost2010PropOp55
 70
     1
102
RTVSPost2010Prop56
140
1.0
102
RTVSPost2010PropOp56
 70
     1
102
RTVSPost2010Prop57
140
1.0
102
RTVSPost2010PropOp57
 70
     1
102
RTVSPropertyOp0
 70
     1
102
RTVSPropertyOp1
 70
     1
102
RTVSPropertyOp2
 70
     1
102
RTVSPropertyOp3
 70
     1
102
RTVSPropertyOp4
 70
     1
102
RTVSPropertyOp5
 70
     1
102
RTVSPropertyOp6
 70
     1
102
RTVSPropertyOp7
 70
     1
102
RTVSPropertyOp8
 70
     1
102
RTVSPropertyOp9
 70
     1
102
RTVSPropertyOp10
 70
     1
102
RTVSPropertyOp11
 70
     1
102
RTVSPropertyOp12
 70
     1
102
RTVSPropertyOp13
 70
     1
102
RTVSPropertyOp14
 70
     1
102
RTVSPropertyOp15
 70
     1
102
RTVSPropertyOp16
 70
     1
102
RTVSPropertyOp17
 70
     1
102
RTVSPropertyOp18
 70
     1
102
RTVSPropertyOp19
 70
     1
102
RTVSPropertyOp20
 70
     1
102
RTVSPropertyOp21
 70
     1
102
RTVSPropertyOp22
 70
     1
102
RTVSPropertyOp23
 70
     1
102
RTVSPropertyOp24
 70
     1
102
RTVSPropertyOp25
 70
     1
102
RTVSPropertyOp26
 70
     1
102
RTVSPropertyOp27
 70
     1
102
RTVSPropertyOp28
 70
     1
102
RTVSPropertyOp29
 70
     1
102
RTVSPropertyOp30
 70
     1
102
RTVSPropertyOp31
 70
     1
102
RTVSPropertyOp32
 70
     1
102
RTVSPropertyOp33
 70
     1
102
RTVSPropertyOp34
 70
     1
102
RTVSPropertyOp35
 70
     1
102
RTVSPropertyOp36
 70
     1
102
RTVSPropertyOp37
 70
     1
102
RTVSPropertyOp38
 70
     1
102
RTVSPropertyOp39
 70
     1
102
RTVSPropertyOp40
 70
     1
102
RTVSPropertyOp41
 70
     1
102
RTVSPropertyOp42
 70
     1
102
RTVSPropertyOp43
 70
     1
102
RTVSPropertyOp44
 70
     1
102
RTVSPropertyOp45
 70
     1
102
RTVSPropertyOp46
 70
     1
102
RTVSPropertyOp47
 70
     1
102
RTVSPropertyOp48
 70
     1
102
RTVSPropertyOp49
 70
     1
102
RTVSPropertyOp50
 70
     1
102
RTVSPropertyOp51
 70
     0
102
RTVSPropertyOp52
 70
     0
102
RTVSPropertyOp53
 70
     1
102
RTVSPropertyOp54
 70
     1
102
RTVSPropertyOp55
 70
     1
102
RTVSPropertyOp56
 70
     1
102
RTVSPropertyOp57
 70
     1
102
RTVSPropertyOp58
 70
     1
102
RTVSPropertyOp59
 70
     1
102
RTVSPropertyOp60
 70
     1
102
RTVSPropertyOp61
 70
     1
102
RTVSPropertyOp62
 70
     1
  0
XRECORD
  5
ABA9
102
{ACAD_REACTORS
330
ABA8
102
}
330
ABA8
100
AcDbXrecord
280
     1
102
RTVSPost2010Prop28
280
     0
102
RTVSPost2010PropOp28
 70
     1
102
RTVSPost2010Prop29
280
     1
102
RTVSPost2010PropOp29
 70
     1
102
RTVSPost2010Prop30
280
     1
102
RTVSPost2010PropOp30
 70
     1
102
RTVSPost2010Prop31
280
     0
102
RTVSPost2010PropOp31
 70
     1
102
RTVSPost2010Prop32
280
     0
102
RTVSPost2010PropOp32
 70
     1
102
RTVSPost2010Prop33
280
     0
102
RTVSPost2010PropOp33
 70
     1
102
RTVSPost2010Prop34
280
     0
102
RTVSPost2010PropOp34
 70
     1
102
RTVSPost2010Prop35
280
     0
102
RTVSPost2010PropOp35
 70
     1
102
RTVSPost2010Prop36
280
     0
102
RTVSPost2010PropOp36
 70
     1
102
RTVSPost2010Prop37
 90
       50
102
RTVSPost2010PropOp37
 70
     1
102
RTVSPost2010Prop38
140
0.0
102
RTVSPost2010PropOp38
 70
     1
102
RTVSPost2010Prop39
140
1.0
102
RTVSPost2010PropOp39
 70
     1
102
RTVSPost2010Prop40
 90
        0
102
RTVSPost2010PropOp40
 70
     1
102
RTVSPost2010Prop41ColorIndex
 90
       18
102
RTVSPost2010Prop41ColorRGB
 90
        0
102
RTVSPost2010PropOp41
 70
     1
102
RTVSPost2010Prop42
 90
       50
102
RTVSPost2010PropOp42
 70
     1
102
RTVSPost2010Prop43
 90
        3
102
RTVSPost2010PropOp43
 70
     1
102
RTVSPost2010Prop44ColorIndex
 90
        5
102
RTVSPost2010Prop44ColorRGB
 90
      255
102
RTVSPost2010PropOp44
 70
     1
102
RTVSPost2010Prop45
280
     0
102
RTVSPost2010PropOp45
 70
     1
102
RTVSPost2010Prop46
 90
       50
102
RTVSPost2010PropOp46
 70
     1
102
RTVSPost2010Prop47
 90
       50
102
RTVSPost2010PropOp47
 70
     1
102
RTVSPost2010Prop48
 90
       50
102
RTVSPost2010PropOp48
 70
     1
102
RTVSPost2010Prop49
280
     0
102
RTVSPost2010PropOp49
 70
     1
102
RTVSPost2010Prop50
 90
       50
102
RTVSPost2010PropOp50
 70
     1
102
RTVSPost2010Prop51ColorIndex
 90
      256
102
RTVSPost2010Prop51ColorRGB
 90
-16777216
102
RTVSPost2010PropOp51
 70
     0
102
RTVSPost2010Prop52
140
1.0
102
RTVSPost2010PropOp52
 70
     0
102
RTVSPost2010Prop53
 90
        2
102
RTVSPost2010PropOp53
 70
     1
102
RTVSPost2010Prop54
  1
strokes_ogs.tif
102
RTVSPost2010PropOp54
 70
     1
102
RTVSPost2010Prop55
280
     0
102
RTVSPost2010PropOp55
 70
     1
102
RTVSPost2010Prop56
140
1.0
102
RTVSPost2010PropOp56
 70
     1
102
RTVSPost2010Prop57
140
1.0
102
RTVSPost2010PropOp57
 70
     1
102
RTVSPropertyOp0
 70
     1
102
RTVSPropertyOp1
 70
     1
102
RTVSPropertyOp2
 70
     1
102
RTVSPropertyOp3
 70
     1
102
RTVSPropertyOp4
 70
     1
102
RTVSPropertyOp5
 70
     1
102
RTVSPropertyOp6
 70
     1
102
RTVSPropertyOp7
 70
     1
102
RTVSPropertyOp8
 70
     1
102
RTVSPropertyOp9
 70
     1
102
RTVSPropertyOp10
 70
     1
102
RTVSPropertyOp11
 70
     1
102
RTVSPropertyOp12
 70
     1
102
RTVSPropertyOp13
 70
     1
102
RTVSPropertyOp14
 70
     1
102
RTVSPropertyOp15
 70
     1
102
RTVSPropertyOp16
 70
     1
102
RTVSPropertyOp17
 70
     1
102
RTVSPropertyOp18
 70
     1
102
RTVSPropertyOp19
 70
     1
102
RTVSPropertyOp20
 70
     1
102
RTVSPropertyOp21
 70
     1
102
RTVSPropertyOp22
 70
     1
102
RTVSPropertyOp23
 70
     1
102
RTVSPropertyOp24
 70
     1
102
RTVSPropertyOp25
 70
     1
102
RTVSPropertyOp26
 70
     1
102
RTVSPropertyOp27
 70
     1
102
RTVSPropertyOp28
 70
     1
102
RTVSPropertyOp29
 70
     1
102
RTVSPropertyOp30
 70
     1
102
RTVSPropertyOp31
 70
     1
102
RTVSPropertyOp32
 70
     1
102
RTVSPropertyOp33
 70
     1
102
RTVSPropertyOp34
 70
     1
102
RTVSPropertyOp35
 70
     1
102
RTVSPropertyOp36
 70
     1
102
RTVSPropertyOp37
 70
     1
102
RTVSPropertyOp38
 70
     1
102
RTVSPropertyOp39
 70
     1
102
RTVSPropertyOp40
 70
     1
102
RTVSPropertyOp41
 70
     1
102
RTVSPropertyOp42
 70
     1
102
RTVSPropertyOp43
 70
     1
102
RTVSPropertyOp44
 70
     1
102
RTVSPropertyOp45
 70
     1
102
RTVSPropertyOp46
 70
     1
102
RTVSPropertyOp47
 70
     1
102
RTVSPropertyOp48
 70
     1
102
RTVSPropertyOp49
 70
     1
102
RTVSPropertyOp50
 70
     1
102
RTVSPropertyOp51
 70
     0
102
RTVSPropertyOp52
 70
     0
102
RTVSPropertyOp53
 70
     1
102
RTVSPropertyOp54
 70
     1
102
RTVSPropertyOp55
 70
     1
102
RTVSPropertyOp56
 70
     1
102
RTVSPropertyOp57
 70
     1
102
RTVSPropertyOp58
 70
     1
102
RTVSPropertyOp59
 70
     1
102
RTVSPropertyOp60
 70
     1
102
RTVSPropertyOp61
 70
     1
102
RTVSPropertyOp62
 70
     1
  0
XRECORD
  5
ABAB
102
{ACAD_REACTORS
330
ABAA
102
}
330
ABAA
100
AcDbXrecord
280
     1
102
RTVSPost2010Prop28
280
     0
102
RTVSPost2010PropOp28
 70
     1
102
RTVSPost2010Prop29
280
     1
102
RTVSPost2010PropOp29
 70
     1
102
RTVSPost2010Prop30
280
     1
102
RTVSPost2010PropOp30
 70
     1
102
RTVSPost2010Prop31
280
     0
102
RTVSPost2010PropOp31
 70
     1
102
RTVSPost2010Prop32
280
     0
102
RTVSPost2010PropOp32
 70
     1
102
RTVSPost2010Prop33
280
     0
102
RTVSPost2010PropOp33
 70
     1
102
RTVSPost2010Prop34
280
     0
102
RTVSPost2010PropOp34
 70
     1
102
RTVSPost2010Prop35
280
     0
102
RTVSPost2010PropOp35
 70
     1
102
RTVSPost2010Prop36
280
     0
102
RTVSPost2010PropOp36
 70
     1
102
RTVSPost2010Prop37
 90
       50
102
RTVSPost2010PropOp37
 70
     1
102
RTVSPost2010Prop38
140
0.0
102
RTVSPost2010PropOp38
 70
     1
102
RTVSPost2010Prop39
140
1.0
102
RTVSPost2010PropOp39
 70
     1
102
RTVSPost2010Prop40
 90
        0
102
RTVSPost2010PropOp40
 70
     1
102
RTVSPost2010Prop41ColorIndex
 90
       18
102
RTVSPost2010Prop41ColorRGB
 90
        0
102
RTVSPost2010PropOp41
 70
     1
102
RTVSPost2010Prop42
 90
       50
102
RTVSPost2010PropOp42
 70
     1
102
RTVSPost2010Prop43
 90
        3
102
RTVSPost2010PropOp43
 70
     1
102
RTVSPost2010Prop44ColorIndex
 90
        5
102
RTVSPost2010Prop44ColorRGB
 90
      255
102
RTVSPost2010PropOp44
 70
     1
102
RTVSPost2010Prop45
280
     0
102
RTVSPost2010PropOp45
 70
     1
102
RTVSPost2010Prop46
 90
       50
102
RTVSPost2010PropOp46
 70
     1
102
RTVSPost2010Prop47
 90
       50
102
RTVSPost2010PropOp47
 70
     1
102
RTVSPost2010Prop48
 90
       50
102
RTVSPost2010PropOp48
 70
     1
102
RTVSPost2010Prop49
280
     0
102
RTVSPost2010PropOp49
 70
     1
102
RTVSPost2010Prop50
 90
       50
102
RTVSPost2010PropOp50
 70
     1
102
RTVSPost2010Prop51ColorIndex
 90
      256
102
RTVSPost2010Prop51ColorRGB
 90
-16777216
102
RTVSPost2010PropOp51
 70
     0
102
RTVSPost2010Prop52
140
1.0
102
RTVSPost2010PropOp52
 70
     0
102
RTVSPost2010Prop53
 90
        2
102
RTVSPost2010PropOp53
 70
     1
102
RTVSPost2010Prop54
  1
strokes_ogs.tif
102
RTVSPost2010PropOp54
 70
     1
102
RTVSPost2010Prop55
280
     0
102
RTVSPost2010PropOp55
 70
     1
102
RTVSPost2010Prop56
140
1.0
102
RTVSPost2010PropOp56
 70
     1
102
RTVSPost2010Prop57
140
1.0
102
RTVSPost2010PropOp57
 70
     1
102
RTVSPropertyOp0
 70
     1
102
RTVSPropertyOp1
 70
     1
102
RTVSPropertyOp2
 70
     1
102
RTVSPropertyOp3
 70
     1
102
RTVSPropertyOp4
 70
     1
102
RTVSPropertyOp5
 70
     1
102
RTVSPropertyOp6
 70
     1
102
RTVSPropertyOp7
 70
     1
102
RTVSPropertyOp8
 70
     1
102
RTVSPropertyOp9
 70
     1
102
RTVSPropertyOp10
 70
     1
102
RTVSPropertyOp11
 70
     1
102
RTVSPropertyOp12
 70
     1
102
RTVSPropertyOp13
 70
     1
102
RTVSPropertyOp14
 70
     1
102
RTVSPropertyOp15
 70
     1
102
RTVSPropertyOp16
 70
     1
102
RTVSPropertyOp17
 70
     1
102
RTVSPropertyOp18
 70
     1
102
RTVSPropertyOp19
 70
     1
102
RTVSPropertyOp20
 70
     1
102
RTVSPropertyOp21
 70
     1
102
RTVSPropertyOp22
 70
     1
102
RTVSPropertyOp23
 70
     1
102
RTVSPropertyOp24
 70
     1
102
RTVSPropertyOp25
 70
     1
102
RTVSPropertyOp26
 70
     1
102
RTVSPropertyOp27
 70
     1
102
RTVSPropertyOp28
 70
     1
102
RTVSPropertyOp29
 70
     1
102
RTVSPropertyOp30
 70
     1
102
RTVSPropertyOp31
 70
     1
102
RTVSPropertyOp32
 70
     1
102
RTVSPropertyOp33
 70
     1
102
RTVSPropertyOp34
 70
     1
102
RTVSPropertyOp35
 70
     1
102
RTVSPropertyOp36
 70
     1
102
RTVSPropertyOp37
 70
     1
102
RTVSPropertyOp38
 70
     1
102
RTVSPropertyOp39
 70
     1
102
RTVSPropertyOp40
 70
     1
102
RTVSPropertyOp41
 70
     1
102
RTVSPropertyOp42
 70
     1
102
RTVSPropertyOp43
 70
     1
102
RTVSPropertyOp44
 70
     1
102
RTVSPropertyOp45
 70
     1
102
RTVSPropertyOp46
 70
     1
102
RTVSPropertyOp47
 70
     1
102
RTVSPropertyOp48
 70
     1
102
RTVSPropertyOp49
 70
     1
102
RTVSPropertyOp50
 70
     1
102
RTVSPropertyOp51
 70
     0
102
RTVSPropertyOp52
 70
     0
102
RTVSPropertyOp53
 70
     1
102
RTVSPropertyOp54
 70
     1
102
RTVSPropertyOp55
 70
     1
102
RTVSPropertyOp56
 70
     1
102
RTVSPropertyOp57
 70
     1
102
RTVSPropertyOp58
 70
     1
102
RTVSPropertyOp59
 70
     1
102
RTVSPropertyOp60
 70
     1
102
RTVSPropertyOp61
 70
     1
102
RTVSPropertyOp62
 70
     1
  0
XRECORD
  5
ABAD
102
{ACAD_REACTORS
330
ABAC
102
}
330
ABAC
100
AcDbXrecord
280
     1
102
RTVSPost2010Prop28
280
     0
102
RTVSPost2010PropOp28
 70
     1
102
RTVSPost2010Prop29
280
     1
102
RTVSPost2010PropOp29
 70
     1
102
RTVSPost2010Prop30
280
     1
102
RTVSPost2010PropOp30
 70
     1
102
RTVSPost2010Prop31
280
     0
102
RTVSPost2010PropOp31
 70
     1
102
RTVSPost2010Prop32
280
     0
102
RTVSPost2010PropOp32
 70
     1
102
RTVSPost2010Prop33
280
     0
102
RTVSPost2010PropOp33
 70
     1
102
RTVSPost2010Prop34
280
     0
102
RTVSPost2010PropOp34
 70
     1
102
RTVSPost2010Prop35
280
     0
102
RTVSPost2010PropOp35
 70
     1
102
RTVSPost2010Prop36
280
     0
102
RTVSPost2010PropOp36
 70
     1
102
RTVSPost2010Prop37
 90
       50
102
RTVSPost2010PropOp37
 70
     1
102
RTVSPost2010Prop38
140
0.0
102
RTVSPost2010PropOp38
 70
     1
102
RTVSPost2010Prop39
140
1.0
102
RTVSPost2010PropOp39
 70
     1
102
RTVSPost2010Prop40
 90
        0
102
RTVSPost2010PropOp40
 70
     1
102
RTVSPost2010Prop41ColorIndex
 90
       18
102
RTVSPost2010Prop41ColorRGB
 90
        0
102
RTVSPost2010PropOp41
 70
     1
102
RTVSPost2010Prop42
 90
       50
102
RTVSPost2010PropOp42
 70
     1
102
RTVSPost2010Prop43
 90
        3
102
RTVSPost2010PropOp43
 70
     1
102
RTVSPost2010Prop44ColorIndex
 90
        5
102
RTVSPost2010Prop44ColorRGB
 90
      255
102
RTVSPost2010PropOp44
 70
     1
102
RTVSPost2010Prop45
280
     0
102
RTVSPost2010PropOp45
 70
     1
102
RTVSPost2010Prop46
 90
       50
102
RTVSPost2010PropOp46
 70
     1
102
RTVSPost2010Prop47
 90
       50
102
RTVSPost2010PropOp47
 70
     1
102
RTVSPost2010Prop48
 90
       50
102
RTVSPost2010PropOp48
 70
     1
102
RTVSPost2010Prop49
280
     0
102
RTVSPost2010PropOp49
 70
     1
102
RTVSPost2010Prop50
 90
       50
102
RTVSPost2010PropOp50
 70
     1
102
RTVSPost2010Prop51ColorIndex
 90
      256
102
RTVSPost2010Prop51ColorRGB
 90
-16777216
102
RTVSPost2010PropOp51
 70
     0
102
RTVSPost2010Prop52
140
1.0
102
RTVSPost2010PropOp52
 70
     0
102
RTVSPost2010Prop53
 90
        2
102
RTVSPost2010PropOp53
 70
     1
102
RTVSPost2010Prop54
  1
strokes_ogs.tif
102
RTVSPost2010PropOp54
 70
     1
102
RTVSPost2010Prop55
280
     0
102
RTVSPost2010PropOp55
 70
     1
102
RTVSPost2010Prop56
140
1.0
102
RTVSPost2010PropOp56
 70
     1
102
RTVSPost2010Prop57
140
1.0
102
RTVSPost2010PropOp57
 70
     1
102
RTVSPropertyOp0
 70
     1
102
RTVSPropertyOp1
 70
     1
102
RTVSPropertyOp2
 70
     1
102
RTVSPropertyOp3
 70
     1
102
RTVSPropertyOp4
 70
     1
102
RTVSPropertyOp5
 70
     1
102
RTVSPropertyOp6
 70
     1
102
RTVSPropertyOp7
 70
     1
102
RTVSPropertyOp8
 70
     1
102
RTVSPropertyOp9
 70
     1
102
RTVSPropertyOp10
 70
     1
102
RTVSPropertyOp11
 70
     1
102
RTVSPropertyOp12
 70
     1
102
RTVSPropertyOp13
 70
     1
102
RTVSPropertyOp14
 70
     1
102
RTVSPropertyOp15
 70
     1
102
RTVSPropertyOp16
 70
     1
102
RTVSPropertyOp17
 70
     1
102
RTVSPropertyOp18
 70
     1
102
RTVSPropertyOp19
 70
     1
102
RTVSPropertyOp20
 70
     1
102
RTVSPropertyOp21
 70
     1
102
RTVSPropertyOp22
 70
     1
102
RTVSPropertyOp23
 70
     1
102
RTVSPropertyOp24
 70
     1
102
RTVSPropertyOp25
 70
     1
102
RTVSPropertyOp26
 70
     1
102
RTVSPropertyOp27
 70
     1
102
RTVSPropertyOp28
 70
     1
102
RTVSPropertyOp29
 70
     1
102
RTVSPropertyOp30
 70
     1
102
RTVSPropertyOp31
 70
     1
102
RTVSPropertyOp32
 70
     1
102
RTVSPropertyOp33
 70
     1
102
RTVSPropertyOp34
 70
     1
102
RTVSPropertyOp35
 70
     1
102
RTVSPropertyOp36
 70
     1
102
RTVSPropertyOp37
 70
     1
102
RTVSPropertyOp38
 70
     1
102
RTVSPropertyOp39
 70
     1
102
RTVSPropertyOp40
 70
     1
102
RTVSPropertyOp41
 70
     1
102
RTVSPropertyOp42
 70
     1
102
RTVSPropertyOp43
 70
     1
102
RTVSPropertyOp44
 70
     1
102
RTVSPropertyOp45
 70
     1
102
RTVSPropertyOp46
 70
     1
102
RTVSPropertyOp47
 70
     1
102
RTVSPropertyOp48
 70
     1
102
RTVSPropertyOp49
 70
     1
102
RTVSPropertyOp50
 70
     1
102
RTVSPropertyOp51
 70
     0
102
RTVSPropertyOp52
 70
     0
102
RTVSPropertyOp53
 70
     1
102
RTVSPropertyOp54
 70
     1
102
RTVSPropertyOp55
 70
     1
102
RTVSPropertyOp56
 70
     1
102
RTVSPropertyOp57
 70
     1
102
RTVSPropertyOp58
 70
     1
102
RTVSPropertyOp59
 70
     1
102
RTVSPropertyOp60
 70
     1
102
RTVSPropertyOp61
 70
     1
102
RTVSPropertyOp62
 70
     1
  0
XRECORD
  5
ABAF
102
{ACAD_REACTORS
330
ABAE
102
}
330
ABAE
100
AcDbXrecord
280
     1
102
RTVSPost2010Prop28
280
     0
102
RTVSPost2010PropOp28
 70
     1
102
RTVSPost2010Prop29
280
     1
102
RTVSPost2010PropOp29
 70
     1
102
RTVSPost2010Prop30
280
     1
102
RTVSPost2010PropOp30
 70
     1
102
RTVSPost2010Prop31
280
     0
102
RTVSPost2010PropOp31
 70
     1
102
RTVSPost2010Prop32
280
     0
102
RTVSPost2010PropOp32
 70
     1
102
RTVSPost2010Prop33
280
     0
102
RTVSPost2010PropOp33
 70
     1
102
RTVSPost2010Prop34
280
     0
102
RTVSPost2010PropOp34
 70
     1
102
RTVSPost2010Prop35
280
     0
102
RTVSPost2010PropOp35
 70
     1
102
RTVSPost2010Prop36
280
     0
102
RTVSPost2010PropOp36
 70
     1
102
RTVSPost2010Prop37
 90
       50
102
RTVSPost2010PropOp37
 70
     1
102
RTVSPost2010Prop38
140
0.0
102
RTVSPost2010PropOp38
 70
     1
102
RTVSPost2010Prop39
140
1.0
102
RTVSPost2010PropOp39
 70
     1
102
RTVSPost2010Prop40
 90
        0
102
RTVSPost2010PropOp40
 70
     1
102
RTVSPost2010Prop41ColorIndex
 90
       18
102
RTVSPost2010Prop41ColorRGB
 90
        0
102
RTVSPost2010PropOp41
 70
     1
102
RTVSPost2010Prop42
 90
       50
102
RTVSPost2010PropOp42
 70
     1
102
RTVSPost2010Prop43
 90
        3
102
RTVSPost2010PropOp43
 70
     1
102
RTVSPost2010Prop44ColorIndex
 90
        5
102
RTVSPost2010Prop44ColorRGB
 90
      255
102
RTVSPost2010PropOp44
 70
     1
102
RTVSPost2010Prop45
280
     0
102
RTVSPost2010PropOp45
 70
     1
102
RTVSPost2010Prop46
 90
       50
102
RTVSPost2010PropOp46
 70
     1
102
RTVSPost2010Prop47
 90
       50
102
RTVSPost2010PropOp47
 70
     1
102
RTVSPost2010Prop48
 90
       50
102
RTVSPost2010PropOp48
 70
     1
102
RTVSPost2010Prop49
280
     0
102
RTVSPost2010PropOp49
 70
     1
102
RTVSPost2010Prop50
 90
       50
102
RTVSPost2010PropOp50
 70
     1
102
RTVSPost2010Prop51ColorIndex
 90
      256
102
RTVSPost2010Prop51ColorRGB
 90
-16777216
102
RTVSPost2010PropOp51
 70
     0
102
RTVSPost2010Prop52
140
1.0
102
RTVSPost2010PropOp52
 70
     0
102
RTVSPost2010Prop53
 90
        2
102
RTVSPost2010PropOp53
 70
     1
102
RTVSPost2010Prop54
  1
strokes_ogs.tif
102
RTVSPost2010PropOp54
 70
     1
102
RTVSPost2010Prop55
280
     0
102
RTVSPost2010PropOp55
 70
     1
102
RTVSPost2010Prop56
140
1.0
102
RTVSPost2010PropOp56
 70
     1
102
RTVSPost2010Prop57
140
1.0
102
RTVSPost2010PropOp57
 70
     1
102
RTVSPropertyOp0
 70
     1
102
RTVSPropertyOp1
 70
     1
102
RTVSPropertyOp2
 70
     1
102
RTVSPropertyOp3
 70
     1
102
RTVSPropertyOp4
 70
     1
102
RTVSPropertyOp5
 70
     1
102
RTVSPropertyOp6
 70
     1
102
RTVSPropertyOp7
 70
     1
102
RTVSPropertyOp8
 70
     1
102
RTVSPropertyOp9
 70
     1
102
RTVSPropertyOp10
 70
     1
102
RTVSPropertyOp11
 70
     1
102
RTVSPropertyOp12
 70
     1
102
RTVSPropertyOp13
 70
     1
102
RTVSPropertyOp14
 70
     1
102
RTVSPropertyOp15
 70
     1
102
RTVSPropertyOp16
 70
     1
102
RTVSPropertyOp17
 70
     1
102
RTVSPropertyOp18
 70
     1
102
RTVSPropertyOp19
 70
     1
102
RTVSPropertyOp20
 70
     1
102
RTVSPropertyOp21
 70
     1
102
RTVSPropertyOp22
 70
     1
102
RTVSPropertyOp23
 70
     1
102
RTVSPropertyOp24
 70
     1
102
RTVSPropertyOp25
 70
     1
102
RTVSPropertyOp26
 70
     1
102
RTVSPropertyOp27
 70
     1
102
RTVSPropertyOp28
 70
     1
102
RTVSPropertyOp29
 70
     1
102
RTVSPropertyOp30
 70
     1
102
RTVSPropertyOp31
 70
     1
102
RTVSPropertyOp32
 70
     1
102
RTVSPropertyOp33
 70
     1
102
RTVSPropertyOp34
 70
     1
102
RTVSPropertyOp35
 70
     1
102
RTVSPropertyOp36
 70
     1
102
RTVSPropertyOp37
 70
     1
102
RTVSPropertyOp38
 70
     1
102
RTVSPropertyOp39
 70
     1
102
RTVSPropertyOp40
 70
     1
102
RTVSPropertyOp41
 70
     1
102
RTVSPropertyOp42
 70
     1
102
RTVSPropertyOp43
 70
     1
102
RTVSPropertyOp44
 70
     1
102
RTVSPropertyOp45
 70
     1
102
RTVSPropertyOp46
 70
     1
102
RTVSPropertyOp47
 70
     1
102
RTVSPropertyOp48
 70
     1
102
RTVSPropertyOp49
 70
     1
102
RTVSPropertyOp50
 70
     1
102
RTVSPropertyOp51
 70
     0
102
RTVSPropertyOp52
 70
     0
102
RTVSPropertyOp53
 70
     1
102
RTVSPropertyOp54
 70
     1
102
RTVSPropertyOp55
 70
     1
102
RTVSPropertyOp56
 70
     1
102
RTVSPropertyOp57
 70
     1
102
RTVSPropertyOp58
 70
     1
102
RTVSPropertyOp59
 70
     1
102
RTVSPropertyOp60
 70
     1
102
RTVSPropertyOp61
 70
     1
102
RTVSPropertyOp62
 70
     1
  0
XRECORD
  5
ABB7
102
{ACAD_REACTORS
330
ABB6
102
}
330
ABB6
100
AcDbXrecord
280
     1
102
RTVSPost2010Prop28
280
     0
102
RTVSPost2010PropOp28
 70
     1
102
RTVSPost2010Prop29
280
     1
102
RTVSPost2010PropOp29
 70
     1
102
RTVSPost2010Prop30
280
     1
102
RTVSPost2010PropOp30
 70
     1
102
RTVSPost2010Prop31
280
     0
102
RTVSPost2010PropOp31
 70
     1
102
RTVSPost2010Prop32
280
     0
102
RTVSPost2010PropOp32
 70
     1
102
RTVSPost2010Prop33
280
     0
102
RTVSPost2010PropOp33
 70
     1
102
RTVSPost2010Prop34
280
     0
102
RTVSPost2010PropOp34
 70
     1
102
RTVSPost2010Prop35
280
     0
102
RTVSPost2010PropOp35
 70
     1
102
RTVSPost2010Prop36
280
     0
102
RTVSPost2010PropOp36
 70
     1
102
RTVSPost2010Prop37
 90
       50
102
RTVSPost2010PropOp37
 70
     1
102
RTVSPost2010Prop38
140
0.0
102
RTVSPost2010PropOp38
 70
     1
102
RTVSPost2010Prop39
140
1.0
102
RTVSPost2010PropOp39
 70
     1
102
RTVSPost2010Prop40
 90
        0
102
RTVSPost2010PropOp40
 70
     1
102
RTVSPost2010Prop41ColorIndex
 90
       18
102
RTVSPost2010Prop41ColorRGB
 90
        0
102
RTVSPost2010PropOp41
 70
     1
102
RTVSPost2010Prop42
 90
       50
102
RTVSPost2010PropOp42
 70
     1
102
RTVSPost2010Prop43
 90
        3
102
RTVSPost2010PropOp43
 70
     1
102
RTVSPost2010Prop44ColorIndex
 90
        5
102
RTVSPost2010Prop44ColorRGB
 90
      255
102
RTVSPost2010PropOp44
 70
     1
102
RTVSPost2010Prop45
280
     0
102
RTVSPost2010PropOp45
 70
     1
102
RTVSPost2010Prop46
 90
       50
102
RTVSPost2010PropOp46
 70
     1
102
RTVSPost2010Prop47
 90
       50
102
RTVSPost2010PropOp47
 70
     1
102
RTVSPost2010Prop48
 90
       50
102
RTVSPost2010PropOp48
 70
     1
102
RTVSPost2010Prop49
280
     0
102
RTVSPost2010PropOp49
 70
     1
102
RTVSPost2010Prop50
 90
       50
102
RTVSPost2010PropOp50
 70
     1
102
RTVSPost2010Prop51ColorIndex
 90
      256
102
RTVSPost2010Prop51ColorRGB
 90
-16777216
102
RTVSPost2010PropOp51
 70
     0
102
RTVSPost2010Prop52
140
1.0
102
RTVSPost2010PropOp52
 70
     0
102
RTVSPost2010Prop53
 90
        2
102
RTVSPost2010PropOp53
 70
     1
102
RTVSPost2010Prop54
  1
strokes_ogs.tif
102
RTVSPost2010PropOp54
 70
     1
102
RTVSPost2010Prop55
280
     0
102
RTVSPost2010PropOp55
 70
     1
102
RTVSPost2010Prop56
140
1.0
102
RTVSPost2010PropOp56
 70
     1
102
RTVSPost2010Prop57
140
1.0
102
RTVSPost2010PropOp57
 70
     1
102
RTVSPropertyOp0
 70
     1
102
RTVSPropertyOp1
 70
     1
102
RTVSPropertyOp2
 70
     1
102
RTVSPropertyOp3
 70
     1
102
RTVSPropertyOp4
 70
     1
102
RTVSPropertyOp5
 70
     1
102
RTVSPropertyOp6
 70
     1
102
RTVSPropertyOp7
 70
     1
102
RTVSPropertyOp8
 70
     1
102
RTVSPropertyOp9
 70
     1
102
RTVSPropertyOp10
 70
     1
102
RTVSPropertyOp11
 70
     1
102
RTVSPropertyOp12
 70
     1
102
RTVSPropertyOp13
 70
     1
102
RTVSPropertyOp14
 70
     1
102
RTVSPropertyOp15
 70
     1
102
RTVSPropertyOp16
 70
     1
102
RTVSPropertyOp17
 70
     1
102
RTVSPropertyOp18
 70
     1
102
RTVSPropertyOp19
 70
     1
102
RTVSPropertyOp20
 70
     1
102
RTVSPropertyOp21
 70
     1
102
RTVSPropertyOp22
 70
     1
102
RTVSPropertyOp23
 70
     1
102
RTVSPropertyOp24
 70
     1
102
RTVSPropertyOp25
 70
     1
102
RTVSPropertyOp26
 70
     1
102
RTVSPropertyOp27
 70
     1
102
RTVSPropertyOp28
 70
     1
102
RTVSPropertyOp29
 70
     1
102
RTVSPropertyOp30
 70
     1
102
RTVSPropertyOp31
 70
     1
102
RTVSPropertyOp32
 70
     1
102
RTVSPropertyOp33
 70
     1
102
RTVSPropertyOp34
 70
     1
102
RTVSPropertyOp35
 70
     1
102
RTVSPropertyOp36
 70
     1
102
RTVSPropertyOp37
 70
     1
102
RTVSPropertyOp38
 70
     1
102
RTVSPropertyOp39
 70
     1
102
RTVSPropertyOp40
 70
     1
102
RTVSPropertyOp41
 70
     1
102
RTVSPropertyOp42
 70
     1
102
RTVSPropertyOp43
 70
     1
102
RTVSPropertyOp44
 70
     1
102
RTVSPropertyOp45
 70
     1
102
RTVSPropertyOp46
 70
     1
102
RTVSPropertyOp47
 70
     1
102
RTVSPropertyOp48
 70
     1
102
RTVSPropertyOp49
 70
     1
102
RTVSPropertyOp50
 70
     1
102
RTVSPropertyOp51
 70
     0
102
RTVSPropertyOp52
 70
     0
102
RTVSPropertyOp53
 70
     1
102
RTVSPropertyOp54
 70
     1
102
RTVSPropertyOp55
 70
     1
102
RTVSPropertyOp56
 70
     1
102
RTVSPropertyOp57
 70
     1
102
RTVSPropertyOp58
 70
     1
102
RTVSPropertyOp59
 70
     1
102
RTVSPropertyOp60
 70
     1
102
RTVSPropertyOp61
 70
     1
102
RTVSPropertyOp62
 70
     1
  0
XRECORD
  5
ABCB
102
{ACAD_REACTORS
330
ABCA
102
}
330
ABCA
100
AcDbXrecord
280
     1
102
RTVSPost2010Prop28
280
     0
102
RTVSPost2010PropOp28
 70
     1
102
RTVSPost2010Prop29
280
     1
102
RTVSPost2010PropOp29
 70
     1
102
RTVSPost2010Prop30
280
     1
102
RTVSPost2010PropOp30
 70
     1
102
RTVSPost2010Prop31
280
     0
102
RTVSPost2010PropOp31
 70
     1
102
RTVSPost2010Prop32
280
     0
102
RTVSPost2010PropOp32
 70
     1
102
RTVSPost2010Prop33
280
     0
102
RTVSPost2010PropOp33
 70
     1
102
RTVSPost2010Prop34
280
     0
102
RTVSPost2010PropOp34
 70
     1
102
RTVSPost2010Prop35
280
     0
102
RTVSPost2010PropOp35
 70
     1
102
RTVSPost2010Prop36
280
     0
102
RTVSPost2010PropOp36
 70
     1
102
RTVSPost2010Prop37
 90
       50
102
RTVSPost2010PropOp37
 70
     1
102
RTVSPost2010Prop38
140
0.0
102
RTVSPost2010PropOp38
 70
     1
102
RTVSPost2010Prop39
140
1.0
102
RTVSPost2010PropOp39
 70
     1
102
RTVSPost2010Prop40
 90
        0
102
RTVSPost2010PropOp40
 70
     1
102
RTVSPost2010Prop41ColorIndex
 90
       18
102
RTVSPost2010Prop41ColorRGB
 90
        0
102
RTVSPost2010PropOp41
 70
     1
102
RTVSPost2010Prop42
 90
       50
102
RTVSPost2010PropOp42
 70
     1
102
RTVSPost2010Prop43
 90
        3
102
RTVSPost2010PropOp43
 70
     1
102
RTVSPost2010Prop44ColorIndex
 90
        5
102
RTVSPost2010Prop44ColorRGB
 90
      255
102
RTVSPost2010PropOp44
 70
     1
102
RTVSPost2010Prop45
280
     0
102
RTVSPost2010PropOp45
 70
     1
102
RTVSPost2010Prop46
 90
       50
102
RTVSPost2010PropOp46
 70
     1
102
RTVSPost2010Prop47
 90
       50
102
RTVSPost2010PropOp47
 70
     1
102
RTVSPost2010Prop48
 90
       50
102
RTVSPost2010PropOp48
 70
     1
102
RTVSPost2010Prop49
280
     0
102
RTVSPost2010PropOp49
 70
     1
102
RTVSPost2010Prop50
 90
       50
102
RTVSPost2010PropOp50
 70
     1
102
RTVSPost2010Prop51ColorIndex
 90
      256
102
RTVSPost2010Prop51ColorRGB
 90
-16777216
102
RTVSPost2010PropOp51
 70
     0
102
RTVSPost2010Prop52
140
1.0
102
RTVSPost2010PropOp52
 70
     0
102
RTVSPost2010Prop53
 90
        2
102
RTVSPost2010PropOp53
 70
     1
102
RTVSPost2010Prop54
  1
strokes_ogs.tif
102
RTVSPost2010PropOp54
 70
     1
102
RTVSPost2010Prop55
280
     0
102
RTVSPost2010PropOp55
 70
     1
102
RTVSPost2010Prop56
140
1.0
102
RTVSPost2010PropOp56
 70
     1
102
RTVSPost2010Prop57
140
1.0
102
RTVSPost2010PropOp57
 70
     1
102
RTVSPropertyOp0
 70
     0
102
RTVSPropertyOp1
 70
     0
102
RTVSPropertyOp2
 70
     0
102
RTVSPropertyOp3
 70
     0
102
RTVSPropertyOp4
 70
     0
102
RTVSPropertyOp5
 70
     0
102
RTVSPropertyOp6
 70
     0
102
RTVSPropertyOp7
 70
     0
102
RTVSPropertyOp8
 70
     0
102
RTVSPropertyOp9
 70
     0
102
RTVSPropertyOp10
 70
     0
102
RTVSPropertyOp11
 70
     0
102
RTVSPropertyOp12
 70
     0
102
RTVSPropertyOp13
 70
     0
102
RTVSPropertyOp14
 70
     2
102
RTVSPropertyOp15
 70
     0
102
RTVSPropertyOp16
 70
     0
102
RTVSPropertyOp17
 70
     0
102
RTVSPropertyOp18
 70
     0
102
RTVSPropertyOp19
 70
     0
102
RTVSPropertyOp20
 70
     0
102
RTVSPropertyOp21
 70
     0
102
RTVSPropertyOp22
 70
     0
102
RTVSPropertyOp23
 70
     0
102
RTVSPropertyOp24
 70
     0
102
RTVSPropertyOp25
 70
     0
102
RTVSPropertyOp26
 70
     0
102
RTVSPropertyOp27
 70
     0
102
RTVSPropertyOp28
 70
     1
102
RTVSPropertyOp29
 70
     1
102
RTVSPropertyOp30
 70
     1
102
RTVSPropertyOp31
 70
     1
102
RTVSPropertyOp32
 70
     1
102
RTVSPropertyOp33
 70
     1
102
RTVSPropertyOp34
 70
     1
102
RTVSPropertyOp35
 70
     1
102
RTVSPropertyOp36
 70
     1
102
RTVSPropertyOp37
 70
     1
102
RTVSPropertyOp38
 70
     1
102
RTVSPropertyOp39
 70
     1
102
RTVSPropertyOp40
 70
     1
102
RTVSPropertyOp41
 70
     1
102
RTVSPropertyOp42
 70
     1
102
RTVSPropertyOp43
 70
     1
102
RTVSPropertyOp44
 70
     1
102
RTVSPropertyOp45
 70
     1
102
RTVSPropertyOp46
 70
     1
102
RTVSPropertyOp47
 70
     1
102
RTVSPropertyOp48
 70
     1
102
RTVSPropertyOp49
 70
     1
102
RTVSPropertyOp50
 70
     1
102
RTVSPropertyOp51
 70
     0
102
RTVSPropertyOp52
 70
     0
102
RTVSPropertyOp53
 70
     1
102
RTVSPropertyOp54
 70
     1
102
RTVSPropertyOp55
 70
     1
102
RTVSPropertyOp56
 70
     1
102
RTVSPropertyOp57
 70
     1
102
RTVSPropertyOp58
 70
     1
102
RTVSPropertyOp59
 70
     1
102
RTVSPropertyOp60
 70
     1
102
RTVSPropertyOp61
 70
     1
102
RTVSPropertyOp62
 70
     1
  0
XRECORD
  5
ABC3
102
{ACAD_REACTORS
330
ABC2
102
}
330
ABC2
100
AcDbXrecord
280
     1
102
RTVSPost2010Prop28
280
     0
102
RTVSPost2010PropOp28
 70
     1
102
RTVSPost2010Prop29
280
     1
102
RTVSPost2010PropOp29
 70
     1
102
RTVSPost2010Prop30
280
     1
102
RTVSPost2010PropOp30
 70
     1
102
RTVSPost2010Prop31
280
     0
102
RTVSPost2010PropOp31
 70
     1
102
RTVSPost2010Prop32
280
     0
102
RTVSPost2010PropOp32
 70
     1
102
RTVSPost2010Prop33
280
     0
102
RTVSPost2010PropOp33
 70
     1
102
RTVSPost2010Prop34
280
     0
102
RTVSPost2010PropOp34
 70
     1
102
RTVSPost2010Prop35
280
     0
102
RTVSPost2010PropOp35
 70
     1
102
RTVSPost2010Prop36
280
     0
102
RTVSPost2010PropOp36
 70
     1
102
RTVSPost2010Prop37
 90
       50
102
RTVSPost2010PropOp37
 70
     1
102
RTVSPost2010Prop38
140
0.0
102
RTVSPost2010PropOp38
 70
     1
102
RTVSPost2010Prop39
140
1.0
102
RTVSPost2010PropOp39
 70
     1
102
RTVSPost2010Prop40
 90
        0
102
RTVSPost2010PropOp40
 70
     1
102
RTVSPost2010Prop41ColorIndex
 90
       18
102
RTVSPost2010Prop41ColorRGB
 90
        0
102
RTVSPost2010PropOp41
 70
     1
102
RTVSPost2010Prop42
 90
       50
102
RTVSPost2010PropOp42
 70
     1
102
RTVSPost2010Prop43
 90
        3
102
RTVSPost2010PropOp43
 70
     1
102
RTVSPost2010Prop44ColorIndex
 90
        5
102
RTVSPost2010Prop44ColorRGB
 90
      255
102
RTVSPost2010PropOp44
 70
     1
102
RTVSPost2010Prop45
280
     0
102
RTVSPost2010PropOp45
 70
     1
102
RTVSPost2010Prop46
 90
       50
102
RTVSPost2010PropOp46
 70
     1
102
RTVSPost2010Prop47
 90
       50
102
RTVSPost2010PropOp47
 70
     1
102
RTVSPost2010Prop48
 90
       50
102
RTVSPost2010PropOp48
 70
     1
102
RTVSPost2010Prop49
280
     0
102
RTVSPost2010PropOp49
 70
     1
102
RTVSPost2010Prop50
 90
       50
102
RTVSPost2010PropOp50
 70
     1
102
RTVSPost2010Prop51ColorIndex
 90
      256
102
RTVSPost2010Prop51ColorRGB
 90
-16777216
102
RTVSPost2010PropOp51
 70
     0
102
RTVSPost2010Prop52
140
1.0
102
RTVSPost2010PropOp52
 70
     0
102
RTVSPost2010Prop53
 90
        2
102
RTVSPost2010PropOp53
 70
     1
102
RTVSPost2010Prop54
  1
strokes_ogs.tif
102
RTVSPost2010PropOp54
 70
     1
102
RTVSPost2010Prop55
280
     0
102
RTVSPost2010PropOp55
 70
     1
102
RTVSPost2010Prop56
140
1.0
102
RTVSPost2010PropOp56
 70
     1
102
RTVSPost2010Prop57
140
1.0
102
RTVSPost2010PropOp57
 70
     1
102
RTVSPropertyOp0
 70
     1
102
RTVSPropertyOp1
 70
     1
102
RTVSPropertyOp2
 70
     1
102
RTVSPropertyOp3
 70
     1
102
RTVSPropertyOp4
 70
     1
102
RTVSPropertyOp5
 70
     1
102
RTVSPropertyOp6
 70
     1
102
RTVSPropertyOp7
 70
     1
102
RTVSPropertyOp8
 70
     1
102
RTVSPropertyOp9
 70
     1
102
RTVSPropertyOp10
 70
     1
102
RTVSPropertyOp11
 70
     1
102
RTVSPropertyOp12
 70
     1
102
RTVSPropertyOp13
 70
     1
102
RTVSPropertyOp14
 70
     1
102
RTVSPropertyOp15
 70
     1
102
RTVSPropertyOp16
 70
     1
102
RTVSPropertyOp17
 70
     1
102
RTVSPropertyOp18
 70
     1
102
RTVSPropertyOp19
 70
     1
102
RTVSPropertyOp20
 70
     1
102
RTVSPropertyOp21
 70
     1
102
RTVSPropertyOp22
 70
     1
102
RTVSPropertyOp23
 70
     1
102
RTVSPropertyOp24
 70
     1
102
RTVSPropertyOp25
 70
     1
102
RTVSPropertyOp26
 70
     1
102
RTVSPropertyOp27
 70
     1
102
RTVSPropertyOp28
 70
     1
102
RTVSPropertyOp29
 70
     1
102
RTVSPropertyOp30
 70
     1
102
RTVSPropertyOp31
 70
     1
102
RTVSPropertyOp32
 70
     1
102
RTVSPropertyOp33
 70
     1
102
RTVSPropertyOp34
 70
     1
102
RTVSPropertyOp35
 70
     1
102
RTVSPropertyOp36
 70
     1
102
RTVSPropertyOp37
 70
     1
102
RTVSPropertyOp38
 70
     1
102
RTVSPropertyOp39
 70
     1
102
RTVSPropertyOp40
 70
     1
102
RTVSPropertyOp41
 70
     1
102
RTVSPropertyOp42
 70
     1
102
RTVSPropertyOp43
 70
     1
102
RTVSPropertyOp44
 70
     1
102
RTVSPropertyOp45
 70
     1
102
RTVSPropertyOp46
 70
     1
102
RTVSPropertyOp47
 70
     1
102
RTVSPropertyOp48
 70
     1
102
RTVSPropertyOp49
 70
     1
102
RTVSPropertyOp50
 70
     1
102
RTVSPropertyOp51
 70
     0
102
RTVSPropertyOp52
 70
     0
102
RTVSPropertyOp53
 70
     1
102
RTVSPropertyOp54
 70
     1
102
RTVSPropertyOp55
 70
     1
102
RTVSPropertyOp56
 70
     1
102
RTVSPropertyOp57
 70
     1
102
RTVSPropertyOp58
 70
     1
102
RTVSPropertyOp59
 70
     1
102
RTVSPropertyOp60
 70
     1
102
RTVSPropertyOp61
 70
     1
102
RTVSPropertyOp62
 70
     1
  0
XRECORD
  5
ABCD
102
{ACAD_REACTORS
330
ABCC
102
}
330
ABCC
100
AcDbXrecord
280
     1
102
RTVSPost2010Prop28
280
     0
102
RTVSPost2010PropOp28
 70
     1
102
RTVSPost2010Prop29
280
     1
102
RTVSPost2010PropOp29
 70
     1
102
RTVSPost2010Prop30
280
     1
102
RTVSPost2010PropOp30
 70
     1
102
RTVSPost2010Prop31
280
     0
102
RTVSPost2010PropOp31
 70
     1
102
RTVSPost2010Prop32
280
     0
102
RTVSPost2010PropOp32
 70
     1
102
RTVSPost2010Prop33
280
     0
102
RTVSPost2010PropOp33
 70
     1
102
RTVSPost2010Prop34
280
     0
102
RTVSPost2010PropOp34
 70
     1
102
RTVSPost2010Prop35
280
     0
102
RTVSPost2010PropOp35
 70
     1
102
RTVSPost2010Prop36
280
     0
102
RTVSPost2010PropOp36
 70
     1
102
RTVSPost2010Prop37
 90
       50
102
RTVSPost2010PropOp37
 70
     1
102
RTVSPost2010Prop38
140
0.0
102
RTVSPost2010PropOp38
 70
     1
102
RTVSPost2010Prop39
140
1.0
102
RTVSPost2010PropOp39
 70
     1
102
RTVSPost2010Prop40
 90
        0
102
RTVSPost2010PropOp40
 70
     1
102
RTVSPost2010Prop41ColorIndex
 90
       18
102
RTVSPost2010Prop41ColorRGB
 90
        0
102
RTVSPost2010PropOp41
 70
     1
102
RTVSPost2010Prop42
 90
       50
102
RTVSPost2010PropOp42
 70
     1
102
RTVSPost2010Prop43
 90
        3
102
RTVSPost2010PropOp43
 70
     1
102
RTVSPost2010Prop44ColorIndex
 90
        5
102
RTVSPost2010Prop44ColorRGB
 90
      255
102
RTVSPost2010PropOp44
 70
     1
102
RTVSPost2010Prop45
280
     0
102
RTVSPost2010PropOp45
 70
     1
102
RTVSPost2010Prop46
 90
       50
102
RTVSPost2010PropOp46
 70
     1
102
RTVSPost2010Prop47
 90
       50
102
RTVSPost2010PropOp47
 70
     1
102
RTVSPost2010Prop48
 90
       50
102
RTVSPost2010PropOp48
 70
     1
102
RTVSPost2010Prop49
280
     0
102
RTVSPost2010PropOp49
 70
     1
102
RTVSPost2010Prop50
 90
       50
102
RTVSPost2010PropOp50
 70
     1
102
RTVSPost2010Prop51ColorIndex
 90
      256
102
RTVSPost2010Prop51ColorRGB
 90
-16777216
102
RTVSPost2010PropOp51
 70
     0
102
RTVSPost2010Prop52
140
1.0
102
RTVSPost2010PropOp52
 70
     0
102
RTVSPost2010Prop53
 90
        2
102
RTVSPost2010PropOp53
 70
     1
102
RTVSPost2010Prop54
  1
strokes_ogs.tif
102
RTVSPost2010PropOp54
 70
     1
102
RTVSPost2010Prop55
280
     0
102
RTVSPost2010PropOp55
 70
     1
102
RTVSPost2010Prop56
140
1.0
102
RTVSPost2010PropOp56
 70
     1
102
RTVSPost2010Prop57
140
1.0
102
RTVSPost2010PropOp57
 70
     1
102
RTVSPropertyOp0
 70
     0
102
RTVSPropertyOp1
 70
     0
102
RTVSPropertyOp2
 70
     0
102
RTVSPropertyOp3
 70
     0
102
RTVSPropertyOp4
 70
     0
102
RTVSPropertyOp5
 70
     0
102
RTVSPropertyOp6
 70
     0
102
RTVSPropertyOp7
 70
     0
102
RTVSPropertyOp8
 70
     0
102
RTVSPropertyOp9
 70
     0
102
RTVSPropertyOp10
 70
     0
102
RTVSPropertyOp11
 70
     0
102
RTVSPropertyOp12
 70
     0
102
RTVSPropertyOp13
 70
     0
102
RTVSPropertyOp14
 70
     2
102
RTVSPropertyOp15
 70
     0
102
RTVSPropertyOp16
 70
     0
102
RTVSPropertyOp17
 70
     0
102
RTVSPropertyOp18
 70
     0
102
RTVSPropertyOp19
 70
     0
102
RTVSPropertyOp20
 70
     0
102
RTVSPropertyOp21
 70
     0
102
RTVSPropertyOp22
 70
     0
102
RTVSPropertyOp23
 70
     0
102
RTVSPropertyOp24
 70
     0
102
RTVSPropertyOp25
 70
     0
102
RTVSPropertyOp26
 70
     0
102
RTVSPropertyOp27
 70
     0
102
RTVSPropertyOp28
 70
     1
102
RTVSPropertyOp29
 70
     1
102
RTVSPropertyOp30
 70
     1
102
RTVSPropertyOp31
 70
     1
102
RTVSPropertyOp32
 70
     1
102
RTVSPropertyOp33
 70
     1
102
RTVSPropertyOp34
 70
     1
102
RTVSPropertyOp35
 70
     1
102
RTVSPropertyOp36
 70
     1
102
RTVSPropertyOp37
 70
     1
102
RTVSPropertyOp38
 70
     1
102
RTVSPropertyOp39
 70
     1
102
RTVSPropertyOp40
 70
     1
102
RTVSPropertyOp41
 70
     1
102
RTVSPropertyOp42
 70
     1
102
RTVSPropertyOp43
 70
     1
102
RTVSPropertyOp44
 70
     1
102
RTVSPropertyOp45
 70
     1
102
RTVSPropertyOp46
 70
     1
102
RTVSPropertyOp47
 70
     1
102
RTVSPropertyOp48
 70
     1
102
RTVSPropertyOp49
 70
     1
102
RTVSPropertyOp50
 70
     1
102
RTVSPropertyOp51
 70
     0
102
RTVSPropertyOp52
 70
     0
102
RTVSPropertyOp53
 70
     1
102
RTVSPropertyOp54
 70
     1
102
RTVSPropertyOp55
 70
     1
102
RTVSPropertyOp56
 70
     1
102
RTVSPropertyOp57
 70
     1
102
RTVSPropertyOp58
 70
     1
102
RTVSPropertyOp59
 70
     1
102
RTVSPropertyOp60
 70
     1
102
RTVSPropertyOp61
 70
     1
102
RTVSPropertyOp62
 70
     1
  0
XRECORD
  5
ABBB
102
{ACAD_REACTORS
330
ABBA
102
}
330
ABBA
100
AcDbXrecord
280
     1
102
RTVSPost2010Prop28
280
     0
102
RTVSPost2010PropOp28
 70
     1
102
RTVSPost2010Prop29
280
     1
102
RTVSPost2010PropOp29
 70
     1
102
RTVSPost2010Prop30
280
     1
102
RTVSPost2010PropOp30
 70
     1
102
RTVSPost2010Prop31
280
     0
102
RTVSPost2010PropOp31
 70
     1
102
RTVSPost2010Prop32
280
     0
102
RTVSPost2010PropOp32
 70
     1
102
RTVSPost2010Prop33
280
     0
102
RTVSPost2010PropOp33
 70
     1
102
RTVSPost2010Prop34
280
     0
102
RTVSPost2010PropOp34
 70
     1
102
RTVSPost2010Prop35
280
     0
102
RTVSPost2010PropOp35
 70
     1
102
RTVSPost2010Prop36
280
     0
102
RTVSPost2010PropOp36
 70
     1
102
RTVSPost2010Prop37
 90
       50
102
RTVSPost2010PropOp37
 70
     1
102
RTVSPost2010Prop38
140
0.0
102
RTVSPost2010PropOp38
 70
     1
102
RTVSPost2010Prop39
140
1.0
102
RTVSPost2010PropOp39
 70
     1
102
RTVSPost2010Prop40
 90
        0
102
RTVSPost2010PropOp40
 70
     1
102
RTVSPost2010Prop41ColorIndex
 90
       18
102
RTVSPost2010Prop41ColorRGB
 90
        0
102
RTVSPost2010PropOp41
 70
     1
102
RTVSPost2010Prop42
 90
       50
102
RTVSPost2010PropOp42
 70
     1
102
RTVSPost2010Prop43
 90
        3
102
RTVSPost2010PropOp43
 70
     1
102
RTVSPost2010Prop44ColorIndex
 90
        5
102
RTVSPost2010Prop44ColorRGB
 90
      255
102
RTVSPost2010PropOp44
 70
     1
102
RTVSPost2010Prop45
280
     0
102
RTVSPost2010PropOp45
 70
     1
102
RTVSPost2010Prop46
 90
       50
102
RTVSPost2010PropOp46
 70
     1
102
RTVSPost2010Prop47
 90
       50
102
RTVSPost2010PropOp47
 70
     1
102
RTVSPost2010Prop48
 90
       50
102
RTVSPost2010PropOp48
 70
     1
102
RTVSPost2010Prop49
280
     0
102
RTVSPost2010PropOp49
 70
     1
102
RTVSPost2010Prop50
 90
       50
102
RTVSPost2010PropOp50
 70
     1
102
RTVSPost2010Prop51ColorIndex
 90
      256
102
RTVSPost2010Prop51ColorRGB
 90
-16777216
102
RTVSPost2010PropOp51
 70
     0
102
RTVSPost2010Prop52
140
1.0
102
RTVSPost2010PropOp52
 70
     0
102
RTVSPost2010Prop53
 90
        2
102
RTVSPost2010PropOp53
 70
     1
102
RTVSPost2010Prop54
  1
strokes_ogs.tif
102
RTVSPost2010PropOp54
 70
     1
102
RTVSPost2010Prop55
280
     0
102
RTVSPost2010PropOp55
 70
     1
102
RTVSPost2010Prop56
140
1.0
102
RTVSPost2010PropOp56
 70
     1
102
RTVSPost2010Prop57
140
1.0
102
RTVSPost2010PropOp57
 70
     1
102
RTVSPropertyOp0
 70
     1
102
RTVSPropertyOp1
 70
     1
102
RTVSPropertyOp2
 70
     1
102
RTVSPropertyOp3
 70
     1
102
RTVSPropertyOp4
 70
     1
102
RTVSPropertyOp5
 70
     1
102
RTVSPropertyOp6
 70
     1
102
RTVSPropertyOp7
 70
     1
102
RTVSPropertyOp8
 70
     1
102
RTVSPropertyOp9
 70
     1
102
RTVSPropertyOp10
 70
     1
102
RTVSPropertyOp11
 70
     1
102
RTVSPropertyOp12
 70
     1
102
RTVSPropertyOp13
 70
     1
102
RTVSPropertyOp14
 70
     1
102
RTVSPropertyOp15
 70
     1
102
RTVSPropertyOp16
 70
     1
102
RTVSPropertyOp17
 70
     1
102
RTVSPropertyOp18
 70
     1
102
RTVSPropertyOp19
 70
     1
102
RTVSPropertyOp20
 70
     1
102
RTVSPropertyOp21
 70
     1
102
RTVSPropertyOp22
 70
     1
102
RTVSPropertyOp23
 70
     1
102
RTVSPropertyOp24
 70
     1
102
RTVSPropertyOp25
 70
     1
102
RTVSPropertyOp26
 70
     1
102
RTVSPropertyOp27
 70
     1
102
RTVSPropertyOp28
 70
     1
102
RTVSPropertyOp29
 70
     1
102
RTVSPropertyOp30
 70
     1
102
RTVSPropertyOp31
 70
     1
102
RTVSPropertyOp32
 70
     1
102
RTVSPropertyOp33
 70
     1
102
RTVSPropertyOp34
 70
     1
102
RTVSPropertyOp35
 70
     1
102
RTVSPropertyOp36
 70
     1
102
RTVSPropertyOp37
 70
     1
102
RTVSPropertyOp38
 70
     1
102
RTVSPropertyOp39
 70
     1
102
RTVSPropertyOp40
 70
     1
102
RTVSPropertyOp41
 70
     1
102
RTVSPropertyOp42
 70
     1
102
RTVSPropertyOp43
 70
     1
102
RTVSPropertyOp44
 70
     1
102
RTVSPropertyOp45
 70
     1
102
RTVSPropertyOp46
 70
     1
102
RTVSPropertyOp47
 70
     1
102
RTVSPropertyOp48
 70
     1
102
RTVSPropertyOp49
 70
     1
102
RTVSPropertyOp50
 70
     1
102
RTVSPropertyOp51
 70
     0
102
RTVSPropertyOp52
 70
     0
102
RTVSPropertyOp53
 70
     1
102
RTVSPropertyOp54
 70
     1
102
RTVSPropertyOp55
 70
     1
102
RTVSPropertyOp56
 70
     1
102
RTVSPropertyOp57
 70
     1
102
RTVSPropertyOp58
 70
     1
102
RTVSPropertyOp59
 70
     1
102
RTVSPropertyOp60
 70
     1
102
RTVSPropertyOp61
 70
     1
102
RTVSPropertyOp62
 70
     1
  0
XRECORD
  5
ABD9
102
{ACAD_REACTORS
330
ABD8
102
}
330
ABD8
100
AcDbXrecord
280
     1
102
RTVSPost2010Prop28
280
     0
102
RTVSPost2010PropOp28
 70
     1
102
RTVSPost2010Prop29
280
     1
102
RTVSPost2010PropOp29
 70
     1
102
RTVSPost2010Prop30
280
     1
102
RTVSPost2010PropOp30
 70
     1
102
RTVSPost2010Prop31
280
     0
102
RTVSPost2010PropOp31
 70
     1
102
RTVSPost2010Prop32
280
     0
102
RTVSPost2010PropOp32
 70
     1
102
RTVSPost2010Prop33
280
     0
102
RTVSPost2010PropOp33
 70
     1
102
RTVSPost2010Prop34
280
     0
102
RTVSPost2010PropOp34
 70
     1
102
RTVSPost2010Prop35
280
     0
102
RTVSPost2010PropOp35
 70
     1
102
RTVSPost2010Prop36
280
     0
102
RTVSPost2010PropOp36
 70
     1
102
RTVSPost2010Prop37
 90
       50
102
RTVSPost2010PropOp37
 70
     1
102
RTVSPost2010Prop38
140
0.0
102
RTVSPost2010PropOp38
 70
     1
102
RTVSPost2010Prop39
140
1.0
102
RTVSPost2010PropOp39
 70
     1
102
RTVSPost2010Prop40
 90
        0
102
RTVSPost2010PropOp40
 70
     1
102
RTVSPost2010Prop41ColorIndex
 90
       18
102
RTVSPost2010Prop41ColorRGB
 90
        0
102
RTVSPost2010PropOp41
 70
     1
102
RTVSPost2010Prop42
 90
       50
102
RTVSPost2010PropOp42
 70
     1
102
RTVSPost2010Prop43
 90
        3
102
RTVSPost2010PropOp43
 70
     1
102
RTVSPost2010Prop44ColorIndex
 90
        5
102
RTVSPost2010Prop44ColorRGB
 90
      255
102
RTVSPost2010PropOp44
 70
     1
102
RTVSPost2010Prop45
280
     0
102
RTVSPost2010PropOp45
 70
     1
102
RTVSPost2010Prop46
 90
       50
102
RTVSPost2010PropOp46
 70
     1
102
RTVSPost2010Prop47
 90
       50
102
RTVSPost2010PropOp47
 70
     1
102
RTVSPost2010Prop48
 90
       50
102
RTVSPost2010PropOp48
 70
     1
102
RTVSPost2010Prop49
280
     0
102
RTVSPost2010PropOp49
 70
     1
102
RTVSPost2010Prop50
 90
       50
102
RTVSPost2010PropOp50
 70
     1
102
RTVSPost2010Prop51ColorIndex
 90
      256
102
RTVSPost2010Prop51ColorRGB
 90
-16777216
102
RTVSPost2010PropOp51
 70
     0
102
RTVSPost2010Prop52
140
1.0
102
RTVSPost2010PropOp52
 70
     0
102
RTVSPost2010Prop53
 90
        2
102
RTVSPost2010PropOp53
 70
     1
102
RTVSPost2010Prop54
  1
strokes_ogs.tif
102
RTVSPost2010PropOp54
 70
     1
102
RTVSPost2010Prop55
280
     0
102
RTVSPost2010PropOp55
 70
     1
102
RTVSPost2010Prop56
140
1.0
102
RTVSPost2010PropOp56
 70
     1
102
RTVSPost2010Prop57
140
1.0
102
RTVSPost2010PropOp57
 70
     1
102
RTVSPropertyOp0
 70
     1
102
RTVSPropertyOp1
 70
     1
102
RTVSPropertyOp2
 70
     1
102
RTVSPropertyOp3
 70
     1
102
RTVSPropertyOp4
 70
     1
102
RTVSPropertyOp5
 70
     1
102
RTVSPropertyOp6
 70
     1
102
RTVSPropertyOp7
 70
     1
102
RTVSPropertyOp8
 70
     1
102
RTVSPropertyOp9
 70
     1
102
RTVSPropertyOp10
 70
     1
102
RTVSPropertyOp11
 70
     1
102
RTVSPropertyOp12
 70
     1
102
RTVSPropertyOp13
 70
     1
102
RTVSPropertyOp14
 70
     1
102
RTVSPropertyOp15
 70
     1
102
RTVSPropertyOp16
 70
     1
102
RTVSPropertyOp17
 70
     1
102
RTVSPropertyOp18
 70
     1
102
RTVSPropertyOp19
 70
     1
102
RTVSPropertyOp20
 70
     1
102
RTVSPropertyOp21
 70
     1
102
RTVSPropertyOp22
 70
     1
102
RTVSPropertyOp23
 70
     1
102
RTVSPropertyOp24
 70
     1
102
RTVSPropertyOp25
 70
     1
102
RTVSPropertyOp26
 70
     1
102
RTVSPropertyOp27
 70
     1
102
RTVSPropertyOp28
 70
     1
102
RTVSPropertyOp29
 70
     1
102
RTVSPropertyOp30
 70
     1
102
RTVSPropertyOp31
 70
     1
102
RTVSPropertyOp32
 70
     1
102
RTVSPropertyOp33
 70
     1
102
RTVSPropertyOp34
 70
     1
102
RTVSPropertyOp35
 70
     1
102
RTVSPropertyOp36
 70
     1
102
RTVSPropertyOp37
 70
     1
102
RTVSPropertyOp38
 70
     1
102
RTVSPropertyOp39
 70
     1
102
RTVSPropertyOp40
 70
     1
102
RTVSPropertyOp41
 70
     1
102
RTVSPropertyOp42
 70
     1
102
RTVSPropertyOp43
 70
     1
102
RTVSPropertyOp44
 70
     1
102
RTVSPropertyOp45
 70
     1
102
RTVSPropertyOp46
 70
     1
102
RTVSPropertyOp47
 70
     1
102
RTVSPropertyOp48
 70
     1
102
RTVSPropertyOp49
 70
     1
102
RTVSPropertyOp50
 70
     1
102
RTVSPropertyOp51
 70
     0
102
RTVSPropertyOp52
 70
     0
102
RTVSPropertyOp53
 70
     1
102
RTVSPropertyOp54
 70
     1
102
RTVSPropertyOp55
 70
     1
102
RTVSPropertyOp56
 70
     1
102
RTVSPropertyOp57
 70
     1
102
RTVSPropertyOp58
 70
     1
102
RTVSPropertyOp59
 70
     1
102
RTVSPropertyOp60
 70
     1
102
RTVSPropertyOp61
 70
     1
102
RTVSPropertyOp62
 70
     1
  0
XRECORD
  5
ABD7
102
{ACAD_REACTORS
330
ABD6
102
}
330
ABD6
100
AcDbXrecord
280
     1
102
RTVSPost2010Prop28
280
     0
102
RTVSPost2010PropOp28
 70
     1
102
RTVSPost2010Prop29
280
     1
102
RTVSPost2010PropOp29
 70
     1
102
RTVSPost2010Prop30
280
     1
102
RTVSPost2010PropOp30
 70
     1
102
RTVSPost2010Prop31
280
     0
102
RTVSPost2010PropOp31
 70
     1
102
RTVSPost2010Prop32
280
     0
102
RTVSPost2010PropOp32
 70
     1
102
RTVSPost2010Prop33
280
     0
102
RTVSPost2010PropOp33
 70
     1
102
RTVSPost2010Prop34
280
     0
102
RTVSPost2010PropOp34
 70
     1
102
RTVSPost2010Prop35
280
     0
102
RTVSPost2010PropOp35
 70
     1
102
RTVSPost2010Prop36
280
     0
102
RTVSPost2010PropOp36
 70
     1
102
RTVSPost2010Prop37
 90
       50
102
RTVSPost2010PropOp37
 70
     1
102
RTVSPost2010Prop38
140
0.0
102
RTVSPost2010PropOp38
 70
     1
102
RTVSPost2010Prop39
140
1.0
102
RTVSPost2010PropOp39
 70
     1
102
RTVSPost2010Prop40
 90
        0
102
RTVSPost2010PropOp40
 70
     1
102
RTVSPost2010Prop41ColorIndex
 90
       18
102
RTVSPost2010Prop41ColorRGB
 90
        0
102
RTVSPost2010PropOp41
 70
     1
102
RTVSPost2010Prop42
 90
       50
102
RTVSPost2010PropOp42
 70
     1
102
RTVSPost2010Prop43
 90
        3
102
RTVSPost2010PropOp43
 70
     1
102
RTVSPost2010Prop44ColorIndex
 90
        5
102
RTVSPost2010Prop44ColorRGB
 90
      255
102
RTVSPost2010PropOp44
 70
     1
102
RTVSPost2010Prop45
280
     0
102
RTVSPost2010PropOp45
 70
     1
102
RTVSPost2010Prop46
 90
       50
102
RTVSPost2010PropOp46
 70
     1
102
RTVSPost2010Prop47
 90
       50
102
RTVSPost2010PropOp47
 70
     1
102
RTVSPost2010Prop48
 90
       50
102
RTVSPost2010PropOp48
 70
     1
102
RTVSPost2010Prop49
280
     0
102
RTVSPost2010PropOp49
 70
     1
102
RTVSPost2010Prop50
 90
       50
102
RTVSPost2010PropOp50
 70
     1
102
RTVSPost2010Prop51ColorIndex
 90
      256
102
RTVSPost2010Prop51ColorRGB
 90
-16777216
102
RTVSPost2010PropOp51
 70
     0
102
RTVSPost2010Prop52
140
1.0
102
RTVSPost2010PropOp52
 70
     0
102
RTVSPost2010Prop53
 90
        2
102
RTVSPost2010PropOp53
 70
     1
102
RTVSPost2010Prop54
  1
strokes_ogs.tif
102
RTVSPost2010PropOp54
 70
     1
102
RTVSPost2010Prop55
280
     0
102
RTVSPost2010PropOp55
 70
     1
102
RTVSPost2010Prop56
140
1.0
102
RTVSPost2010PropOp56
 70
     1
102
RTVSPost2010Prop57
140
1.0
102
RTVSPost2010PropOp57
 70
     1
102
RTVSPropertyOp0
 70
     1
102
RTVSPropertyOp1
 70
     1
102
RTVSPropertyOp2
 70
     1
102
RTVSPropertyOp3
 70
     1
102
RTVSPropertyOp4
 70
     1
102
RTVSPropertyOp5
 70
     1
102
RTVSPropertyOp6
 70
     1
102
RTVSPropertyOp7
 70
     1
102
RTVSPropertyOp8
 70
     1
102
RTVSPropertyOp9
 70
     1
102
RTVSPropertyOp10
 70
     1
102
RTVSPropertyOp11
 70
     1
102
RTVSPropertyOp12
 70
     1
102
RTVSPropertyOp13
 70
     1
102
RTVSPropertyOp14
 70
     1
102
RTVSPropertyOp15
 70
     1
102
RTVSPropertyOp16
 70
     1
102
RTVSPropertyOp17
 70
     1
102
RTVSPropertyOp18
 70
     1
102
RTVSPropertyOp19
 70
     1
102
RTVSPropertyOp20
 70
     1
102
RTVSPropertyOp21
 70
     1
102
RTVSPropertyOp22
 70
     1
102
RTVSPropertyOp23
 70
     1
102
RTVSPropertyOp24
 70
     1
102
RTVSPropertyOp25
 70
     1
102
RTVSPropertyOp26
 70
     1
102
RTVSPropertyOp27
 70
     1
102
RTVSPropertyOp28
 70
     1
102
RTVSPropertyOp29
 70
     1
102
RTVSPropertyOp30
 70
     1
102
RTVSPropertyOp31
 70
     1
102
RTVSPropertyOp32
 70
     1
102
RTVSPropertyOp33
 70
     1
102
RTVSPropertyOp34
 70
     1
102
RTVSPropertyOp35
 70
     1
102
RTVSPropertyOp36
 70
     1
102
RTVSPropertyOp37
 70
     1
102
RTVSPropertyOp38
 70
     1
102
RTVSPropertyOp39
 70
     1
102
RTVSPropertyOp40
 70
     1
102
RTVSPropertyOp41
 70
     1
102
RTVSPropertyOp42
 70
     1
102
RTVSPropertyOp43
 70
     1
102
RTVSPropertyOp44
 70
     1
102
RTVSPropertyOp45
 70
     1
102
RTVSPropertyOp46
 70
     1
102
RTVSPropertyOp47
 70
     1
102
RTVSPropertyOp48
 70
     1
102
RTVSPropertyOp49
 70
     1
102
RTVSPropertyOp50
 70
     1
102
RTVSPropertyOp51
 70
     0
102
RTVSPropertyOp52
 70
     0
102
RTVSPropertyOp53
 70
     1
102
RTVSPropertyOp54
 70
     1
102
RTVSPropertyOp55
 70
     1
102
RTVSPropertyOp56
 70
     1
102
RTVSPropertyOp57
 70
     1
102
RTVSPropertyOp58
 70
     1
102
RTVSPropertyOp59
 70
     1
102
RTVSPropertyOp60
 70
     1
102
RTVSPropertyOp61
 70
     1
102
RTVSPropertyOp62
 70
     1
  0
XRECORD
  5
ABD1
102
{ACAD_REACTORS
330
ABD0
102
}
330
ABD0
100
AcDbXrecord
280
     1
102
RTVSPost2010Prop28
280
     0
102
RTVSPost2010PropOp28
 70
     1
102
RTVSPost2010Prop29
280
     1
102
RTVSPost2010PropOp29
 70
     1
102
RTVSPost2010Prop30
280
     1
102
RTVSPost2010PropOp30
 70
     1
102
RTVSPost2010Prop31
280
     0
102
RTVSPost2010PropOp31
 70
     1
102
RTVSPost2010Prop32
280
     0
102
RTVSPost2010PropOp32
 70
     1
102
RTVSPost2010Prop33
280
     0
102
RTVSPost2010PropOp33
 70
     1
102
RTVSPost2010Prop34
280
     0
102
RTVSPost2010PropOp34
 70
     1
102
RTVSPost2010Prop35
280
     0
102
RTVSPost2010PropOp35
 70
     1
102
RTVSPost2010Prop36
280
     0
102
RTVSPost2010PropOp36
 70
     1
102
RTVSPost2010Prop37
 90
       50
102
RTVSPost2010PropOp37
 70
     1
102
RTVSPost2010Prop38
140
0.0
102
RTVSPost2010PropOp38
 70
     1
102
RTVSPost2010Prop39
140
1.0
102
RTVSPost2010PropOp39
 70
     1
102
RTVSPost2010Prop40
 90
        0
102
RTVSPost2010PropOp40
 70
     1
102
RTVSPost2010Prop41ColorIndex
 90
       18
102
RTVSPost2010Prop41ColorRGB
 90
        0
102
RTVSPost2010PropOp41
 70
     1
102
RTVSPost2010Prop42
 90
       50
102
RTVSPost2010PropOp42
 70
     1
102
RTVSPost2010Prop43
 90
        3
102
RTVSPost2010PropOp43
 70
     1
102
RTVSPost2010Prop44ColorIndex
 90
        5
102
RTVSPost2010Prop44ColorRGB
 90
      255
102
RTVSPost2010PropOp44
 70
     1
102
RTVSPost2010Prop45
280
     0
102
RTVSPost2010PropOp45
 70
     1
102
RTVSPost2010Prop46
 90
       50
102
RTVSPost2010PropOp46
 70
     1
102
RTVSPost2010Prop47
 90
       50
102
RTVSPost2010PropOp47
 70
     1
102
RTVSPost2010Prop48
 90
       50
102
RTVSPost2010PropOp48
 70
     1
102
RTVSPost2010Prop49
280
     0
102
RTVSPost2010PropOp49
 70
     1
102
RTVSPost2010Prop50
 90
       50
102
RTVSPost2010PropOp50
 70
     1
102
RTVSPost2010Prop51ColorIndex
 90
      256
102
RTVSPost2010Prop51ColorRGB
 90
-16777216
102
RTVSPost2010PropOp51
 70
     0
102
RTVSPost2010Prop52
140
1.0
102
RTVSPost2010PropOp52
 70
     0
102
RTVSPost2010Prop53
 90
        2
102
RTVSPost2010PropOp53
 70
     1
102
RTVSPost2010Prop54
  1
strokes_ogs.tif
102
RTVSPost2010PropOp54
 70
     1
102
RTVSPost2010Prop55
280
     0
102
RTVSPost2010PropOp55
 70
     1
102
RTVSPost2010Prop56
140
1.0
102
RTVSPost2010PropOp56
 70
     1
102
RTVSPost2010Prop57
140
1.0
102
RTVSPost2010PropOp57
 70
     1
102
RTVSPropertyOp0
 70
     1
102
RTVSPropertyOp1
 70
     1
102
RTVSPropertyOp2
 70
     1
102
RTVSPropertyOp3
 70
     1
102
RTVSPropertyOp4
 70
     1
102
RTVSPropertyOp5
 70
     1
102
RTVSPropertyOp6
 70
     1
102
RTVSPropertyOp7
 70
     1
102
RTVSPropertyOp8
 70
     1
102
RTVSPropertyOp9
 70
     1
102
RTVSPropertyOp10
 70
     1
102
RTVSPropertyOp11
 70
     1
102
RTVSPropertyOp12
 70
     1
102
RTVSPropertyOp13
 70
     1
102
RTVSPropertyOp14
 70
     1
102
RTVSPropertyOp15
 70
     1
102
RTVSPropertyOp16
 70
     1
102
RTVSPropertyOp17
 70
     1
102
RTVSPropertyOp18
 70
     1
102
RTVSPropertyOp19
 70
     1
102
RTVSPropertyOp20
 70
     1
102
RTVSPropertyOp21
 70
     1
102
RTVSPropertyOp22
 70
     1
102
RTVSPropertyOp23
 70
     1
102
RTVSPropertyOp24
 70
     1
102
RTVSPropertyOp25
 70
     1
102
RTVSPropertyOp26
 70
     1
102
RTVSPropertyOp27
 70
     1
102
RTVSPropertyOp28
 70
     1
102
RTVSPropertyOp29
 70
     1
102
RTVSPropertyOp30
 70
     1
102
RTVSPropertyOp31
 70
     1
102
RTVSPropertyOp32
 70
     1
102
RTVSPropertyOp33
 70
     1
102
RTVSPropertyOp34
 70
     1
102
RTVSPropertyOp35
 70
     1
102
RTVSPropertyOp36
 70
     1
102
RTVSPropertyOp37
 70
     1
102
RTVSPropertyOp38
 70
     1
102
RTVSPropertyOp39
 70
     1
102
RTVSPropertyOp40
 70
     1
102
RTVSPropertyOp41
 70
     1
102
RTVSPropertyOp42
 70
     1
102
RTVSPropertyOp43
 70
     1
102
RTVSPropertyOp44
 70
     1
102
RTVSPropertyOp45
 70
     1
102
RTVSPropertyOp46
 70
     1
102
RTVSPropertyOp47
 70
     1
102
RTVSPropertyOp48
 70
     1
102
RTVSPropertyOp49
 70
     1
102
RTVSPropertyOp50
 70
     1
102
RTVSPropertyOp51
 70
     0
102
RTVSPropertyOp52
 70
     0
102
RTVSPropertyOp53
 70
     1
102
RTVSPropertyOp54
 70
     1
102
RTVSPropertyOp55
 70
     1
102
RTVSPropertyOp56
 70
     1
102
RTVSPropertyOp57
 70
     1
102
RTVSPropertyOp58
 70
     1
102
RTVSPropertyOp59
 70
     1
102
RTVSPropertyOp60
 70
     1
102
RTVSPropertyOp61
 70
     1
102
RTVSPropertyOp62
 70
     1
  0
XRECORD
  5
ABD3
102
{ACAD_REACTORS
330
ABD2
102
}
330
ABD2
100
AcDbXrecord
280
     1
102
RTVSPost2010Prop28
280
     0
102
RTVSPost2010PropOp28
 70
     1
102
RTVSPost2010Prop29
280
     1
102
RTVSPost2010PropOp29
 70
     1
102
RTVSPost2010Prop30
280
     1
102
RTVSPost2010PropOp30
 70
     1
102
RTVSPost2010Prop31
280
     0
102
RTVSPost2010PropOp31
 70
     1
102
RTVSPost2010Prop32
280
     0
102
RTVSPost2010PropOp32
 70
     1
102
RTVSPost2010Prop33
280
     0
102
RTVSPost2010PropOp33
 70
     1
102
RTVSPost2010Prop34
280
     0
102
RTVSPost2010PropOp34
 70
     1
102
RTVSPost2010Prop35
280
     0
102
RTVSPost2010PropOp35
 70
     1
102
RTVSPost2010Prop36
280
     0
102
RTVSPost2010PropOp36
 70
     1
102
RTVSPost2010Prop37
 90
       50
102
RTVSPost2010PropOp37
 70
     1
102
RTVSPost2010Prop38
140
0.0
102
RTVSPost2010PropOp38
 70
     1
102
RTVSPost2010Prop39
140
1.0
102
RTVSPost2010PropOp39
 70
     1
102
RTVSPost2010Prop40
 90
        0
102
RTVSPost2010PropOp40
 70
     1
102
RTVSPost2010Prop41ColorIndex
 90
       18
102
RTVSPost2010Prop41ColorRGB
 90
        0
102
RTVSPost2010PropOp41
 70
     1
102
RTVSPost2010Prop42
 90
       50
102
RTVSPost2010PropOp42
 70
     1
102
RTVSPost2010Prop43
 90
        3
102
RTVSPost2010PropOp43
 70
     1
102
RTVSPost2010Prop44ColorIndex
 90
        5
102
RTVSPost2010Prop44ColorRGB
 90
      255
102
RTVSPost2010PropOp44
 70
     1
102
RTVSPost2010Prop45
280
     0
102
RTVSPost2010PropOp45
 70
     1
102
RTVSPost2010Prop46
 90
       50
102
RTVSPost2010PropOp46
 70
     1
102
RTVSPost2010Prop47
 90
       50
102
RTVSPost2010PropOp47
 70
     1
102
RTVSPost2010Prop48
 90
       50
102
RTVSPost2010PropOp48
 70
     1
102
RTVSPost2010Prop49
280
     0
102
RTVSPost2010PropOp49
 70
     1
102
RTVSPost2010Prop50
 90
       50
102
RTVSPost2010PropOp50
 70
     1
102
RTVSPost2010Prop51ColorIndex
 90
      256
102
RTVSPost2010Prop51ColorRGB
 90
-16777216
102
RTVSPost2010PropOp51
 70
     0
102
RTVSPost2010Prop52
140
1.0
102
RTVSPost2010PropOp52
 70
     0
102
RTVSPost2010Prop53
 90
        2
102
RTVSPost2010PropOp53
 70
     1
102
RTVSPost2010Prop54
  1
strokes_ogs.tif
102
RTVSPost2010PropOp54
 70
     1
102
RTVSPost2010Prop55
280
     0
102
RTVSPost2010PropOp55
 70
     1
102
RTVSPost2010Prop56
140
1.0
102
RTVSPost2010PropOp56
 70
     1
102
RTVSPost2010Prop57
140
1.0
102
RTVSPost2010PropOp57
 70
     1
102
RTVSPropertyOp0
 70
     1
102
RTVSPropertyOp1
 70
     1
102
RTVSPropertyOp2
 70
     1
102
RTVSPropertyOp3
 70
     1
102
RTVSPropertyOp4
 70
     1
102
RTVSPropertyOp5
 70
     1
102
RTVSPropertyOp6
 70
     1
102
RTVSPropertyOp7
 70
     1
102
RTVSPropertyOp8
 70
     1
102
RTVSPropertyOp9
 70
     1
102
RTVSPropertyOp10
 70
     1
102
RTVSPropertyOp11
 70
     1
102
RTVSPropertyOp12
 70
     1
102
RTVSPropertyOp13
 70
     1
102
RTVSPropertyOp14
 70
     1
102
RTVSPropertyOp15
 70
     1
102
RTVSPropertyOp16
 70
     1
102
RTVSPropertyOp17
 70
     1
102
RTVSPropertyOp18
 70
     1
102
RTVSPropertyOp19
 70
     1
102
RTVSPropertyOp20
 70
     1
102
RTVSPropertyOp21
 70
     1
102
RTVSPropertyOp22
 70
     1
102
RTVSPropertyOp23
 70
     1
102
RTVSPropertyOp24
 70
     1
102
RTVSPropertyOp25
 70
     1
102
RTVSPropertyOp26
 70
     1
102
RTVSPropertyOp27
 70
     1
102
RTVSPropertyOp28
 70
     1
102
RTVSPropertyOp29
 70
     1
102
RTVSPropertyOp30
 70
     1
102
RTVSPropertyOp31
 70
     1
102
RTVSPropertyOp32
 70
     1
102
RTVSPropertyOp33
 70
     1
102
RTVSPropertyOp34
 70
     1
102
RTVSPropertyOp35
 70
     1
102
RTVSPropertyOp36
 70
     1
102
RTVSPropertyOp37
 70
     1
102
RTVSPropertyOp38
 70
     1
102
RTVSPropertyOp39
 70
     1
102
RTVSPropertyOp40
 70
     1
102
RTVSPropertyOp41
 70
     1
102
RTVSPropertyOp42
 70
     1
102
RTVSPropertyOp43
 70
     1
102
RTVSPropertyOp44
 70
     1
102
RTVSPropertyOp45
 70
     1
102
RTVSPropertyOp46
 70
     1
102
RTVSPropertyOp47
 70
     1
102
RTVSPropertyOp48
 70
     1
102
RTVSPropertyOp49
 70
     1
102
RTVSPropertyOp50
 70
     1
102
RTVSPropertyOp51
 70
     0
102
RTVSPropertyOp52
 70
     0
102
RTVSPropertyOp53
 70
     1
102
RTVSPropertyOp54
 70
     1
102
RTVSPropertyOp55
 70
     1
102
RTVSPropertyOp56
 70
     1
102
RTVSPropertyOp57
 70
     1
102
RTVSPropertyOp58
 70
     1
102
RTVSPropertyOp59
 70
     1
102
RTVSPropertyOp60
 70
     1
102
RTVSPropertyOp61
 70
     1
102
RTVSPropertyOp62
 70
     1
  0
XRECORD
  5
ABC1
102
{ACAD_REACTORS
330
ABC0
102
}
330
ABC0
100
AcDbXrecord
280
     1
102
RTVSPost2010Prop28
280
     0
102
RTVSPost2010PropOp28
 70
     1
102
RTVSPost2010Prop29
280
     1
102
RTVSPost2010PropOp29
 70
     1
102
RTVSPost2010Prop30
280
     1
102
RTVSPost2010PropOp30
 70
     1
102
RTVSPost2010Prop31
280
     0
102
RTVSPost2010PropOp31
 70
     1
102
RTVSPost2010Prop32
280
     0
102
RTVSPost2010PropOp32
 70
     1
102
RTVSPost2010Prop33
280
     0
102
RTVSPost2010PropOp33
 70
     1
102
RTVSPost2010Prop34
280
     0
102
RTVSPost2010PropOp34
 70
     1
102
RTVSPost2010Prop35
280
     0
102
RTVSPost2010PropOp35
 70
     1
102
RTVSPost2010Prop36
280
     0
102
RTVSPost2010PropOp36
 70
     1
102
RTVSPost2010Prop37
 90
       50
102
RTVSPost2010PropOp37
 70
     1
102
RTVSPost2010Prop38
140
0.0
102
RTVSPost2010PropOp38
 70
     1
102
RTVSPost2010Prop39
140
1.0
102
RTVSPost2010PropOp39
 70
     1
102
RTVSPost2010Prop40
 90
        0
102
RTVSPost2010PropOp40
 70
     1
102
RTVSPost2010Prop41ColorIndex
 90
       18
102
RTVSPost2010Prop41ColorRGB
 90
        0
102
RTVSPost2010PropOp41
 70
     1
102
RTVSPost2010Prop42
 90
       50
102
RTVSPost2010PropOp42
 70
     1
102
RTVSPost2010Prop43
 90
        3
102
RTVSPost2010PropOp43
 70
     1
102
RTVSPost2010Prop44ColorIndex
 90
        5
102
RTVSPost2010Prop44ColorRGB
 90
      255
102
RTVSPost2010PropOp44
 70
     1
102
RTVSPost2010Prop45
280
     0
102
RTVSPost2010PropOp45
 70
     1
102
RTVSPost2010Prop46
 90
       50
102
RTVSPost2010PropOp46
 70
     1
102
RTVSPost2010Prop47
 90
       50
102
RTVSPost2010PropOp47
 70
     1
102
RTVSPost2010Prop48
 90
       50
102
RTVSPost2010PropOp48
 70
     1
102
RTVSPost2010Prop49
280
     0
102
RTVSPost2010PropOp49
 70
     1
102
RTVSPost2010Prop50
 90
       50
102
RTVSPost2010PropOp50
 70
     1
102
RTVSPost2010Prop51ColorIndex
 90
      256
102
RTVSPost2010Prop51ColorRGB
 90
-16777216
102
RTVSPost2010PropOp51
 70
     0
102
RTVSPost2010Prop52
140
1.0
102
RTVSPost2010PropOp52
 70
     0
102
RTVSPost2010Prop53
 90
        2
102
RTVSPost2010PropOp53
 70
     1
102
RTVSPost2010Prop54
  1
strokes_ogs.tif
102
RTVSPost2010PropOp54
 70
     1
102
RTVSPost2010Prop55
280
     0
102
RTVSPost2010PropOp55
 70
     1
102
RTVSPost2010Prop56
140
1.0
102
RTVSPost2010PropOp56
 70
     1
102
RTVSPost2010Prop57
140
1.0
102
RTVSPost2010PropOp57
 70
     1
102
RTVSPropertyOp0
 70
     1
102
RTVSPropertyOp1
 70
     1
102
RTVSPropertyOp2
 70
     1
102
RTVSPropertyOp3
 70
     1
102
RTVSPropertyOp4
 70
     1
102
RTVSPropertyOp5
 70
     1
102
RTVSPropertyOp6
 70
     1
102
RTVSPropertyOp7
 70
     1
102
RTVSPropertyOp8
 70
     1
102
RTVSPropertyOp9
 70
     1
102
RTVSPropertyOp10
 70
     1
102
RTVSPropertyOp11
 70
     1
102
RTVSPropertyOp12
 70
     1
102
RTVSPropertyOp13
 70
     1
102
RTVSPropertyOp14
 70
     1
102
RTVSPropertyOp15
 70
     1
102
RTVSPropertyOp16
 70
     1
102
RTVSPropertyOp17
 70
     1
102
RTVSPropertyOp18
 70
     1
102
RTVSPropertyOp19
 70
     1
102
RTVSPropertyOp20
 70
     1
102
RTVSPropertyOp21
 70
     1
102
RTVSPropertyOp22
 70
     1
102
RTVSPropertyOp23
 70
     1
102
RTVSPropertyOp24
 70
     1
102
RTVSPropertyOp25
 70
     1
102
RTVSPropertyOp26
 70
     1
102
RTVSPropertyOp27
 70
     1
102
RTVSPropertyOp28
 70
     1
102
RTVSPropertyOp29
 70
     1
102
RTVSPropertyOp30
 70
     1
102
RTVSPropertyOp31
 70
     1
102
RTVSPropertyOp32
 70
     1
102
RTVSPropertyOp33
 70
     1
102
RTVSPropertyOp34
 70
     1
102
RTVSPropertyOp35
 70
     1
102
RTVSPropertyOp36
 70
     1
102
RTVSPropertyOp37
 70
     1
102
RTVSPropertyOp38
 70
     1
102
RTVSPropertyOp39
 70
     1
102
RTVSPropertyOp40
 70
     1
102
RTVSPropertyOp41
 70
     1
102
RTVSPropertyOp42
 70
     1
102
RTVSPropertyOp43
 70
     1
102
RTVSPropertyOp44
 70
     1
102
RTVSPropertyOp45
 70
     1
102
RTVSPropertyOp46
 70
     1
102
RTVSPropertyOp47
 70
     1
102
RTVSPropertyOp48
 70
     1
102
RTVSPropertyOp49
 70
     1
102
RTVSPropertyOp50
 70
     1
102
RTVSPropertyOp51
 70
     0
102
RTVSPropertyOp52
 70
     0
102
RTVSPropertyOp53
 70
     1
102
RTVSPropertyOp54
 70
     1
102
RTVSPropertyOp55
 70
     1
102
RTVSPropertyOp56
 70
     1
102
RTVSPropertyOp57
 70
     1
102
RTVSPropertyOp58
 70
     1
102
RTVSPropertyOp59
 70
     1
102
RTVSPropertyOp60
 70
     1
102
RTVSPropertyOp61
 70
     1
102
RTVSPropertyOp62
 70
     1
  0
XRECORD
  5
ABB5
102
{ACAD_REACTORS
330
ABB4
102
}
330
ABB4
100
AcDbXrecord
280
     1
102
RTVSPost2010Prop28
280
     0
102
RTVSPost2010PropOp28
 70
     1
102
RTVSPost2010Prop29
280
     1
102
RTVSPost2010PropOp29
 70
     1
102
RTVSPost2010Prop30
280
     1
102
RTVSPost2010PropOp30
 70
     1
102
RTVSPost2010Prop31
280
     0
102
RTVSPost2010PropOp31
 70
     1
102
RTVSPost2010Prop32
280
     0
102
RTVSPost2010PropOp32
 70
     1
102
RTVSPost2010Prop33
280
     0
102
RTVSPost2010PropOp33
 70
     1
102
RTVSPost2010Prop34
280
     0
102
RTVSPost2010PropOp34
 70
     1
102
RTVSPost2010Prop35
280
     0
102
RTVSPost2010PropOp35
 70
     1
102
RTVSPost2010Prop36
280
     0
102
RTVSPost2010PropOp36
 70
     1
102
RTVSPost2010Prop37
 90
       50
102
RTVSPost2010PropOp37
 70
     1
102
RTVSPost2010Prop38
140
0.0
102
RTVSPost2010PropOp38
 70
     1
102
RTVSPost2010Prop39
140
1.0
102
RTVSPost2010PropOp39
 70
     1
102
RTVSPost2010Prop40
 90
        0
102
RTVSPost2010PropOp40
 70
     1
102
RTVSPost2010Prop41ColorIndex
 90
       18
102
RTVSPost2010Prop41ColorRGB
 90
        0
102
RTVSPost2010PropOp41
 70
     1
102
RTVSPost2010Prop42
 90
       50
102
RTVSPost2010PropOp42
 70
     1
102
RTVSPost2010Prop43
 90
        3
102
RTVSPost2010PropOp43
 70
     1
102
RTVSPost2010Prop44ColorIndex
 90
        5
102
RTVSPost2010Prop44ColorRGB
 90
      255
102
RTVSPost2010PropOp44
 70
     1
102
RTVSPost2010Prop45
280
     0
102
RTVSPost2010PropOp45
 70
     1
102
RTVSPost2010Prop46
 90
       50
102
RTVSPost2010PropOp46
 70
     1
102
RTVSPost2010Prop47
 90
       50
102
RTVSPost2010PropOp47
 70
     1
102
RTVSPost2010Prop48
 90
       50
102
RTVSPost2010PropOp48
 70
     1
102
RTVSPost2010Prop49
280
     0
102
RTVSPost2010PropOp49
 70
     1
102
RTVSPost2010Prop50
 90
       50
102
RTVSPost2010PropOp50
 70
     1
102
RTVSPost2010Prop51ColorIndex
 90
      256
102
RTVSPost2010Prop51ColorRGB
 90
-16777216
102
RTVSPost2010PropOp51
 70
     0
102
RTVSPost2010Prop52
140
1.0
102
RTVSPost2010PropOp52
 70
     0
102
RTVSPost2010Prop53
 90
        2
102
RTVSPost2010PropOp53
 70
     1
102
RTVSPost2010Prop54
  1
strokes_ogs.tif
102
RTVSPost2010PropOp54
 70
     1
102
RTVSPost2010Prop55
280
     0
102
RTVSPost2010PropOp55
 70
     1
102
RTVSPost2010Prop56
140
1.0
102
RTVSPost2010PropOp56
 70
     1
102
RTVSPost2010Prop57
140
1.0
102
RTVSPost2010PropOp57
 70
     1
102
RTVSPropertyOp0
 70
     1
102
RTVSPropertyOp1
 70
     1
102
RTVSPropertyOp2
 70
     1
102
RTVSPropertyOp3
 70
     1
102
RTVSPropertyOp4
 70
     1
102
RTVSPropertyOp5
 70
     1
102
RTVSPropertyOp6
 70
     1
102
RTVSPropertyOp7
 70
     1
102
RTVSPropertyOp8
 70
     1
102
RTVSPropertyOp9
 70
     1
102
RTVSPropertyOp10
 70
     1
102
RTVSPropertyOp11
 70
     1
102
RTVSPropertyOp12
 70
     1
102
RTVSPropertyOp13
 70
     1
102
RTVSPropertyOp14
 70
     1
102
RTVSPropertyOp15
 70
     1
102
RTVSPropertyOp16
 70
     1
102
RTVSPropertyOp17
 70
     1
102
RTVSPropertyOp18
 70
     1
102
RTVSPropertyOp19
 70
     1
102
RTVSPropertyOp20
 70
     1
102
RTVSPropertyOp21
 70
     1
102
RTVSPropertyOp22
 70
     1
102
RTVSPropertyOp23
 70
     1
102
RTVSPropertyOp24
 70
     1
102
RTVSPropertyOp25
 70
     1
102
RTVSPropertyOp26
 70
     1
102
RTVSPropertyOp27
 70
     1
102
RTVSPropertyOp28
 70
     1
102
RTVSPropertyOp29
 70
     1
102
RTVSPropertyOp30
 70
     1
102
RTVSPropertyOp31
 70
     1
102
RTVSPropertyOp32
 70
     1
102
RTVSPropertyOp33
 70
     1
102
RTVSPropertyOp34
 70
     1
102
RTVSPropertyOp35
 70
     1
102
RTVSPropertyOp36
 70
     1
102
RTVSPropertyOp37
 70
     1
102
RTVSPropertyOp38
 70
     1
102
RTVSPropertyOp39
 70
     1
102
RTVSPropertyOp40
 70
     1
102
RTVSPropertyOp41
 70
     1
102
RTVSPropertyOp42
 70
     1
102
RTVSPropertyOp43
 70
     1
102
RTVSPropertyOp44
 70
     1
102
RTVSPropertyOp45
 70
     1
102
RTVSPropertyOp46
 70
     1
102
RTVSPropertyOp47
 70
     1
102
RTVSPropertyOp48
 70
     1
102
RTVSPropertyOp49
 70
     1
102
RTVSPropertyOp50
 70
     1
102
RTVSPropertyOp51
 70
     0
102
RTVSPropertyOp52
 70
     0
102
RTVSPropertyOp53
 70
     1
102
RTVSPropertyOp54
 70
     1
102
RTVSPropertyOp55
 70
     1
102
RTVSPropertyOp56
 70
     1
102
RTVSPropertyOp57
 70
     1
102
RTVSPropertyOp58
 70
     1
102
RTVSPropertyOp59
 70
     1
102
RTVSPropertyOp60
 70
     1
102
RTVSPropertyOp61
 70
     1
102
RTVSPropertyOp62
 70
     1
  0
XRECORD
  5
ABD5
102
{ACAD_REACTORS
330
ABD4
102
}
330
ABD4
100
AcDbXrecord
280
     1
102
RTVSPost2010Prop28
280
     0
102
RTVSPost2010PropOp28
 70
     1
102
RTVSPost2010Prop29
280
     1
102
RTVSPost2010PropOp29
 70
     1
102
RTVSPost2010Prop30
280
     1
102
RTVSPost2010PropOp30
 70
     1
102
RTVSPost2010Prop31
280
     0
102
RTVSPost2010PropOp31
 70
     1
102
RTVSPost2010Prop32
280
     0
102
RTVSPost2010PropOp32
 70
     1
102
RTVSPost2010Prop33
280
     0
102
RTVSPost2010PropOp33
 70
     1
102
RTVSPost2010Prop34
280
     0
102
RTVSPost2010PropOp34
 70
     1
102
RTVSPost2010Prop35
280
     0
102
RTVSPost2010PropOp35
 70
     1
102
RTVSPost2010Prop36
280
     0
102
RTVSPost2010PropOp36
 70
     1
102
RTVSPost2010Prop37
 90
       50
102
RTVSPost2010PropOp37
 70
     1
102
RTVSPost2010Prop38
140
0.0
102
RTVSPost2010PropOp38
 70
     1
102
RTVSPost2010Prop39
140
1.0
102
RTVSPost2010PropOp39
 70
     1
102
RTVSPost2010Prop40
 90
        0
102
RTVSPost2010PropOp40
 70
     1
102
RTVSPost2010Prop41ColorIndex
 90
       18
102
RTVSPost2010Prop41ColorRGB
 90
        0
102
RTVSPost2010PropOp41
 70
     1
102
RTVSPost2010Prop42
 90
       50
102
RTVSPost2010PropOp42
 70
     1
102
RTVSPost2010Prop43
 90
        3
102
RTVSPost2010PropOp43
 70
     1
102
RTVSPost2010Prop44ColorIndex
 90
        5
102
RTVSPost2010Prop44ColorRGB
 90
      255
102
RTVSPost2010PropOp44
 70
     1
102
RTVSPost2010Prop45
280
     0
102
RTVSPost2010PropOp45
 70
     1
102
RTVSPost2010Prop46
 90
       50
102
RTVSPost2010PropOp46
 70
     1
102
RTVSPost2010Prop47
 90
       50
102
RTVSPost2010PropOp47
 70
     1
102
RTVSPost2010Prop48
 90
       50
102
RTVSPost2010PropOp48
 70
     1
102
RTVSPost2010Prop49
280
     0
102
RTVSPost2010PropOp49
 70
     1
102
RTVSPost2010Prop50
 90
       50
102
RTVSPost2010PropOp50
 70
     1
102
RTVSPost2010Prop51ColorIndex
 90
      256
102
RTVSPost2010Prop51ColorRGB
 90
-16777216
102
RTVSPost2010PropOp51
 70
     0
102
RTVSPost2010Prop52
140
1.0
102
RTVSPost2010PropOp52
 70
     0
102
RTVSPost2010Prop53
 90
        2
102
RTVSPost2010PropOp53
 70
     1
102
RTVSPost2010Prop54
  1
strokes_ogs.tif
102
RTVSPost2010PropOp54
 70
     1
102
RTVSPost2010Prop55
280
     0
102
RTVSPost2010PropOp55
 70
     1
102
RTVSPost2010Prop56
140
1.0
102
RTVSPost2010PropOp56
 70
     1
102
RTVSPost2010Prop57
140
1.0
102
RTVSPost2010PropOp57
 70
     1
102
RTVSPropertyOp0
 70
     1
102
RTVSPropertyOp1
 70
     1
102
RTVSPropertyOp2
 70
     1
102
RTVSPropertyOp3
 70
     1
102
RTVSPropertyOp4
 70
     1
102
RTVSPropertyOp5
 70
     1
102
RTVSPropertyOp6
 70
     1
102
RTVSPropertyOp7
 70
     1
102
RTVSPropertyOp8
 70
     1
102
RTVSPropertyOp9
 70
     1
102
RTVSPropertyOp10
 70
     1
102
RTVSPropertyOp11
 70
     1
102
RTVSPropertyOp12
 70
     1
102
RTVSPropertyOp13
 70
     1
102
RTVSPropertyOp14
 70
     1
102
RTVSPropertyOp15
 70
     1
102
RTVSPropertyOp16
 70
     1
102
RTVSPropertyOp17
 70
     1
102
RTVSPropertyOp18
 70
     1
102
RTVSPropertyOp19
 70
     1
102
RTVSPropertyOp20
 70
     1
102
RTVSPropertyOp21
 70
     1
102
RTVSPropertyOp22
 70
     1
102
RTVSPropertyOp23
 70
     1
102
RTVSPropertyOp24
 70
     1
102
RTVSPropertyOp25
 70
     1
102
RTVSPropertyOp26
 70
     1
102
RTVSPropertyOp27
 70
     1
102
RTVSPropertyOp28
 70
     1
102
RTVSPropertyOp29
 70
     1
102
RTVSPropertyOp30
 70
     1
102
RTVSPropertyOp31
 70
     1
102
RTVSPropertyOp32
 70
     1
102
RTVSPropertyOp33
 70
     1
102
RTVSPropertyOp34
 70
     1
102
RTVSPropertyOp35
 70
     1
102
RTVSPropertyOp36
 70
     1
102
RTVSPropertyOp37
 70
     1
102
RTVSPropertyOp38
 70
     1
102
RTVSPropertyOp39
 70
     1
102
RTVSPropertyOp40
 70
     1
102
RTVSPropertyOp41
 70
     1
102
RTVSPropertyOp42
 70
     1
102
RTVSPropertyOp43
 70
     1
102
RTVSPropertyOp44
 70
     1
102
RTVSPropertyOp45
 70
     1
102
RTVSPropertyOp46
 70
     1
102
RTVSPropertyOp47
 70
     1
102
RTVSPropertyOp48
 70
     1
102
RTVSPropertyOp49
 70
     1
102
RTVSPropertyOp50
 70
     1
102
RTVSPropertyOp51
 70
     0
102
RTVSPropertyOp52
 70
     0
102
RTVSPropertyOp53
 70
     1
102
RTVSPropertyOp54
 70
     1
102
RTVSPropertyOp55
 70
     1
102
RTVSPropertyOp56
 70
     1
102
RTVSPropertyOp57
 70
     1
102
RTVSPropertyOp58
 70
     1
102
RTVSPropertyOp59
 70
     1
102
RTVSPropertyOp60
 70
     1
102
RTVSPropertyOp61
 70
     1
102
RTVSPropertyOp62
 70
     1
  0
ENDSEC
  0
EOF
