  0
SECTION
  2
HEADER
  9
$ACADVER
  1
AC1015
  9
$ACADMAINTVER
 70
    18
  9
$DWGCODEPAGE
  3
ANSI_1252
  9
$INSBASE
 10
0.0
 20
0.0
 30
0.0
  9
$EXTMIN
 10
-227.3611443063257
 20
-287.2383724456168
 30
-0.0015258207003583
  9
$EXTMAX
 10
300.106202010189
 20
310.8538978023617
 30
0.0000000349246037
  9
$LIMMIN
 10
0.0
 20
0.0
  9
$LIMMAX
 10
420.0
 20
297.0
  9
$ORTHOMODE
 70
     0
  9
$REGENMODE
 70
     1
  9
$FILLMODE
 70
     1
  9
$QTEXTMODE
 70
     0
  9
$MIRRTEXT
 70
     0
  9
$LTSCALE
 40
1.0
  9
$ATTMODE
 70
     1
  9
$TEXTSIZE
 40
2.5
  9
$TRACEWID
 40
1.0
  9
$TEXTSTYLE
  7
Standard
  9
$CLAYER
  8
0
  9
$CELTYPE
  6
ByLayer
  9
$CECOLOR
 62
   256
  9
$CELTSCALE
 40
1.0
  9
$DISPSILH
 70
     0
  9
$DIMSCALE
 40
1.0
  9
$DIMASZ
 40
2.5
  9
$DIMEXO
 40
0.625
  9
$DIMDLI
 40
3.75
  9
$DIMRND
 40
0.0
  9
$DIMDLE
 40
0.0
  9
$DIMEXE
 40
1.25
  9
$DIMTP
 40
0.0
  9
$DIMTM
 40
0.0
  9
$DIMTXT
 40
2.5
  9
$DIMCEN
 40
2.5
  9
$DIMTSZ
 40
0.0
  9
$DIMTOL
 70
     0
  9
$DIMLIM
 70
     0
  9
$DIMTIH
 70
     0
  9
$DIMTOH
 70
     0
  9
$DIMSE1
 70
     0
  9
$DIMSE2
 70
     0
  9
$DIMTAD
 70
     1
  9
$DIMZIN
 70
     8
  9
$DIMBLK
  1

  9
$DIMASO
 70
     1
  9
$DIMSHO
 70
     1
  9
$DIMPOST
  1

  9
$DIMAPOST
  1

  9
$DIMALT
 70
     0
  9
$DIMALTD
 70
     3
  9
$DIMALTF
 40
0.03937007874016
  9
$DIMLFAC
 40
1.0
  9
$DIMTOFL
 70
     1
  9
$DIMTVP
 40
0.0
  9
$DIMTIX
 70
     0
  9
$DIMSOXD
 70
     0
  9
$DIMSAH
 70
     0
  9
$DIMBLK1
  1

  9
$DIMBLK2
  1

  9
$DIMSTYLE
  2
ISO-25
  9
$DIMCLRD
 70
     0
  9
$DIMCLRE
 70
     0
  9
$DIMCLRT
 70
     0
  9
$DIMTFAC
 40
1.0
  9
$DIMGAP
 40
0.625
  9
$DIMJUST
 70
     0
  9
$DIMSD1
 70
     0
  9
$DIMSD2
 70
     0
  9
$DIMTOLJ
 70
     0
  9
$DIMTZIN
 70
     8
  9
$DIMALTZ
 70
     0
  9
$DIMALTTZ
 70
     0
  9
$DIMUPT
 70
     0
  9
$DIMDEC
 70
     2
  9
$DIMTDEC
 70
     2
  9
$DIMALTU
 70
     2
  9
$DIMALTTD
 70
     3
  9
$DIMTXSTY
  7
Standard
  9
$DIMAUNIT
 70
     0
  9
$DIMADEC
 70
     0
  9
$DIMALTRND
 40
0.0
  9
$DIMAZIN
 70
     0
  9
$DIMDSEP
 70
    44
  9
$DIMATFIT
 70
     3
  9
$DIMFRAC
 70
     0
  9
$DIMLDRBLK
  1

  9
$DIMLUNIT
 70
     2
  9
$DIMLWD
 70
    -2
  9
$DIMLWE
 70
    -2
  9
$DIMTMOVE
 70
     0
  9
$LUNITS
 70
     2
  9
$LUPREC
 70
     4
  9
$SKETCHINC
 40
1.0
  9
$FILLETRAD
 40
0.0
  9
$AUNITS
 70
     0
  9
$AUPREC
 70
     0
  9
$MENU
  1
.
  9
$ELEVATION
 40
0.0
  9
$PELEVATION
 40
0.0
  9
$THICKNESS
 40
0.0
  9
$LIMCHECK
 70
     0
  9
$CHAMFERA
 40
0.0
  9
$CHAMFERB
 40
0.0
  9
$CHAMFERC
 40
0.0
  9
$CHAMFERD
 40
0.0
  9
$SKPOLY
 70
     0
  9
$TDCREATE
 40
2460398.356956019
  9
$TDUCREATE
 40
2460398.065289352
  9
$TDUPDATE
 40
2460398.375925926
  9
$TDUUPDATE
 40
2460398.084259259
  9
$TDINDWG
 40
0.0079282407
  9
$TDUSRTIMER
 40
0.0079282407
  9
$USRTIMER
 70
     1
  9
$ANGBASE
 50
0.0
  9
$ANGDIR
 70
     0
  9
$PDMODE
 70
     0
  9
$PDSIZE
 40
0.0
  9
$PLINEWID
 40
0.0
  9
$SPLFRAME
 70
     0
  9
$SPLINETYPE
 70
     6
  9
$SPLINESEGS
 70
     8
  9
$HANDSEED
  5
B73E
  9
$SURFTAB1
 70
     6
  9
$SURFTAB2
 70
     6
  9
$SURFTYPE
 70
     6
  9
$SURFU
 70
     6
  9
$SURFV
 70
     6
  9
$UCSBASE
  2

  9
$UCSNAME
  2

  9
$UCSORG
 10
0.0
 20
0.0
 30
0.0
  9
$UCSXDIR
 10
1.0
 20
0.0
 30
0.0
  9
$UCSYDIR
 10
0.0
 20
1.0
 30
0.0
  9
$UCSORTHOREF
  2

  9
$UCSORTHOVIEW
 70
     0
  9
$UCSORGTOP
 10
0.0
 20
0.0
 30
0.0
  9
$UCSORGBOTTOM
 10
0.0
 20
0.0
 30
0.0
  9
$UCSORGLEFT
 10
0.0
 20
0.0
 30
0.0
  9
$UCSORGRIGHT
 10
0.0
 20
0.0
 30
0.0
  9
$UCSORGFRONT
 10
0.0
 20
0.0
 30
0.0
  9
$UCSORGBACK
 10
0.0
 20
0.0
 30
0.0
  9
$PUCSBASE
  2

  9
$PUCSNAME
  2

  9
$PUCSORG
 10
0.0
 20
0.0
 30
0.0
  9
$PUCSXDIR
 10
1.0
 20
0.0
 30
0.0
  9
$PUCSYDIR
 10
0.0
 20
1.0
 30
0.0
  9
$PUCSORTHOREF
  2

  9
$PUCSORTHOVIEW
 70
     0
  9
$PUCSORGTOP
 10
0.0
 20
0.0
 30
0.0
  9
$PUCSORGBOTTOM
 10
0.0
 20
0.0
 30
0.0
  9
$PUCSORGLEFT
 10
0.0
 20
0.0
 30
0.0
  9
$PUCSORGRIGHT
 10
0.0
 20
0.0
 30
0.0
  9
$PUCSORGFRONT
 10
0.0
 20
0.0
 30
0.0
  9
$PUCSORGBACK
 10
0.0
 20
0.0
 30
0.0
  9
$USERI1
 70
     0
  9
$USERI2
 70
     0
  9
$USERI3
 70
     0
  9
$USERI4
 70
     0
  9
$USERI5
 70
     0
  9
$USERR1
 40
0.0
  9
$USERR2
 40
0.0
  9
$USERR3
 40
0.0
  9
$USERR4
 40
0.0
  9
$USERR5
 40
0.0
  9
$WORLDVIEW
 70
     1
  9
$SHADEDGE
 70
     3
  9
$SHADEDIF
 70
    70
  9
$TILEMODE
 70
     1
  9
$MAXACTVP
 70
    48
  9
$PINSBASE
 10
0.0
 20
0.0
 30
0.0
  9
$PLIMCHECK
 70
     0
  9
$PEXTMIN
 10
0.0
 20
0.0
 30
0.0
  9
$PEXTMAX
 10
0.0
 20
0.0
 30
0.0
  9
$PLIMMIN
 10
0.0
 20
0.0
  9
$PLIMMAX
 10
12.0
 20
9.0
  9
$UNITMODE
 70
     0
  9
$VISRETAIN
 70
     1
  9
$PLINEGEN
 70
     0
  9
$PSLTSCALE
 70
     1
  9
$TREEDEPTH
 70
  3020
  9
$CMLSTYLE
  2
Standard
  9
$CMLJUST
 70
     0
  9
$CMLSCALE
 40
20.0
  9
$PROXYGRAPHICS
 70
     1
  9
$MEASUREMENT
 70
     1
  9
$CELWEIGHT
370
    -1
  9
$ENDCAPS
280
     0
  9
$JOINSTYLE
280
     0
  9
$LWDISPLAY
290
     0
  9
$INSUNITS
 70
     4
  9
$HYPERLINKBASE
  1

  9
$STYLESHEET
  1

  9
$XEDIT
290
     1
  9
$CEPSNTYPE
380
     0
  9
$PSTYLEMODE
290
     1
  9
$FINGERPRINTGUID
  2
{6C1266EE-7BC1-BF4A-B059-A6E7702B10CE}
  9
$VERSIONGUID
  2
{859C0600-590B-D841-9838-52C9027DBB50}
  9
$EXTNAMES
290
     1
  9
$PSVPSCALE
 40
0.0
  9
$OLESTARTUP
290
     0
  0
ENDSEC
  0
SECTION
  2
CLASSES
  0
CLASS
  1
ACDBDICTIONARYWDFLT
  2
AcDbDictionaryWithDefault
  3
ObjectDBX Classes
 90
        0
280
     0
281
     0
  0
CLASS
  1
ACDBPLACEHOLDER
  2
AcDbPlaceHolder
  3
ObjectDBX Classes
 90
        0
280
     0
281
     0
  0
CLASS
  1
LAYOUT
  2
AcDbLayout
  3
ObjectDBX Classes
 90
        0
280
     0
281
     0
  0
CLASS
  1
DICTIONARYVAR
  2
AcDbDictionaryVar
  3
ObjectDBX Classes
 90
        0
280
     0
281
     0
  0
CLASS
  1
TABLESTYLE
  2
AcDbTableStyle
  3
ObjectDBX Classes
 90
     4095
280
     0
281
     0
  0
CLASS
  1
MATERIAL
  2
AcDbMaterial
  3
ObjectDBX Classes
 90
     1153
280
     0
281
     0
  0
CLASS
  1
VISUALSTYLE
  2
AcDbVisualStyle
  3
ObjectDBX Classes
 90
     4095
280
     0
281
     0
  0
CLASS
  1
SCALE
  2
AcDbScale
  3
ObjectDBX Classes
 90
     1153
280
     0
281
     0
  0
CLASS
  1
MLEADERSTYLE
  2
AcDbMLeaderStyle
  3
ACDB_MLEADERSTYLE_CLASS
 90
     4095
280
     0
281
     0
  0
CLASS
  1
CELLSTYLEMAP
  2
AcDbCellStyleMap
  3
ObjectDBX Classes
 90
     1152
280
     0
281
     0
  0
CLASS
  1
EXACXREFPANELOBJECT
  2
ExAcXREFPanelObject
  3
EXAC_ESW
 90
    33793
280
     0
281
     0
  0
CLASS
  1
NPOCOLLECTION
  2
AcDbImpNonPersistentObjectsCollection
  3
ObjectDBX Classes
 90
    33921
280
     0
281
     0
  0
CLASS
  1
LAYER_INDEX
  2
AcDbLayerIndex
  3
ObjectDBX Classes
 90
    32768
280
     0
281
     0
  0
CLASS
  1
SPATIAL_INDEX
  2
AcDbSpatialIndex
  3
ObjectDBX Classes
 90
    32768
280
     0
281
     0
  0
CLASS
  1
IDBUFFER
  2
AcDbIdBuffer
  3
ObjectDBX Classes
 90
    32768
280
     0
281
     0
  0
CLASS
  1
ACDBSECTIONVIEWSTYLE
  2
AcDbSectionViewStyle
  3
ObjectDBX Classes
 90
     1025
280
     0
281
     0
  0
CLASS
  1
ACDBDETAILVIEWSTYLE
  2
AcDbDetailViewStyle
  3
ObjectDBX Classes
 90
     1025
280
     0
281
     0
  0
CLASS
  1
XRECORD
  2
AcDbXrecord
  3
ObjectDBX Classes
 90
        0
280
     0
281
     0
  0
ENDSEC
  0
SECTION
  2
TABLES
  0
TABLE
  2
VPORT
  5
8
102
{ACAD_XDICTIONARY
360
B64C
102
}
330
0
100
AcDbSymbolTable
 70
     1
  0
VPORT
  5
EA
330
8
100
AcDbSymbolTableRecord
100
AcDbViewportTableRecord
  2
*Active
 70
     0
 10
0.0
 20
0.0
 11
1.0
 21
1.0
 12
36.37252885193166
 22
11.8077626783724
 13
0.0
 23
0.0
 14
10.0
 24
10.0
 15
10.0
 25
10.0
 16
0.0
 26
0.0
 36
1.0
 17
0.0
 27
0.0
 37
0.0
 40
636.0169283039398
 41
0.9846153846153844
 42
50.0
 43
0.0
 44
0.0
 50
0.0
 51
0.0
 71
     0
 72
  1000
 73
     1
 74
     3
 75
     0
 76
     1
 77
     0
 78
     0
281
     0
 65
     1
110
0.0
120
0.0
130
0.0
111
1.0
121
0.0
131
0.0
112
0.0
122
1.0
132
0.0
 79
     0
146
0.0
1001
ACAD_NAV_VCDISPLAY
1070
     3
  0
ENDTAB
  0
TABLE
  2
LTYPE
  5
5
330
0
100
AcDbSymbolTable
 70
     1
  0
LTYPE
  5
14
330
5
100
AcDbSymbolTableRecord
100
AcDbLinetypeTableRecord
  2
ByBlock
 70
     0
  3

 72
    65
 73
     0
 40
0.0
  0
LTYPE
  5
15
330
5
100
AcDbSymbolTableRecord
100
AcDbLinetypeTableRecord
  2
ByLayer
 70
     0
  3

 72
    65
 73
     0
 40
0.0
  0
LTYPE
  5
16
330
5
100
AcDbSymbolTableRecord
100
AcDbLinetypeTableRecord
  2
Continuous
 70
     0
  3
Solid line
 72
    65
 73
     0
 40
0.0
  0
ENDTAB
  0
TABLE
  2
LAYER
  5
2
102
{ACAD_XDICTIONARY
360
1FF
102
}
330
0
100
AcDbSymbolTable
 70
     1
  0
LAYER
  5
10
102
{ACAD_XDICTIONARY
360
13C
102
}
330
2
100
AcDbSymbolTableRecord
100
AcDbLayerTableRecord
  2
0
 70
     0
 62
     7
  6
Continuous
370
    -3
390
F
  0
ENDTAB
  0
TABLE
  2
STYLE
  5
3
330
0
100
AcDbSymbolTable
 70
     1
  0
STYLE
  5
11
330
3
100
AcDbSymbolTableRecord
100
AcDbTextStyleTableRecord
  2
Standard
 70
     0
 40
0.0
 41
1.0
 50
0.0
 71
     0
 42
2.5
  3
arial.ttf
  4

1001
ACAD
1000
Arial
1071
       34
  0
ENDTAB
  0
TABLE
  2
VIEW
  5
6
330
0
100
AcDbSymbolTable
 70
     0
  0
ENDTAB
  0
TABLE
  2
UCS
  5
7
330
0
100
AcDbSymbolTable
 70
     0
  0
ENDTAB
  0
TABLE
  2
APPID
  5
9
330
0
100
AcDbSymbolTable
 70
     8
  0
APPID
  5
12
330
9
100
AcDbSymbolTableRecord
100
AcDbRegAppTableRecord
  2
ACAD
 70
     0
  0
APPID
  5
9E
330
9
100
AcDbSymbolTableRecord
100
AcDbRegAppTableRecord
  2
ACAD_PSEXT
 70
     0
  0
APPID
  5
133
330
9
100
AcDbSymbolTableRecord
100
AcDbRegAppTableRecord
  2
AcadAnnoPO
 70
     0
  0
APPID
  5
134
330
9
100
AcDbSymbolTableRecord
100
AcDbRegAppTableRecord
  2
AcadAnnotative
 70
     0
  0
APPID
  5
135
330
9
100
AcDbSymbolTableRecord
100
AcDbRegAppTableRecord
  2
ACAD_DSTYLE_DIMJAG
 70
     0
  0
APPID
  5
136
330
9
100
AcDbSymbolTableRecord
100
AcDbRegAppTableRecord
  2
ACAD_DSTYLE_DIMTALN
 70
     0
  0
APPID
  5
165
330
9
100
AcDbSymbolTableRecord
100
AcDbRegAppTableRecord
  2
ACAD_MLEADERVER
 70
     0
  0
APPID
  5
217
330
9
100
AcDbSymbolTableRecord
100
AcDbRegAppTableRecord
  2
ACAD_NAV_VCDISPLAY
 70
     0
  0
ENDTAB
  0
TABLE
  2
DIMSTYLE
  5
A
330
0
100
AcDbSymbolTable
 70
     1
100
AcDbDimStyleTable
 71
     0
  0
DIMSTYLE
105
27
330
A
100
AcDbSymbolTableRecord
100
AcDbDimStyleTableRecord
  2
ISO-25
 70
     0
 41
2.5
 42
0.625
 43
3.75
 44
1.25
 73
     0
 74
     0
 77
     1
 78
     8
140
2.5
141
2.5
143
0.03937007874016
147
0.625
171
     3
172
     1
271
     2
272
     2
274
     3
278
    44
283
     0
284
     8
340
11
  0
ENDTAB
  0
TABLE
  2
BLOCK_RECORD
  5
1
330
0
100
AcDbSymbolTable
 70
     7
  0
BLOCK_RECORD
  5
1F
102
{ACAD_XDICTIONARY
360
1CE
102
}
330
1
100
AcDbSymbolTableRecord
100
AcDbBlockTableRecord
  2
*Model_Space
340
22
  0
BLOCK_RECORD
  5
D2
102
{ACAD_XDICTIONARY
360
B5FF
102
}
330
1
100
AcDbSymbolTableRecord
100
AcDbBlockTableRecord
  2
*Paper_Space
340
D3
  0
BLOCK_RECORD
  5
D6
102
{ACAD_XDICTIONARY
360
B601
102
}
330
1
100
AcDbSymbolTableRecord
100
AcDbBlockTableRecord
  2
*Paper_Space0
340
D7
  0
BLOCK_RECORD
  5
B46A
330
1
100
AcDbSymbolTableRecord
100
AcDbBlockTableRecord
  2
SAE440_95_2-Front
340
0
102
{BLKREFS
331
B5F5
102
}
  0
BLOCK_RECORD
  5
B4C3
330
1
100
AcDbSymbolTableRecord
100
AcDbBlockTableRecord
  2
SAE440_95_2-Left
340
0
102
{BLKREFS
331
B5F6
102
}
  0
BLOCK_RECORD
  5
B4E5
330
1
100
AcDbSymbolTableRecord
100
AcDbBlockTableRecord
  2
SAE440_95_2-Right
340
0
102
{BLKREFS
331
B5F7
102
}
  0
BLOCK_RECORD
  5
B507
330
1
100
AcDbSymbolTableRecord
100
AcDbBlockTableRecord
  2
SAE440_95_2-Top
340
0
102
{BLKREFS
331
B5F8
102
}
  0
BLOCK_RECORD
  5
B534
330
1
100
AcDbSymbolTableRecord
100
AcDbBlockTableRecord
  2
SAE440_95_2-Bottom
340
0
102
{BLKREFS
331
B5F9
102
}
  0
BLOCK_RECORD
  5
B558
330
1
100
AcDbSymbolTableRecord
100
AcDbBlockTableRecord
  2
SAE440_95_2-ISO
340
0
102
{BLKREFS
331
B5FA
102
}
  0
ENDTAB
  0
ENDSEC
  0
SECTION
  2
BLOCKS
  0
BLOCK
  5
20
330
1F
100
AcDbEntity
  8
0
100
AcDbBlockBegin
  2
*Model_Space
 70
     0
 10
0.0
 20
0.0
 30
0.0
  3
*Model_Space
  1

  0
ENDBLK
  5
21
330
1F
100
AcDbEntity
  8
0
100
AcDbBlockEnd
  0
BLOCK
  5
D4
330
D2
100
AcDbEntity
 67
     1
  8
0
100
AcDbBlockBegin
  2
*Paper_Space
 70
     0
 10
0.0
 20
0.0
 30
0.0
  3
*Paper_Space
  1

  0
ENDBLK
  5
D5
330
D2
100
AcDbEntity
 67
     1
  8
0
100
AcDbBlockEnd
  0
BLOCK
  5
D8
330
D6
100
AcDbEntity
 67
     1
  8
0
100
AcDbBlockBegin
  2
*Paper_Space0
 70
     0
 10
0.0
 20
0.0
 30
0.0
  3
*Paper_Space0
  1

  0
ENDBLK
  5
D9
330
D6
100
AcDbEntity
 67
     1
  8
0
100
AcDbBlockEnd
  0
BLOCK
  5
B46B
330
B46A
100
AcDbEntity
  8
0
100
AcDbBlockBegin
  2
SAE440_95_2-Front
 70
     0
 10
0.0
 20
0.0
 30
0.0
  3
SAE440_95_2-Front
  1

  0
SPLINE
  5
B46D
330
B46A
100
AcDbEntity
  8
0
100
AcDbSpline
210
0.0
220
0.0
230
1.0
 70
     8
 71
     3
 72
    17
 73
    13
 74
     0
 42
0.000000001
 43
0.0000000001
 40
0.0
 40
0.0
 40
0.0
 40
0.0
 40
0.3704689058693629
 40
0.3704689058693629
 40
0.3704689058693629
 40
0.7029757053307318
 40
0.7029757053307318
 40
0.7029757053307318
 40
0.9335813790875445
 40
0.9335813790875445
 40
0.9335813790875445
 40
0.9938196524737776
 40
0.9938196524737776
 40
0.9938196524737776
 40
0.9938196524737776
 10
52.10606060606068
 20
15.06249999999997
 30
0.0
 10
51.75310981611439
 20
14.77455844103359
 30
0.0
 10
51.30994835338928
 20
14.54087523495477
 30
0.0
 10
50.88299606376502
 20
14.28869659270399
 30
0.0
 10
50.4997937569141
 20
14.06235880321919
 30
0.0
 10
50.13742190750897
 20
13.82332829808175
 30
0.0
 10
49.87998709144348
 20
13.51709169610365
 30
0.0
 10
49.70144659451706
 20
13.3047053688389
 30
0.0
 10
49.57197149374566
 20
13.05383081506291
 30
0.0
 10
49.52188707330079
 20
12.76575225715945
 30
0.0
 10
49.50880413842759
 20
12.69050105173594
 30
0.0
 10
49.50144719265001
 20
12.61446022495047
 30
0.0
 10
49.50019293058474
 20
12.52721777759392
 30
0.0
  0
LINE
  5
B46E
330
B46A
100
AcDbEntity
  8
0
100
AcDbLine
 10
51.5
 20
15.06250000000005
 30
0.0
 11
52.056919482566
 21
15.06250000000005
 31
0.0
  0
LINE
  5
B46F
330
B46A
100
AcDbEntity
  8
0
100
AcDbLine
 10
51.42566083936404
 20
15.06250000000005
 30
0.0
 11
51.5
 21
15.06250000000005
 31
0.0
  0
LINE
  5
B470
330
B46A
100
AcDbEntity
  8
0
100
AcDbLine
 10
49.50000000000001
 20
15.06250000000005
 30
0.0
 11
51.42566083936404
 21
15.06250000000005
 31
0.0
  0
SPLINE
  5
B471
330
B46A
100
AcDbEntity
  8
0
100
AcDbSpline
210
0.0
220
0.0
230
1.0
 70
     8
 71
     3
 72
    34
 73
    30
 74
     0
 42
0.000000001
 43
0.0000000001
 40
0.0386747729114731
 40
0.0386747729114731
 40
0.0386747729114731
 40
0.0386747729114731
 40
0.0400682141070725
 40
0.0400682141070725
 40
0.0422292038579361
 40
0.0422292038579361
 40
0.0465814582436777
 40
0.0465814582436777
 40
0.0508883095443329
 40
0.0508883095443329
 40
0.0582928558861224
 40
0.0582928558861224
 40
0.0594550237293846
 40
0.0594550237293846
 40
0.0599921059349883
 40
0.0599921059349883
 40
0.0605314137058112
 40
0.0605314137058112
 40
0.0616260253343554
 40
0.0616260253343554
 40
0.0637725845150531
 40
0.0637725845150531
 40
0.0659658713914393
 40
0.0659658713914393
 40
0.0702594628166796
 40
0.0702594628166796
 40
0.0744084397491962
 40
0.0744084397491962
 40
0.0786101336172126
 40
0.0786101336172126
 40
0.0786101336172126
 40
0.0786101336172126
 10
49.51076237536337
 20
12.75193571331234
 30
0.0
 10
49.51076237543124
 20
12.7519357140734
 30
0.0
 10
49.5107168412732
 20
12.75142618908083
 30
0.0
 10
49.51050743727896
 20
12.74903701517301
 30
0.0
 10
49.51029270758194
 20
12.74655997544332
 30
0.0
 10
49.50950370743981
 20
12.73710788312647
 30
0.0
 10
49.50878264464641
 20
12.72803191554943
 30
0.0
 10
49.50734079841199
 20
12.70794383355624
 30
0.0
 10
49.50660188150219
 20
12.69674107307638
 30
0.0
 10
49.50471737519585
 20
12.66486796198811
 30
0.0
 10
49.50363726267855
 20
12.64252835893229
 30
0.0
 10
49.50268948931579
 20
12.61808794461333
 30
0.0
 10
49.50256720503763
 20
12.61480672765292
 30
0.0
 10
49.50240926173407
 20
12.61042655445393
 30
0.0
 10
49.50236233201479
 20
12.60910207428282
 30
0.0
 10
49.50227923700467
 20
12.6067261296892
 30
0.0
 10
49.50224296897965
 20
12.60567187825499
 30
0.0
 10
49.50215684027219
 20
12.60314744335273
 30
0.0
 10
49.50213183926885
 20
12.60239115454307
 30
0.0
 10
49.50207977184875
 20
12.6008256059537
 30
0.0
 10
49.50205407915891
 20
12.6000671168627
 30
0.0
 10
49.50188652326898
 20
12.59481726838672
 30
0.0
 10
49.50174005530866
 20
12.59008415534153
 30
0.0
 10
49.5013370962933
 20
12.5760196133503
 30
0.0
 10
49.50107974838844
 20
12.56579289620255
 30
0.0
 10
49.50064495691403
 20
12.54539672706427
 30
0.0
 10
49.50046315692606
 20
12.53514689815565
 30
0.0
 10
49.50017749194991
 20
12.51574047518123
 30
0.0
 10
49.50007420982564
 20
12.50646733056803
 30
0.0
 10
49.50001270370321
 20
12.4999998790194
 30
0.0
  0
SPLINE
  5
B472
330
B46A
100
AcDbEntity
  8
0
100
AcDbSpline
210
0.0
220
0.0
230
1.0
 70
     8
 71
     3
 72
    10
 73
     6
 74
     0
 42
0.000000001
 43
0.0000000001
 40
0.0151313066474817
 40
0.0151313066474817
 40
0.0151313066474817
 40
0.0151313066474817
 40
0.0171749156479712
 40
0.0171749156479712
 40
0.0184199763868811
 40
0.0184199763868811
 40
0.0184199763868811
 40
0.0184199763868811
 10
49.50034648599157
 20
12.5271859362311
 30
0.0
 10
49.50026744377446
 20
12.52166108344054
 30
0.0
 10
49.50019757810165
 20
12.51602967932177
 30
0.0
 10
49.50010254081654
 20
12.5069229624338
 30
0.0
 10
49.50007042309167
 20
12.50346143023516
 30
0.0
 10
49.50004220846263
 20
12.49999966335058
 30
0.0
  0
SPLINE
  5
B473
330
B46A
100
AcDbEntity
  8
0
100
AcDbSpline
210
0.0
220
0.0
230
1.0
 70
     8
 71
     3
 72
     8
 73
     4
 74
     0
 42
0.000000001
 43
0.0000000001
 40
0.0027210751699135
 40
0.0027210751699135
 40
0.0027210751699135
 40
0.0027210751699135
 40
0.0068644405539651
 40
0.0068644405539651
 40
0.0068644405539651
 40
0.0068644405539651
 10
49.50001376180653
 20
12.50201328599355
 30
0.0
 10
49.50001376180653
 20
12.50201328599364
 30
0.0
 10
49.5000048122225
 20
12.50061776653815
 30
0.0
 10
49.50000150955262
 20
12.49999999157726
 30
0.0
  0
SPLINE
  5
B474
330
B46A
100
AcDbEntity
  8
0
100
AcDbSpline
210
0.0
220
0.0
230
1.0
 70
     8
 71
     3
 72
     8
 73
     4
 74
     0
 42
0.000000001
 43
0.0000000001
 40
0.0
 40
0.0
 40
0.0
 40
0.0
 40
0.0015511722983815
 40
0.0015511722983815
 40
0.0015511722983815
 40
0.0015511722983815
 10
47.49955984654376
 20
12.50000111615405
 30
0.0
 10
47.49956565327774
 20
12.5044688109891
 30
0.0
 10
47.49957076641543
 20
12.50884708260193
 30
0.0
 10
47.49957512909048
 20
12.51307591325776
 30
0.0
  0
SPLINE
  5
B475
330
B46A
100
AcDbEntity
  8
0
100
AcDbSpline
210
0.0
220
0.0
230
1.0
 70
     8
 71
     3
 72
    16
 73
    12
 74
     0
 42
0.000000001
 43
0.0000000001
 40
0.0
 40
0.0
 40
0.0
 40
0.0
 40
0.0021186903183436
 40
0.0021186903183436
 40
0.003796362243425
 40
0.003796362243425
 40
0.0060490246060891
 40
0.0060490246060891
 40
0.0082160876371513
 40
0.0082160876371513
 40
0.0100715292477015
 40
0.0100715292477015
 40
0.0100715292477015
 40
0.0100715292477015
 10
47.49977770474592
 20
12.49999658852569
 30
0.0
 10
47.49967060329772
 20
12.50696252732643
 30
0.0
 10
47.49956026510975
 20
12.51406431368454
 30
0.0
 10
47.49936153564211
 20
12.52670812235231
 30
0.0
 10
47.49927271955062
 20
12.5323057042231
 30
0.0
 10
47.49907108297832
 20
12.54490249806602
 30
0.0
 10
47.49895813000725
 20
12.55187274941724
 30
0.0
 10
47.49876083651513
 20
12.5639500409314
 30
0.0
 10
47.4986733894712
 20
12.56925360657382
 30
0.0
 10
47.49853375460181
 20
12.57766822550514
 30
0.0
 10
47.49847718641958
 20
12.58105233989391
 30
0.0
 10
47.49842789893863
 20
12.58398349765627
 30
0.0
  0
SPLINE
  5
B476
330
B46A
100
AcDbEntity
  8
0
100
AcDbSpline
210
0.0
220
0.0
230
1.0
 70
     8
 71
     3
 72
    34
 73
    30
 74
     0
 42
0.000000001
 43
0.0000000001
 40
0.0018967486148771
 40
0.0018967486148771
 40
0.0018967486148771
 40
0.0018967486148771
 40
0.0067931727408926
 40
0.0067931727408926
 40
0.0148581913991154
 40
0.0148581913991154
 40
0.0216571849510311
 40
0.0216571849510311
 40
0.0241181698208641
 40
0.0241181698208641
 40
0.0262721312893386
 40
0.0262721312893386
 40
0.0291183871735285
 40
0.0291183871735285
 40
0.0315307517497257
 40
0.0315307517497257
 40
0.0346506122145893
 40
0.0346506122145893
 40
0.0395925135316576
 40
0.0395925135316576
 40
0.0489047057978791
 40
0.0489047057978791
 40
0.0719038675188174
 40
0.0719038675188174
 40
0.1414750767115794
 40
0.1414750767115794
 40
0.2235355590860078
 40
0.2235355590860078
 40
0.266686639008321
 40
0.266686639008321
 40
0.266686639008321
 40
0.266686639008321
 10
47.49993348246994
 20
12.50385613497221
 30
0.0
 10
47.49986349834569
 20
12.50787307651956
 30
0.0
 10
47.49976194066526
 20
12.51360745676609
 30
0.0
 10
47.49943617417069
 20
12.53150105627728
 30
0.0
 10
47.49917378848445
 20
12.54547918881532
 30
0.0
 10
47.49862147144082
 20
12.57412870358955
 30
0.0
 10
47.49834194998496
 20
12.58837000348501
 30
0.0
 10
47.49789286582283
 20
12.61130009474138
 30
0.0
 10
47.49776556552084
 20
12.61780805731399
 30
0.0
 10
47.49751102450344
 20
12.63092153281941
 30
0.0
 10
47.49738418129819
 20
12.63749612150431
 30
0.0
 10
47.49708160589363
 20
12.6533917952309
 30
0.0
 10
47.49689912507513
 20
12.66314764543102
 30
0.0
 10
47.49658164241532
 20
12.68063166727454
 30
0.0
 10
47.49644054032216
 20
12.68860765057688
 30
0.0
 10
47.49613963782931
 20
12.70613331563929
 30
0.0
 10
47.49598354297986
 20
12.71562310002948
 30
0.0
 10
47.49561575507507
 20
12.73897260133473
 30
0.0
 10
47.4954213301408
 20
12.75235297856199
 30
0.0
 10
47.49492632689793
 20
12.78908043141235
 30
0.0
 10
47.49467887819486
 20
12.81107671464699
 30
0.0
 10
47.49397376949115
 20
12.88483561344978
 30
0.0
 10
47.49373075698922
 20
12.93325150224933
 30
0.0
 10
47.49330497044929
 20
13.13524562494967
 30
0.0
 10
47.49455226236499
 20
13.31157794653756
 30
0.0
 10
47.49793368890074
 20
13.73303281736463
 30
0.0
 10
47.49943792246626
 20
13.98842737781312
 30
0.0
 10
47.49998946837764
 20
14.3939748374084
 30
0.0
 10
47.49998278962568
 20
14.53728082188749
 30
0.0
 10
47.49999053642925
 20
14.68062727203053
 30
0.0
  0
SPLINE
  5
B477
330
B46A
100
AcDbEntity
  8
0
100
AcDbSpline
210
0.0
220
0.0
230
1.0
 70
     8
 71
     3
 72
    12
 73
     8
 74
     0
 42
0.000000001
 43
0.0000000001
 40
0.0
 40
0.0
 40
0.0
 40
0.0
 40
0.0029758243232362
 40
0.0029758243232362
 40
0.005821525678005
 40
0.005821525678005
 40
0.0072783704108143
 40
0.0072783704108143
 40
0.0072783704108143
 40
0.0072783704108143
 10
47.49994049721224
 20
12.49999988528013
 30
0.0
 10
47.49992880390226
 20
12.50662154037124
 30
0.0
 10
47.49991806857508
 20
12.51206107435211
 30
0.0
 10
47.4999016442036
 20
12.51957099871208
 30
0.0
 10
47.49989565462394
 20
12.52187994613294
 30
0.0
 10
47.49989113238854
 20
12.52353292889655
 30
0.0
 10
47.49989035560481
 20
12.52378814464486
 30
0.0
 10
47.49989035560489
 20
12.52378814461498
 30
0.0
  0
LINE
  5
B478
330
B46A
100
AcDbEntity
  8
0
100
AcDbLine
 10
45.49999999999998
 20
-2.0
 30
0.0
 11
-45.49999999999998
 21
-2.000000000000003
 31
0.0
  0
LINE
  5
B479
330
B46A
100
AcDbEntity
  8
0
100
AcDbLine
 10
-45.49999999999998
 20
0.0
 30
0.0
 11
45.49999999999998
 21
0.0
 31
0.0
  0
LINE
  5
B47A
330
B46A
100
AcDbEntity
  8
0
100
AcDbLine
 10
-51.42566083936404
 20
15.06250000000005
 30
0.0
 11
-49.50000000000001
 21
15.06250000000005
 31
0.0
  0
LINE
  5
B47B
330
B46A
100
AcDbEntity
  8
0
100
AcDbLine
 10
-51.5
 20
15.06250000000005
 30
0.0
 11
-51.42566083936404
 21
15.06250000000005
 31
0.0
  0
LINE
  5
B47C
330
B46A
100
AcDbEntity
  8
0
100
AcDbLine
 10
-52.056919482566
 20
15.06250000000005
 30
0.0
 11
-51.5
 21
15.06250000000005
 31
0.0
  0
SPLINE
  5
B47D
330
B46A
100
AcDbEntity
  8
0
100
AcDbSpline
210
0.0
220
0.0
230
1.0
 70
     8
 71
     3
 72
    17
 73
    13
 74
     0
 42
0.000000001
 43
0.0000000001
 40
0.0
 40
0.0
 40
0.0
 40
0.0
 40
0.3704689058693629
 40
0.3704689058693629
 40
0.3704689058693629
 40
0.7029757053307318
 40
0.7029757053307318
 40
0.7029757053307318
 40
0.9335813790875445
 40
0.9335813790875445
 40
0.9335813790875445
 40
0.9938196524761789
 40
0.9938196524761789
 40
0.9938196524761789
 40
0.9938196524761789
 10
-52.10606060606068
 20
15.06249999999997
 30
0.0
 10
-51.75310981611439
 20
14.77455844103359
 30
0.0
 10
-51.30994835338928
 20
14.54087523495477
 30
0.0
 10
-50.88299606376502
 20
14.28869659270399
 30
0.0
 10
-50.4997937569141
 20
14.06235880321919
 30
0.0
 10
-50.13742190750897
 20
13.82332829808175
 30
0.0
 10
-49.87998709144348
 20
13.51709169610365
 30
0.0
 10
-49.70144659451706
 20
13.3047053688389
 30
0.0
 10
-49.57197149374566
 20
13.05383081506291
 30
0.0
 10
-49.52188707330079
 20
12.76575225715945
 30
0.0
 10
-49.50880413842707
 20
12.69050105173294
 30
0.0
 10
-49.50144719264941
 20
12.6144602249444
 30
0.0
 10
-49.5001929305846
 20
12.52721777758349
 30
0.0
  0
SPLINE
  5
B47E
330
B46A
100
AcDbEntity
  8
0
100
AcDbSpline
210
0.0
220
0.0
230
1.0
 70
     8
 71
     3
 72
     8
 73
     4
 74
     0
 42
0.000000001
 43
0.0000000001
 40
0.0195591670530947
 40
0.0195591670530947
 40
0.0195591670530947
 40
0.0195591670530947
 40
0.0211163846199341
 40
0.0211163846199341
 40
0.0211163846199341
 40
0.0211163846199341
 10
-47.4995752264966
 20
12.51307786960119
 30
0.0
 10
-47.49957087697392
 20
12.50886162934653
 30
0.0
 10
-47.49956567528451
 20
12.50448571440937
 30
0.0
 10
-47.49955984587097
 20
12.50000059851653
 30
0.0
  0
SPLINE
  5
B47F
330
B46A
100
AcDbEntity
  8
0
100
AcDbSpline
210
0.0
220
0.0
230
1.0
 70
     8
 71
     3
 72
    16
 73
    12
 74
     0
 42
0.000000001
 43
0.0000000001
 40
0.0328571687881882
 40
0.0328571687881882
 40
0.0328571687881882
 40
0.0328571687881882
 40
0.0346121739807449
 40
0.0346121739807449
 40
0.0362943908168542
 40
0.0362943908168542
 40
0.0388726343713298
 40
0.0388726343713298
 40
0.0410449476084464
 40
0.0410449476084464
 40
0.0429128557276675
 40
0.0429128557276675
 40
0.0429128557276675
 40
0.0429128557276675
 10
-47.4984288409951
 20
12.58392748132591
 30
0.0
 10
-47.49847556636922
 20
12.58114849823777
 30
0.0
 10
-47.4985287613263
 20
12.577966714703
 30
0.0
 10
-47.49864665535171
 20
12.57086662527894
 30
0.0
 10
-47.49871142262081
 20
12.56694586353071
 30
0.0
 10
-47.49889097016853
 20
12.55600293225731
 30
0.0
 10
-47.49901757415466
 20
12.54822182196667
 30
0.0
 10
-47.4992592846539
 20
12.53315934941959
 30
0.0
 10
-47.49937543020088
 20
12.52584026703915
 30
0.0
 10
-47.49958650281214
 20
12.51237473933733
 30
0.0
 10
-47.49968328022919
 20
12.50613801241023
 30
0.0
 10
-47.49977770444547
 20
12.49999660806825
 30
0.0
  0
SPLINE
  5
B480
330
B46A
100
AcDbEntity
  8
0
100
AcDbSpline
210
0.0
220
0.0
230
1.0
 70
     8
 71
     3
 72
    12
 73
     8
 74
     0
 42
0.000000001
 43
0.0000000001
 40
0.0136369348249516
 40
0.0136369348249516
 40
0.0136369348249516
 40
0.0136369348249516
 40
0.0164694694586886
 40
0.0164694694586886
 40
0.0184311004259202
 40
0.0184311004259202
 40
0.0209172889721098
 40
0.0209172889721098
 40
0.0209172889721098
 40
0.0209172889721098
 10
-47.4998903556049
 20
12.52378814461004
 30
0.0
 10
-47.49989035560481
 20
12.52378814464645
 30
0.0
 10
-47.49989338796209
 20
12.52279922142732
 30
0.0
 10
-47.49990290153626
 20
12.51893262387747
 30
0.0
 10
-47.49990804541194
 20
12.51671389060164
 30
0.0
 10
-47.49992165032721
 20
12.51024278821974
 30
0.0
 10
-47.49993072789767
 20
12.50553202568533
 30
0.0
 10
-47.4999404972156
 20
12.49999988338439
 30
0.0
  0
SPLINE
  5
B481
330
B46A
100
AcDbEntity
  8
0
100
AcDbSpline
210
0.0
220
0.0
230
1.0
 70
     8
 71
     3
 72
    32
 73
    28
 74
     0
 42
0.000000001
 43
0.0000000001
 40
0.0
 40
0.0
 40
0.0
 40
0.0
 40
0.0776272495725675
 40
0.0776272495725675
 40
0.1568375370718615
 40
0.1568375370718615
 40
0.1970113534569942
 40
0.1970113534569942
 40
0.2169380188304899
 40
0.2169380188304899
 40
0.2318872569655736
 40
0.2318872569655736
 40
0.2359017661796375
 40
0.2359017661796375
 40
0.2378323829800571
 40
0.2378323829800571
 40
0.2397683934461432
 40
0.2397683934461432
 40
0.2417039601005793
 40
0.2417039601005793
 40
0.2456025933108874
 40
0.2456025933108874
 40
0.2533492539779512
 40
0.2533492539779512
 40
0.2645733248037446
 40
0.2645733248037446
 40
0.2647523370953959
 40
0.2647523370953959
 40
0.2647523370953959
 40
0.2647523370953959
 10
-47.49999053642817
 20
14.68062725272539
 30
0.0
 10
-47.49997660020901
 20
14.422752115486
 30
0.0
 10
-47.49994864798882
 20
14.16281406242633
 30
0.0
 10
-47.49779571009409
 20
13.68065863320186
 30
0.0
 10
-47.49540694681117
 20
13.45137856145784
 30
0.0
 10
-47.49366130176899
 20
13.14942481371296
 30
0.0
 10
-47.49342296782621
 20
13.05634266190827
 30
0.0
 10
-47.49377696198364
 20
12.92576147717802
 30
0.0
 10
-47.49400311734114
 20
12.8834633304077
 30
0.0
 10
-47.49473243558372
 20
12.80438432941685
 30
0.0
 10
-47.49514583869657
 20
12.76898216154191
 30
0.0
 10
-47.49600422919537
 20
12.71426550426124
 30
0.0
 10
-47.49620965837203
 20
12.70187758970061
 30
0.0
 10
-47.4965457899892
 20
12.68266796334023
 30
0.0
 10
-47.49666089553386
 20
12.67623865289491
 30
0.0
 10
-47.49689608121964
 20
12.66335983879161
 30
0.0
 10
-47.49701768736158
 20
12.65682799632003
 30
0.0
 10
-47.49725533592537
 20
12.64423759526555
 30
0.0
 10
-47.49737291446945
 20
12.63809510771511
 30
0.0
 10
-47.4977087566992
 20
12.62068474161249
 30
0.0
 10
-47.49791288192221
 20
12.61027405423728
 30
0.0
 10
-47.49846186467322
 20
12.5822594618966
 30
0.0
 10
-47.49876844221406
 20
12.56659054213476
 30
0.0
 10
-47.49943594623946
 20
12.53166947543724
 30
0.0
 10
-47.49976062111286
 20
12.51376624960132
 30
0.0
 10
-47.49992841496812
 20
12.50415082161117
 30
0.0
 10
-47.4999310082198
 20
12.50400209134773
 30
0.0
 10
-47.49993356010107
 20
12.50385561636417
 30
0.0
  0
SPLINE
  5
B482
330
B46A
100
AcDbEntity
  8
0
100
AcDbSpline
210
0.0
220
0.0
230
1.0
 70
     8
 71
     3
 72
    16
 73
    12
 74
     0
 42
0.000000001
 43
0.0000000001
 40
0.0
 40
0.0
 40
0.0
 40
0.0
 40
0.0048245591306824
 40
0.0048245591306824
 40
0.0084632891483174
 40
0.0084632891483174
 40
0.009479880818518
 40
0.009479880818518
 40
0.0099662897645485
 40
0.0099662897645485
 40
0.0100234587469514
 40
0.0100234587469514
 40
0.0100234587469514
 40
0.0100234587469514
 10
-49.50004220846267
 20
12.49999966335058
 30
0.0
 10
-49.50015153898916
 20
12.51341386758024
 30
0.0
 10
-49.50032268957865
 20
12.52687141739267
 30
0.0
 10
-49.5007028507371
 20
12.54890463066883
 30
0.0
 10
-49.50090173287819
 20
12.55824126077714
 30
0.0
 10
-49.50111304302364
 20
12.56712883984126
 30
0.0
 10
-49.50115674477588
 20
12.56889787971331
 30
0.0
 10
-49.50119778523459
 20
12.57053633892873
 30
0.0
 10
-49.5012072668097
 20
12.57091044436134
 30
0.0
 10
-49.50120931528463
 20
12.57099134030981
 30
0.0
 10
-49.50120942614724
 20
12.57099571699027
 30
0.0
 10
-49.5012094261447
 20
12.57099571689017
 30
0.0
  0
SPLINE
  5
B483
330
B46A
100
AcDbEntity
  8
0
100
AcDbSpline
210
0.0
220
0.0
230
1.0
 70
     8
 71
     3
 72
    22
 73
    18
 74
     0
 42
0.000000001
 43
0.0000000001
 40
0.0
 40
0.0
 40
0.0
 40
0.0
 40
0.0032700619129588
 40
0.0032700619129588
 40
0.0073547717933263
 40
0.0073547717933263
 40
0.0134790967052683
 40
0.0134790967052683
 40
0.0266727730868901
 40
0.0266727730868901
 40
0.0338106035637073
 40
0.0338106035637073
 40
0.0369602733932253
 40
0.0369602733932253
 40
0.038615750039341
 40
0.038615750039341
 40
0.0391357752290432
 40
0.0391357752290432
 40
0.0391357752290432
 40
0.0391357752290432
 10
-49.50001270370322
 20
12.49999987901941
 30
0.0
 10
-49.50006057221404
 20
12.5050333173559
 30
0.0
 10
-49.50013333231855
 20
12.51178538137405
 30
0.0
 10
-49.50035309008296
 20
12.52820532006187
 30
0.0
 10
-49.50051468965683
 20
12.53822469438947
 30
0.0
 10
-49.50100170866473
 20
12.56300878265339
 30
0.0
 10
-49.50137875513092
 20
12.57796058888595
 30
0.0
 10
-49.50257920052391
 20
12.61791955131851
 30
0.0
 10
-49.50367212466662
 20
12.64669818049629
 30
0.0
 10
-49.50692053712427
 20
12.7023739998644
 30
0.0
 10
-49.50823603412217
 20
12.72096280894193
 30
0.0
 10
-49.50977350610493
 20
12.74041358679564
 30
0.0
 10
-49.51019627957524
 20
12.74542617802984
 30
0.0
 10
-49.51060631407532
 20
12.75017448577978
 30
0.0
 10
-49.51070578019796
 20
12.75129826493188
 30
0.0
 10
-49.5107561695528
 20
12.75186613881927
 30
0.0
 10
-49.51076237534561
 20
12.75193571311243
 30
0.0
 10
-49.51076237536349
 20
12.75193571331295
 30
0.0
  0
SPLINE
  5
B484
330
B46A
100
AcDbEntity
  8
0
100
AcDbSpline
210
0.0
220
0.0
230
1.0
 70
     8
 71
     3
 72
     8
 73
     4
 74
     0
 42
0.000000001
 43
0.0000000001
 40
0.0
 40
0.0
 40
0.0
 40
0.0
 40
0.0041433653864909
 40
0.0041433653864909
 40
0.0041433653864909
 40
0.0041433653864909
 10
-49.50000150955261
 20
12.49999999157726
 30
0.0
 10
-49.5000048122225
 20
12.5006177665406
 30
0.0
 10
-49.50001376180657
 20
12.50201328599833
 30
0.0
 10
-49.50001376180655
 20
12.50201328599679
 30
0.0
  0
ARC
  5
B485
330
B46A
100
AcDbEntity
  8
0
100
AcDbCircle
 10
-45.49999999999998
 20
2.0
 30
0.0
 40
4.000000000000003
100
AcDbArc
 50
180.0
 51
270.0
  0
ARC
  5
B486
330
B46A
100
AcDbEntity
  8
0
100
AcDbCircle
 10
-45.49999999999998
 20
2.0
 30
0.0
 40
2.000000000000001
100
AcDbArc
 50
180.0
 51
270.0
  0
ARC
  5
B487
330
B46A
100
AcDbEntity
  8
0
100
AcDbCircle
 10
45.49999999999998
 20
2.0
 30
0.0
 40
4.000000000000003
100
AcDbArc
 50
270.0
 51
0.0
  0
LINE
  5
B488
330
B46A
100
AcDbEntity
  8
0
100
AcDbLine
 10
52.10606060606068
 20
15.06250000000005
 30
0.0
 11
89.00000000000005
 21
45.49999999999997
 31
0.0
  0
LINE
  5
B489
330
B46A
100
AcDbEntity
  8
0
100
AcDbLine
 10
47.49999999999997
 20
12.5
 30
0.0
 11
47.49999999999999
 21
45.49999999999997
 31
0.0
  0
LINE
  5
B48A
330
B46A
100
AcDbEntity
  8
0
100
AcDbLine
 10
49.49999999999999
 20
12.5
 30
0.0
 11
47.49999999999997
 21
12.5
 31
0.0
  0
LINE
  5
B48B
330
B46A
100
AcDbEntity
  8
0
100
AcDbLine
 10
49.49999999999999
 20
45.49999999999997
 30
0.0
 11
49.49999999999999
 21
12.5
 31
0.0
  0
LINE
  5
B48C
330
B46A
100
AcDbEntity
  8
0
100
AcDbLine
 10
49.49999999999999
 20
45.49999999999997
 30
0.0
 11
47.49999999999999
 21
45.49999999999997
 31
0.0
  0
LINE
  5
B48D
330
B46A
100
AcDbEntity
  8
0
100
AcDbLine
 10
47.49999999999999
 20
45.49999999999997
 30
0.0
 11
47.49999999999999
 21
172.5
 31
0.0
  0
LINE
  5
B48E
330
B46A
100
AcDbEntity
  8
0
100
AcDbLine
 10
49.49999999999999
 20
172.5
 30
0.0
 11
49.49999999999999
 21
45.49999999999997
 31
0.0
  0
LINE
  5
B48F
330
B46A
100
AcDbEntity
  8
0
100
AcDbLine
 10
47.49999999999999
 20
172.5
 30
0.0
 11
49.49999999999999
 21
172.5
 31
0.0
  0
LINE
  5
B490
330
B46A
100
AcDbEntity
  8
0
100
AcDbLine
 10
49.49999999999999
 20
12.5
 30
0.0
 11
49.49999999999999
 21
1.999999999999999
 31
0.0
  0
LINE
  5
B491
330
B46A
100
AcDbEntity
  8
0
100
AcDbLine
 10
47.49999999999999
 20
2.0
 30
0.0
 11
47.49999999999997
 21
12.5
 31
0.0
  0
ARC
  5
B492
330
B46A
100
AcDbEntity
  8
0
100
AcDbCircle
 10
45.49999999999998
 20
2.0
 30
0.0
 40
2.000000000000001
100
AcDbArc
 50
270.0
 51
0.0
  0
LINE
  5
B493
330
B46A
100
AcDbEntity
  8
0
100
AcDbLine
 10
51.5
 20
172.5
 30
0.0
 11
49.5
 21
172.5
 31
0.0
  0
LINE
  5
B494
330
B46A
100
AcDbEntity
  8
0
100
AcDbLine
 10
89.00000000000005
 20
45.49999999999997
 30
0.0
 11
89.0
 21
172.5
 31
0.0
  0
LINE
  5
B495
330
B46A
100
AcDbEntity
  8
0
100
AcDbLine
 10
89.0
 20
172.5
 30
0.0
 11
51.5
 21
172.5
 31
0.0
  0
CIRCLE
  5
B496
330
B46A
100
AcDbEntity
  8
0
100
AcDbCircle
 10
69.5
 20
152.5
 30
0.0
 40
6.5
  0
CIRCLE
  5
B497
330
B46A
100
AcDbEntity
  8
0
100
AcDbCircle
 10
80.5
 20
167.5
 30
0.0
 40
2.5
  0
LINE
  5
B498
330
B46A
100
AcDbEntity
  8
0
100
AcDbLine
 10
-89.00000000000005
 20
45.49999999999997
 30
0.0
 11
-52.10606060606068
 21
15.06250000000005
 31
0.0
  0
LINE
  5
B499
330
B46A
100
AcDbEntity
  8
0
100
AcDbLine
 10
-47.49999999999999
 20
45.49999999999997
 30
0.0
 11
-47.49999999999997
 21
12.5
 31
0.0
  0
LINE
  5
B49A
330
B46A
100
AcDbEntity
  8
0
100
AcDbLine
 10
-49.49999999999999
 20
45.49999999999997
 30
0.0
 11
-47.49999999999999
 21
45.49999999999997
 31
0.0
  0
LINE
  5
B49B
330
B46A
100
AcDbEntity
  8
0
100
AcDbLine
 10
-49.49999999999999
 20
12.5
 30
0.0
 11
-49.49999999999999
 21
45.49999999999997
 31
0.0
  0
LINE
  5
B49C
330
B46A
100
AcDbEntity
  8
0
100
AcDbLine
 10
-47.49999999999997
 20
12.5
 30
0.0
 11
-49.49999999999999
 21
12.5
 31
0.0
  0
LINE
  5
B49D
330
B46A
100
AcDbEntity
  8
0
100
AcDbLine
 10
-47.49999999999999
 20
172.5
 30
0.0
 11
-47.49999999999999
 21
45.49999999999997
 31
0.0
  0
LINE
  5
B49E
330
B46A
100
AcDbEntity
  8
0
100
AcDbLine
 10
-49.49999999999999
 20
172.5
 30
0.0
 11
-47.49999999999999
 21
172.5
 31
0.0
  0
LINE
  5
B49F
330
B46A
100
AcDbEntity
  8
0
100
AcDbLine
 10
-49.49999999999999
 20
45.49999999999997
 30
0.0
 11
-49.49999999999999
 21
172.5
 31
0.0
  0
CIRCLE
  5
B4A0
330
B46A
100
AcDbEntity
  8
0
100
AcDbCircle
 10
-69.5
 20
52.5
 30
0.0
 40
6.5
  0
CIRCLE
  5
B4A1
330
B46A
100
AcDbEntity
  8
0
100
AcDbCircle
 10
69.5
 20
52.5
 30
0.0
 40
6.5
  0
CIRCLE
  5
B4A2
330
B46A
100
AcDbEntity
  8
0
100
AcDbCircle
 10
-69.5
 20
152.5
 30
0.0
 40
6.5
  0
CIRCLE
  5
B4A3
330
B46A
100
AcDbEntity
  8
0
100
AcDbCircle
 10
-58.5
 20
37.5
 30
0.0
 40
2.5
  0
CIRCLE
  5
B4A4
330
B46A
100
AcDbEntity
  8
0
100
AcDbCircle
 10
-58.5
 20
57.5
 30
0.0
 40
2.5
  0
CIRCLE
  5
B4A5
330
B46A
100
AcDbEntity
  8
0
100
AcDbCircle
 10
-58.5
 20
77.5
 30
0.0
 40
2.5
  0
CIRCLE
  5
B4A6
330
B46A
100
AcDbEntity
  8
0
100
AcDbCircle
 10
-58.5
 20
97.5
 30
0.0
 40
2.5
  0
CIRCLE
  5
B4A7
330
B46A
100
AcDbEntity
  8
0
100
AcDbCircle
 10
-58.5
 20
117.5
 30
0.0
 40
2.5
  0
CIRCLE
  5
B4A8
330
B46A
100
AcDbEntity
  8
0
100
AcDbCircle
 10
-58.5
 20
137.5
 30
0.0
 40
2.5
  0
CIRCLE
  5
B4A9
330
B46A
100
AcDbEntity
  8
0
100
AcDbCircle
 10
58.5
 20
37.5
 30
0.0
 40
2.5
  0
CIRCLE
  5
B4AA
330
B46A
100
AcDbEntity
  8
0
100
AcDbCircle
 10
58.5
 20
57.5
 30
0.0
 40
2.5
  0
CIRCLE
  5
B4AB
330
B46A
100
AcDbEntity
  8
0
100
AcDbCircle
 10
58.5
 20
77.5
 30
0.0
 40
2.5
  0
CIRCLE
  5
B4AC
330
B46A
100
AcDbEntity
  8
0
100
AcDbCircle
 10
58.5
 20
97.5
 30
0.0
 40
2.5
  0
CIRCLE
  5
B4AD
330
B46A
100
AcDbEntity
  8
0
100
AcDbCircle
 10
58.5
 20
117.5
 30
0.0
 40
2.5
  0
CIRCLE
  5
B4AE
330
B46A
100
AcDbEntity
  8
0
100
AcDbCircle
 10
58.5
 20
137.5
 30
0.0
 40
2.5
  0
CIRCLE
  5
B4AF
330
B46A
100
AcDbEntity
  8
0
100
AcDbCircle
 10
-58.5
 20
157.5
 30
0.0
 40
2.5
  0
CIRCLE
  5
B4B0
330
B46A
100
AcDbEntity
  8
0
100
AcDbCircle
 10
58.5
 20
157.5
 30
0.0
 40
2.5
  0
CIRCLE
  5
B4B1
330
B46A
100
AcDbEntity
  8
0
100
AcDbCircle
 10
-80.5
 20
47.5
 30
0.0
 40
2.5
  0
CIRCLE
  5
B4B2
330
B46A
100
AcDbEntity
  8
0
100
AcDbCircle
 10
-80.5
 20
67.5
 30
0.0
 40
2.5
  0
CIRCLE
  5
B4B3
330
B46A
100
AcDbEntity
  8
0
100
AcDbCircle
 10
-80.5
 20
87.5
 30
0.0
 40
2.5
  0
CIRCLE
  5
B4B4
330
B46A
100
AcDbEntity
  8
0
100
AcDbCircle
 10
-80.5
 20
107.5
 30
0.0
 40
2.5
  0
CIRCLE
  5
B4B5
330
B46A
100
AcDbEntity
  8
0
100
AcDbCircle
 10
-80.5
 20
127.5
 30
0.0
 40
2.5
  0
CIRCLE
  5
B4B6
330
B46A
100
AcDbEntity
  8
0
100
AcDbCircle
 10
-80.5
 20
147.5
 30
0.0
 40
2.5
  0
CIRCLE
  5
B4B7
330
B46A
100
AcDbEntity
  8
0
100
AcDbCircle
 10
80.5
 20
47.5
 30
0.0
 40
2.5
  0
CIRCLE
  5
B4B8
330
B46A
100
AcDbEntity
  8
0
100
AcDbCircle
 10
80.5
 20
67.5
 30
0.0
 40
2.5
  0
CIRCLE
  5
B4B9
330
B46A
100
AcDbEntity
  8
0
100
AcDbCircle
 10
80.5
 20
87.5
 30
0.0
 40
2.5
  0
CIRCLE
  5
B4BA
330
B46A
100
AcDbEntity
  8
0
100
AcDbCircle
 10
80.5
 20
107.5
 30
0.0
 40
2.5
  0
CIRCLE
  5
B4BB
330
B46A
100
AcDbEntity
  8
0
100
AcDbCircle
 10
80.5
 20
127.5
 30
0.0
 40
2.5
  0
CIRCLE
  5
B4BC
330
B46A
100
AcDbEntity
  8
0
100
AcDbCircle
 10
80.5
 20
147.5
 30
0.0
 40
2.5
  0
CIRCLE
  5
B4BD
330
B46A
100
AcDbEntity
  8
0
100
AcDbCircle
 10
-80.5
 20
167.5
 30
0.0
 40
2.5
  0
LINE
  5
B4BE
330
B46A
100
AcDbEntity
  8
0
100
AcDbLine
 10
-89.0
 20
172.5
 30
0.0
 11
-51.5
 21
172.5
 31
0.0
  0
LINE
  5
B4BF
330
B46A
100
AcDbEntity
  8
0
100
AcDbLine
 10
-89.00000000000005
 20
45.49999999999997
 30
0.0
 11
-89.0
 21
172.5
 31
0.0
  0
LINE
  5
B4C0
330
B46A
100
AcDbEntity
  8
0
100
AcDbLine
 10
-47.49999999999999
 20
2.0
 30
0.0
 11
-47.49999999999997
 21
12.5
 31
0.0
  0
LINE
  5
B4C1
330
B46A
100
AcDbEntity
  8
0
100
AcDbLine
 10
-49.49999999999999
 20
12.5
 30
0.0
 11
-49.49999999999999
 21
1.999999999999999
 31
0.0
  0
LINE
  5
B4C2
330
B46A
100
AcDbEntity
  8
0
100
AcDbLine
 10
-51.5
 20
172.5
 30
0.0
 11
-49.5
 21
172.5
 31
0.0
  0
ENDBLK
  5
B46C
330
B46A
100
AcDbEntity
  8
0
100
AcDbBlockEnd
  0
BLOCK
  5
B4C4
330
B4C3
100
AcDbEntity
  8
0
100
AcDbBlockBegin
  2
SAE440_95_2-Left
 70
     0
 10
0.0
 20
0.0
 30
0.0
  3
SAE440_95_2-Left
  1

  0
LINE
  5
B4C6
330
B4C3
100
AcDbEntity
  8
0
100
AcDbLine
 10
1.999999999999997
 20
-2.0
 30
0.0
 11
86.00000000000001
 21
-2.000000000000003
 31
0.0
  0
LINE
  5
B4C7
330
B4C3
100
AcDbEntity
  8
0
100
AcDbLine
 10
2.000000000000002
 20
2.000000000000004
 30
0.0
 11
1.999999999999997
 21
-1.999999999999999
 31
0.0
  0
LINE
  5
B4C8
330
B4C3
100
AcDbEntity
  8
0
100
AcDbLine
 10
86.00000000000001
 20
-2.000000000000003
 30
0.0
 11
86.00000000000001
 21
2.0
 31
0.0
  0
SPLINE
  5
B4C9
330
B4C3
100
AcDbEntity
  8
0
100
AcDbSpline
210
0.0
220
0.0
230
1.0
 70
     8
 71
     3
 72
    17
 73
    13
 74
     0
 42
0.000000001
 43
0.0000000001
 40
-0.9642391866722778
 40
-0.9642391866722778
 40
-0.9642391866722778
 40
-0.9642391866722778
 40
-0.7907552673887423
 40
-0.7907552673887423
 40
-0.7907552673887423
 40
-0.3883396848776792
 40
-0.3883396848776792
 40
-0.3883396848776792
 40
-0.1053184206031904
 40
-0.1053184206031904
 40
-0.1053184206031904
 40
0.0
 40
0.0
 40
0.0
 40
0.0
 10
1.991418259919287
 20
12.73869885963517
 30
0.0
 10
1.966312612900586
 20
13.10755087107366
 30
0.0
 10
1.887915385274417
 20
13.39349071919278
 30
0.0
 10
1.773393535455381
 20
13.60014472428132
 30
0.0
 10
1.507747145314448
 20
14.07950207439993
 30
0.0
 10
1.052077259781165
 20
14.19581939513375
 30
0.0
 10
0.6711423121729422
 20
14.32272340324753
 30
0.0
 10
0.4032285057401319
 20
14.41197574430685
 30
0.0
 10
0.16932905421774
 20
14.51102292128872
 30
0.0
 10
0.0606817918166896
 20
14.739875587009
 30
0.0
 10
0.020251762263004
 20
14.82503668388374
 30
0.0
 10
0.0000166268648443
 20
14.93287618702914
 30
0.0
 10
0.0000000000000003
 20
15.06250000000003
 30
0.0
  0
LINE
  5
B4CA
330
B4C3
100
AcDbEntity
  8
0
100
AcDbLine
 10
2.000000000000011
 20
15.06250000000005
 30
0.0
 11
2.001382055220184
 21
15.06250000000005
 31
0.0
  0
SPLINE
  5
B4CB
330
B4C3
100
AcDbEntity
  8
0
100
AcDbSpline
210
0.0
220
0.0
230
1.0
 70
     8
 71
     3
 72
    17
 73
    13
 74
     0
 42
0.000000001
 43
0.0000000001
 40
0.0
 40
0.0
 40
0.0
 40
0.0
 40
0.3704689058693629
 40
0.3704689058693629
 40
0.3704689058693629
 40
0.7029757053307318
 40
0.7029757053307318
 40
0.7029757053307318
 40
0.9335813790875445
 40
0.9335813790875445
 40
0.9335813790875445
 40
1.0
 40
1.0
 40
1.0
 40
1.0
 10
2.000000000000005
 20
15.06249999999997
 30
0.0
 10
2.000006377019311
 20
14.77455844103359
 30
0.0
 10
2.000465619612689
 20
14.54087523495477
 30
0.0
 10
1.999851137318994
 20
14.28869659270399
 30
0.0
 10
1.999299621287377
 20
14.06235880321919
 30
0.0
 10
2.000043886462064
 20
13.82332829808175
 30
0.0
 10
2.000290307240734
 20
13.51709169610365
 30
0.0
 10
2.000461209098335
 20
13.3047053688389
 30
0.0
 10
2.000344409457291
 20
13.05383081506291
 30
0.0
 10
2.000001688218355
 20
12.76575225715945
 30
0.0
 10
1.999902978279104
 20
12.68278040213659
 30
0.0
 10
2.000565701782119
 20
12.59884858616481
 30
0.0
 10
2.00000000000014
 20
12.50000000000801
 30
0.0
  0
LINE
  5
B4CC
330
B4C3
100
AcDbEntity
  8
0
100
AcDbLine
 10
0.0
 20
15.06250000000005
 30
0.0
 11
2.000000000000005
 21
15.06250000000005
 31
0.0
  0
SPLINE
  5
B4CD
330
B4C3
100
AcDbEntity
  8
0
100
AcDbSpline
210
0.0
220
0.0
230
1.0
 70
     8
 71
     3
 72
    10
 73
     6
 74
     0
 42
0.000000001
 43
0.0000000001
 40
0.0
 40
0.0
 40
0.0
 40
0.0
 40
0.0047607362050679
 40
0.0047607362050679
 40
0.0080493786482045
 40
0.0080493786482045
 40
0.0080493786482045
 40
0.0080493786482045
 10
1.999902873730014
 20
12.50000018211954
 30
0.0
 10
1.999919832282134
 20
12.50926085573021
 30
0.0
 10
1.999899923496868
 20
12.5165183079179
 30
0.0
 10
1.999868525598388
 20
12.52379454521743
 30
0.0
 10
1.99985675221944
 20
12.52541231401083
 30
0.0
 10
1.999856752219881
 20
12.52541231394786
 30
0.0
  0
SPLINE
  5
B4CE
330
B4C3
100
AcDbEntity
  8
0
100
AcDbSpline
210
0.0
220
0.0
230
1.0
 70
     8
 71
     3
 72
    10
 73
     6
 74
     0
 42
0.000000001
 43
0.0000000001
 40
0.0023846217584982
 40
0.0023846217584982
 40
0.0023846217584982
 40
0.0023846217584982
 40
0.007295454969626
 40
0.007295454969626
 40
0.0088101693877718
 40
0.0088101693877718
 40
0.0088101693877718
 40
0.0088101693877718
 10
1.999907982834319
 20
12.50790703080808
 30
0.0
 10
1.999850802954368
 20
12.51317664660574
 30
0.0
 10
1.999790802121192
 20
12.51786466507271
 30
0.0
 10
1.999755200235981
 20
12.52050654761118
 30
0.0
 10
1.99975020329985
 20
12.52086783945961
 30
0.0
 10
1.999750203294607
 20
12.52086783984029
 30
0.0
  0
SPLINE
  5
B4CF
330
B4C3
100
AcDbEntity
  8
0
100
AcDbSpline
210
0.0
220
0.0
230
1.0
 70
     8
 71
     3
 72
    32
 73
    28
 74
     0
 42
0.000000001
 43
0.0000000001
 40
0.0017460495894038
 40
0.0017460495894038
 40
0.0017460495894038
 40
0.0017460495894038
 40
0.0049362173666308
 40
0.0049362173666308
 40
0.0136075452106432
 40
0.0136075452106432
 40
0.0157017063544275
 40
0.0157017063544275
 40
0.0187307324044965
 40
0.0187307324044965
 40
0.0214823019867877
 40
0.0214823019867877
 40
0.0252519500139837
 40
0.0252519500139837
 40
0.031587543127804
 40
0.031587543127804
 40
0.0456644157352035
 40
0.0456644157352035
 40
0.0667732371550411
 40
0.0667732371550411
 40
0.0825165677709182
 40
0.0825165677709182
 40
0.0966738650204071
 40
0.0966738650204071
 40
0.1029030771506123
 40
0.1029030771506123
 40
0.106592044921326
 40
0.106592044921326
 40
0.106592044921326
 40
0.106592044921326
 10
1.999909416755328
 20
12.50772628985462
 30
0.0
 10
1.99984726657451
 20
12.51289525282663
 30
0.0
 10
1.999770991952455
 20
12.51870953288626
 30
0.0
 10
1.999447828848597
 20
12.54063924685405
 30
0.0
 10
1.99916392123873
 20
12.55694762513597
 30
0.0
 10
1.99849351327177
 20
12.58502063456081
 30
0.0
 10
1.998344337775167
 20
12.59095202397976
 30
0.0
 10
1.997931874896356
 20
12.60633445511544
 30
0.0
 10
1.99764054854439
 20
12.61638174599822
 30
0.0
 10
1.997035115449463
 20
12.63554603636164
 30
0.0
 10
1.996720979263072
 20
12.64483095141337
 30
0.0
 10
1.995945012610249
 20
12.66636017202402
 30
0.0
 10
1.995465610159612
 20
12.67861339700753
 30
0.0
 10
1.994126232534885
 20
12.71052009923029
 30
0.0
 10
1.99322059056035
 20
12.72978942085203
 30
0.0
 10
1.990080783556565
 20
12.79046212745581
 30
0.0
 10
1.987547905665636
 20
12.83076287984008
 30
0.0
 10
1.980029006754344
 20
12.93019732192965
 30
0.0
 10
1.974401036781594
 20
12.9886977306177
 30
0.0
 10
1.962499624607069
 20
13.08544578507407
 30
0.0
 10
1.956677349822935
 20
13.12534410201633
 30
0.0
 10
1.945515684587596
 20
13.19168004486423
 30
0.0
 10
1.940044357221413
 20
13.21965378339708
 30
0.0
 10
1.934901493405263
 20
13.24437191827776
 30
0.0
 10
1.933704217584137
 20
13.24987709611251
 30
0.0
 10
1.932673978568208
 20
13.25457717504881
 30
0.0
 10
1.932477075746505
 20
13.25545976093019
 30
0.0
 10
1.932477075745
 20
13.25545976093695
 30
0.0
  0
LINE
  5
B4D0
330
B4C3
100
AcDbEntity
  8
0
100
AcDbLine
 10
2.000000000000002
 20
2.000000000000003
 30
0.0
 11
2.000000000000002
 21
12.5
 31
0.0
  0
LINE
  5
B4D1
330
B4C3
100
AcDbEntity
  8
0
100
AcDbLine
 10
1.999999999999992
 20
45.49999999999997
 30
0.0
 11
2.000000000000005
 21
15.06250000000005
 31
0.0
  0
LINE
  5
B4D2
330
B4C3
100
AcDbEntity
  8
0
100
AcDbLine
 10
0.0
 20
45.49999999999997
 30
0.0
 11
1.999999999999992
 21
45.49999999999997
 31
0.0
  0
LINE
  5
B4D3
330
B4C3
100
AcDbEntity
  8
0
100
AcDbLine
 10
0.0
 20
15.06250000000005
 30
0.0
 11
0.0
 21
45.49999999999997
 31
0.0
  0
LINE
  5
B4D4
330
B4C3
100
AcDbEntity
  8
0
100
AcDbLine
 10
86.00000000000006
 20
12.5
 30
0.0
 11
46.00000000000004
 21
45.49999999999997
 31
0.0
  0
LINE
  5
B4D5
330
B4C3
100
AcDbEntity
  8
0
100
AcDbLine
 10
46.00000000000004
 20
45.49999999999997
 30
0.0
 11
46.00000000000001
 21
172.5
 31
0.0
  0
LINE
  5
B4D6
330
B4C3
100
AcDbEntity
  8
0
100
AcDbLine
 10
1.999999999999992
 20
45.49999999999997
 30
0.0
 11
2.00000000000001
 21
172.5
 31
0.0
  0
LINE
  5
B4D7
330
B4C3
100
AcDbEntity
  8
0
100
AcDbLine
 10
86.00000000000006
 20
12.5
 30
0.0
 11
86.00000000000001
 21
1.999999999999999
 31
0.0
  0
LINE
  5
B4D8
330
B4C3
100
AcDbEntity
  8
0
100
AcDbLine
 10
4.000000000000003
 20
172.5
 30
0.0
 11
46.00000000000001
 21
172.5
 31
0.0
  0
LINE
  5
B4D9
330
B4C3
100
AcDbEntity
  8
0
100
AcDbLine
 10
0.0
 20
172.5
 30
0.0
 11
2.00000000000001
 21
172.5
 31
0.0
  0
LINE
  5
B4DA
330
B4C3
100
AcDbEntity
  8
0
100
AcDbLine
 10
0.0
 20
45.49999999999997
 30
0.0
 11
0.0
 21
172.5
 31
0.0
  0
LINE
  5
B4DB
330
B4C3
100
AcDbEntity
  8
0
100
AcDbLine
 10
2.000000000000002
 20
172.5
 30
0.0
 11
4.000000000000003
 21
172.5
 31
0.0
  0
CIRCLE
  5
B4DC
330
B4C3
100
AcDbEntity
  8
0
100
AcDbCircle
 10
38.50000000000001
 20
27.5
 30
0.0
 40
2.5
  0
CIRCLE
  5
B4DD
330
B4C3
100
AcDbEntity
  8
0
100
AcDbCircle
 10
38.50000000000001
 20
47.5
 30
0.0
 40
2.5
  0
CIRCLE
  5
B4DE
330
B4C3
100
AcDbEntity
  8
0
100
AcDbCircle
 10
38.50000000000001
 20
67.5
 30
0.0
 40
2.5
  0
CIRCLE
  5
B4DF
330
B4C3
100
AcDbEntity
  8
0
100
AcDbCircle
 10
38.50000000000001
 20
87.5
 30
0.0
 40
2.5
  0
CIRCLE
  5
B4E0
330
B4C3
100
AcDbEntity
  8
0
100
AcDbCircle
 10
38.50000000000001
 20
107.5
 30
0.0
 40
2.5
  0
CIRCLE
  5
B4E1
330
B4C3
100
AcDbEntity
  8
0
100
AcDbCircle
 10
38.50000000000001
 20
127.5
 30
0.0
 40
2.5
  0
CIRCLE
  5
B4E2
330
B4C3
100
AcDbEntity
  8
0
100
AcDbCircle
 10
38.50000000000001
 20
147.5
 30
0.0
 40
2.5
  0
CIRCLE
  5
B4E3
330
B4C3
100
AcDbEntity
  8
0
100
AcDbCircle
 10
38.50000000000001
 20
167.5
 30
0.0
 40
2.5
  0
SPLINE
  5
B4E4
330
B4C3
100
AcDbEntity
  8
0
100
AcDbSpline
210
0.0
220
0.0
230
1.0
 70
     8
 71
     3
 72
    20
 73
    16
 74
     0
 42
0.000000001
 43
0.0000000001
 40
0.0017456558272383
 40
0.0017456558272383
 40
0.0017456558272383
 40
0.0017456558272383
 40
0.0049367400810572
 40
0.0049367400810572
 40
0.01360980401096
 40
0.01360980401096
 40
0.015702487558822
 40
0.015702487558822
 40
0.0187307473399739
 40
0.0187307473399739
 40
0.0214824226481754
 40
0.0214824226481754
 40
0.0252523477497228
 40
0.0252523477497228
 40
0.0305682324571185
 40
0.0305682324571185
 40
0.0305682324571185
 40
0.0305682324571185
 10
1.999909416875818
 20
12.50772628085428
 30
0.0
 10
1.999847248917447
 20
12.51289672236602
 30
0.0
 10
1.999770948576983
 20
12.51871280805213
 30
0.0
 10
1.999447688734781
 20
12.54064785279235
 30
0.0
 10
1.999163708927311
 20
12.55695986062062
 30
0.0
 10
1.998493054246267
 20
12.58503904697481
 30
0.0
 10
1.998343946209202
 20
12.59096705329708
 30
0.0
 10
1.997931607372251
 20
12.60634381450254
 30
0.0
 10
1.997640337119002
 20
12.61638866697465
 30
0.0
 10
1.997034956699841
 20
12.63555085362898
 30
0.0
 10
1.996720801677161
 20
12.64483610048904
 30
0.0
 10
1.99594477442497
 20
12.66636647624445
 30
0.0
 10
1.995465328020198
 20
12.67862048130347
 30
0.0
 10
1.994261044168986
 20
12.70730809923379
 30
0.0
 10
1.993510226858669
 20
12.72356751600619
 30
0.0
 10
1.992710896853105
 20
12.7395003495201
 30
0.0
  0
ENDBLK
  5
B4C5
330
B4C3
100
AcDbEntity
  8
0
100
AcDbBlockEnd
  0
BLOCK
  5
B4E6
330
B4E5
100
AcDbEntity
  8
0
100
AcDbBlockBegin
  2
SAE440_95_2-Right
 70
     0
 10
0.0
 20
0.0
 30
0.0
  3
SAE440_95_2-Right
  1

  0
SPLINE
  5
B4E8
330
B4E5
100
AcDbEntity
  8
0
100
AcDbSpline
210
0.0
220
0.0
230
1.0
 70
     8
 71
     3
 72
    17
 73
    13
 74
     0
 42
0.000000001
 43
0.0000000001
 40
0.0
 40
0.0
 40
0.0
 40
0.0
 40
0.3704689058693629
 40
0.3704689058693629
 40
0.3704689058693629
 40
0.7029757053307318
 40
0.7029757053307318
 40
0.7029757053307318
 40
0.9335813790875445
 40
0.9335813790875445
 40
0.9335813790875445
 40
1.0
 40
1.0
 40
1.0
 40
1.0
 10
-2.000000000000005
 20
15.06249999999997
 30
0.0
 10
-2.000006377019311
 20
14.77455844103359
 30
0.0
 10
-2.000465619612689
 20
14.54087523495477
 30
0.0
 10
-1.999851137318994
 20
14.28869659270399
 30
0.0
 10
-1.999299621287377
 20
14.06235880321919
 30
0.0
 10
-2.000043886462064
 20
13.82332829808175
 30
0.0
 10
-2.000290307240734
 20
13.51709169610365
 30
0.0
 10
-2.000461209098335
 20
13.3047053688389
 30
0.0
 10
-2.000344409457291
 20
13.05383081506291
 30
0.0
 10
-2.000001688218355
 20
12.76575225715945
 30
0.0
 10
-1.999902978279104
 20
12.68278040213659
 30
0.0
 10
-2.000565701782119
 20
12.59884858616481
 30
0.0
 10
-2.00000000000014
 20
12.50000000000801
 30
0.0
  0
LINE
  5
B4E9
330
B4E5
100
AcDbEntity
  8
0
100
AcDbLine
 10
-2.001382055220184
 20
15.06250000000005
 30
0.0
 11
-2.000000000000011
 21
15.06250000000005
 31
0.0
  0
SPLINE
  5
B4EA
330
B4E5
100
AcDbEntity
  8
0
100
AcDbSpline
210
0.0
220
0.0
230
1.0
 70
     8
 71
     3
 72
    17
 73
    13
 74
     0
 42
0.000000001
 43
0.0000000001
 40
-0.9642391866723054
 40
-0.9642391866723054
 40
-0.9642391866723054
 40
-0.9642391866723054
 40
-0.7907552673887423
 40
-0.7907552673887423
 40
-0.7907552673887423
 40
-0.3883396848776792
 40
-0.3883396848776792
 40
-0.3883396848776792
 40
-0.1053184206031904
 40
-0.1053184206031904
 40
-0.1053184206031904
 40
0.0
 40
0.0
 40
0.0
 40
0.0
 10
-1.991418259919298
 20
12.73869885963498
 30
0.0
 10
-1.966312612900611
 20
13.10755087107357
 30
0.0
 10
-1.887915385274435
 20
13.39349071919275
 30
0.0
 10
-1.773393535455381
 20
13.60014472428132
 30
0.0
 10
-1.507747145314448
 20
14.07950207439993
 30
0.0
 10
-1.052077259781165
 20
14.19581939513375
 30
0.0
 10
-0.6711423121729422
 20
14.32272340324753
 30
0.0
 10
-0.4032285057401319
 20
14.41197574430685
 30
0.0
 10
-0.16932905421774
 20
14.51102292128872
 30
0.0
 10
-0.0606817918166896
 20
14.739875587009
 30
0.0
 10
-0.020251762263004
 20
14.82503668388374
 30
0.0
 10
-0.0000166268648443
 20
14.93287618702914
 30
0.0
 10
-0.0000000000000003
 20
15.06250000000003
 30
0.0
  0
LINE
  5
B4EB
330
B4E5
100
AcDbEntity
  8
0
100
AcDbLine
 10
-2.000000000000005
 20
15.06250000000005
 30
0.0
 11
0.0
 21
15.06250000000005
 31
0.0
  0
SPLINE
  5
B4EC
330
B4E5
100
AcDbEntity
  8
0
100
AcDbSpline
210
0.0
220
0.0
230
1.0
 70
     8
 71
     3
 72
    12
 73
     8
 74
     0
 42
0.000000001
 43
0.0000000001
 40
0.0088758247342695
 40
0.0088758247342695
 40
0.0088758247342695
 40
0.0088758247342695
 40
0.0107384841149811
 40
0.0107384841149811
 40
0.0145689122604472
 40
0.0145689122604472
 40
0.016934605668001
 40
0.016934605668001
 40
0.016934605668001
 40
0.016934605668001
 10
-1.99985675221988
 20
12.52541231394784
 30
0.0
 10
-1.999856752219637
 20
12.52541231398255
 30
0.0
 10
-1.999860323142988
 20
12.52491143816396
 30
0.0
 10
-1.999877450990303
 20
12.52190279997963
 30
0.0
 10
-1.999897426154386
 20
12.51784290331271
 30
0.0
 10
-1.999910752169959
 20
12.50875966801299
 30
0.0
 10
-1.999911339883097
 20
12.50466941102008
 30
0.0
 10
-1.999903006614047
 20
12.50007310948575
 30
0.0
  0
SPLINE
  5
B4ED
330
B4E5
100
AcDbEntity
  8
0
100
AcDbSpline
210
0.0
220
0.0
230
1.0
 70
     8
 71
     3
 72
    10
 73
     6
 74
     0
 42
0.000000001
 43
0.0000000001
 40
0.0072545016361023
 40
0.0072545016361023
 40
0.0072545016361023
 40
0.0072545016361023
 40
0.0102247136925271
 40
0.0102247136925271
 40
0.0136802497683299
 40
0.0136802497683299
 40
0.0136802497683299
 40
0.0136802497683299
 10
-1.999750203294607
 20
12.52086783984015
 30
0.0
 10
-1.999750203291965
 20
12.52086784003197
 30
0.0
 10
-1.999769298047852
 20
12.51949532102479
 30
0.0
 10
-1.999827517286682
 20
12.51498500005695
 30
0.0
 10
-1.999868542578582
 20
12.51158914358321
 30
0.0
 10
-1.999908637457122
 20
12.50789405703282
 30
0.0
  0
SPLINE
  5
B4EE
330
B4E5
100
AcDbEntity
  8
0
100
AcDbSpline
210
0.0
220
0.0
230
1.0
 70
     8
 71
     3
 72
    32
 73
    28
 74
     0
 42
0.000000001
 43
0.0000000001
 40
0.1058692348053721
 40
0.1058692348053721
 40
0.1058692348053721
 40
0.1058692348053721
 40
0.1125569603523043
 40
0.1125569603523043
 40
0.1206919461752587
 40
0.1206919461752587
 40
0.1302132865881583
 40
0.1302132865881583
 40
0.1446938869128906
 40
0.1446938869128906
 40
0.1722968619790117
 40
0.1722968619790117
 40
0.1826486654063335
 40
0.1826486654063335
 40
0.1902631014322193
 40
0.1902631014322193
 40
0.1925883991896254
 40
0.1925883991896254
 40
0.1947802385797352
 40
0.1947802385797352
 40
0.1979781238464358
 40
0.1979781238464358
 40
0.2006913788571092
 40
0.2006913788571092
 40
0.2045562420222867
 40
0.2045562420222867
 40
0.2107325496668629
 40
0.2107325496668629
 40
0.2107325496668629
 40
0.2107325496668629
 10
-1.932477075745015
 20
13.25545976093689
 30
0.0
 10
-1.932477075748253
 20
13.25545976092233
 30
0.0
 10
-1.933145434603673
 20
13.25248012291994
 30
0.0
 10
-1.935847494872128
 20
13.23988852622846
 30
0.0
 10
-1.938160741151897
 20
13.22886291251668
 30
0.0
 10
-1.943928513651158
 20
13.19936979258863
 30
0.0
 10
-1.947525427847536
 20
13.17982718295044
 30
0.0
 10
-1.956486657200225
 20
13.12632894243531
 30
0.0
 10
-1.961840594062117
 20
13.08988763000429
 30
0.0
 10
-1.975645767407663
 20
12.98007077011253
 30
0.0
 10
-1.9826444613437
 20
12.90282434459504
 30
0.0
 10
-1.989798920548609
 20
12.7940159262182
 30
0.0
 10
-1.991514409839878
 20
12.76398356072483
 30
0.0
 10
-1.99416658921381
 20
12.70988296189926
 30
0.0
 10
-1.995205722620955
 20
12.68596529343616
 30
0.0
 10
-1.996417211515082
 20
12.65338856526215
 30
0.0
 10
-1.996691378933716
 20
12.6456331738174
 30
0.0
 10
-1.997194751081059
 20
12.63058515023944
 30
0.0
 10
-1.997427832127753
 20
12.62322018820766
 30
0.0
 10
-1.997952813252199
 20
12.60566634277298
 30
0.0
 10
-1.998227757349551
 20
12.59553461655503
 30
0.0
 10
-1.998639123742665
 20
12.57912023743206
 30
0.0
 10
-1.998796316739336
 20
12.57229278455614
 30
0.0
 10
-1.999123378804652
 20
12.55716764105985
 30
0.0
 10
-1.999275175216463
 20
12.54927910164406
 30
0.0
 10
-1.999620711259779
 20
12.52959344205398
 30
0.0
 10
-1.999790073782039
 20
12.51761362615545
 30
0.0
 10
-1.999910248262676
 20
12.50761884524861
 30
0.0
  0
LINE
  5
B4EF
330
B4E5
100
AcDbEntity
  8
0
100
AcDbLine
 10
-1.999999999999997
 20
-2.0
 30
0.0
 11
-86.00000000000001
 21
-2.0
 31
0.0
  0
LINE
  5
B4F0
330
B4E5
100
AcDbEntity
  8
0
100
AcDbLine
 10
-2.000000000000002
 20
2.000000000000003
 30
0.0
 11
-2.000000000000002
 21
12.5
 31
0.0
  0
LINE
  5
B4F1
330
B4E5
100
AcDbEntity
  8
0
100
AcDbLine
 10
-2.000000000000002
 20
2.000000000000004
 30
0.0
 11
-1.999999999999997
 21
-1.999999999999999
 31
0.0
  0
LINE
  5
B4F2
330
B4E5
100
AcDbEntity
  8
0
100
AcDbLine
 10
-86.00000000000001
 20
-2.000000000000003
 30
0.0
 11
-86.00000000000001
 21
2.0
 31
0.0
  0
LINE
  5
B4F3
330
B4E5
100
AcDbEntity
  8
0
100
AcDbLine
 10
0.0
 20
45.49999999999997
 30
0.0
 11
0.0
 21
15.06250000000005
 31
0.0
  0
LINE
  5
B4F4
330
B4E5
100
AcDbEntity
  8
0
100
AcDbLine
 10
-1.999999999999992
 20
45.49999999999997
 30
0.0
 11
0.0
 21
45.49999999999997
 31
0.0
  0
LINE
  5
B4F5
330
B4E5
100
AcDbEntity
  8
0
100
AcDbLine
 10
-2.000000000000005
 20
15.06250000000005
 30
0.0
 11
-1.999999999999992
 21
45.49999999999997
 31
0.0
  0
LINE
  5
B4F6
330
B4E5
100
AcDbEntity
  8
0
100
AcDbLine
 10
0.0
 20
45.49999999999997
 30
0.0
 11
0.0
 21
172.5
 31
0.0
  0
CIRCLE
  5
B4F7
330
B4E5
100
AcDbEntity
  8
0
100
AcDbCircle
 10
-38.50000000000004
 20
157.5
 30
0.0
 40
2.5
  0
LINE
  5
B4F8
330
B4E5
100
AcDbEntity
  8
0
100
AcDbLine
 10
-46.00000000000004
 20
45.49999999999997
 30
0.0
 11
-86.00000000000006
 21
12.5
 31
0.0
  0
LINE
  5
B4F9
330
B4E5
100
AcDbEntity
  8
0
100
AcDbLine
 10
-46.00000000000001
 20
172.5
 30
0.0
 11
-46.00000000000004
 21
45.49999999999997
 31
0.0
  0
LINE
  5
B4FA
330
B4E5
100
AcDbEntity
  8
0
100
AcDbLine
 10
-86.00000000000006
 20
12.5
 30
0.0
 11
-86.00000000000001
 21
1.999999999999999
 31
0.0
  0
LINE
  5
B4FB
330
B4E5
100
AcDbEntity
  8
0
100
AcDbLine
 10
-4.000000000000003
 20
172.5
 30
0.0
 11
-46.00000000000001
 21
172.5
 31
0.0
  0
LINE
  5
B4FC
330
B4E5
100
AcDbEntity
  8
0
100
AcDbLine
 10
-2.000000000000002
 20
172.5
 30
0.0
 11
-4.000000000000003
 21
172.5
 31
0.0
  0
LINE
  5
B4FD
330
B4E5
100
AcDbEntity
  8
0
100
AcDbLine
 10
0.0
 20
172.5
 30
0.0
 11
-2.00000000000001
 21
172.5
 31
0.0
  0
LINE
  5
B4FE
330
B4E5
100
AcDbEntity
  8
0
100
AcDbLine
 10
-1.999999999999992
 20
45.49999999999997
 30
0.0
 11
-2.00000000000001
 21
172.5
 31
0.0
  0
CIRCLE
  5
B4FF
330
B4E5
100
AcDbEntity
  8
0
100
AcDbCircle
 10
-38.50000000000004
 20
37.5
 30
0.0
 40
2.5
  0
CIRCLE
  5
B500
330
B4E5
100
AcDbEntity
  8
0
100
AcDbCircle
 10
-38.50000000000004
 20
57.5
 30
0.0
 40
2.5
  0
CIRCLE
  5
B501
330
B4E5
100
AcDbEntity
  8
0
100
AcDbCircle
 10
-38.50000000000004
 20
77.5
 30
0.0
 40
2.5
  0
CIRCLE
  5
B502
330
B4E5
100
AcDbEntity
  8
0
100
AcDbCircle
 10
-38.50000000000004
 20
97.5
 30
0.0
 40
2.5
  0
CIRCLE
  5
B503
330
B4E5
100
AcDbEntity
  8
0
100
AcDbCircle
 10
-38.50000000000004
 20
117.5
 30
0.0
 40
2.5
  0
CIRCLE
  5
B504
330
B4E5
100
AcDbEntity
  8
0
100
AcDbCircle
 10
-38.50000000000004
 20
137.5
 30
0.0
 40
2.5
  0
SPLINE
  5
B505
330
B4E5
100
AcDbEntity
  8
0
100
AcDbSpline
210
0.0
220
0.0
230
1.0
 70
     8
 71
     3
 72
     8
 73
     4
 74
     0
 42
0.000000001
 43
0.0000000001
 40
0.0155101095297244
 40
0.0155101095297244
 40
0.0155101095297244
 40
0.0155101095297244
 40
0.0169398274065408
 40
0.0169398274065408
 40
0.0169398274065408
 40
0.0169398274065408
 10
-1.999909328903288
 20
12.50776390931543
 30
0.0
 10
-1.999909799050181
 20
12.50537796479526
 30
0.0
 10
-1.999907966628274
 20
12.50278129622504
 30
0.0
 10
-1.999902873730015
 20
12.50000018211955
 30
0.0
  0
SPLINE
  5
B506
330
B4E5
100
AcDbEntity
  8
0
100
AcDbSpline
210
0.0
220
0.0
230
1.0
 70
     8
 71
     3
 72
    22
 73
    18
 74
     0
 42
0.000000001
 43
0.0000000001
 40
0.1819060136353878
 40
0.1819060136353878
 40
0.1819060136353878
 40
0.1819060136353878
 40
0.1826498765849664
 40
0.1826498765849664
 40
0.1902643748077606
 40
0.1902643748077606
 40
0.1925890527541353
 40
0.1925890527541353
 40
0.1947804348648636
 40
0.1947804348648636
 40
0.1979780163874883
 40
0.1979780163874883
 40
0.200691290409707
 40
0.200691290409707
 40
0.2045563548606363
 40
0.2045563548606363
 40
0.2107322005172845
 40
0.2107322005172845
 40
0.2107322005172845
 40
0.2107322005172845
 10
-1.992710897362398
 20
12.73950035583167
 30
0.0
 10
-1.992822616853576
 20
12.7372734807728
 30
0.0
 10
-1.992933427913117
 20
12.73503776657332
 30
0.0
 10
-1.994167246091883
 20
12.70986844211488
 30
0.0
 10
-1.995206358299208
 20
12.68594993569432
 30
0.0
 10
-1.996417716594955
 20
12.65337445317136
 30
0.0
 10
-1.996691797083657
 20
12.64562105051349
 30
0.0
 10
-1.997195025132886
 20
12.63057660170944
 30
0.0
 10
-1.997428045860286
 20
12.62321325015853
 30
0.0
 10
-1.997952930483686
 20
12.60566211839668
 30
0.0
 10
-1.998227834896333
 20
12.59553163913271
 30
0.0
 10
-1.998639169219504
 20
12.57911832362967
 30
0.0
 10
-1.998796358106648
 20
12.57229095712687
 30
0.0
 10
-1.999123421466734
 20
12.55716554613302
 30
0.0
 10
-1.999275220418015
 20
12.54927671973383
 30
0.0
 10
-1.999620734920775
 20
12.52959178512435
 30
0.0
 10
-1.999790082824679
 20
12.5176128396451
 30
0.0
 10
-1.999910248348676
 20
12.50761880365226
 30
0.0
  0
ENDBLK
  5
B4E7
330
B4E5
100
AcDbEntity
  8
0
100
AcDbBlockEnd
  0
BLOCK
  5
B508
330
B507
100
AcDbEntity
  8
0
100
AcDbBlockBegin
  2
SAE440_95_2-Top
 70
     0
 10
0.0
 20
0.0
 30
0.0
  3
SAE440_95_2-Top
  1

  0
LINE
  5
B50A
330
B507
100
AcDbEntity
  8
0
100
AcDbLine
 10
47.5
 20
-1.999999999999999
 30
0.0
 11
47.5
 21
-2.069004766170388
 31
0.0
  0
SPLINE
  5
B50B
330
B507
100
AcDbEntity
  8
0
100
AcDbSpline
210
0.0
220
0.0
230
1.0
 70
     8
 71
     3
 72
    11
 73
     7
 74
     0
 42
0.000000001
 43
0.0000000001
 40
-1.0
 40
-1.0
 40
-1.0
 40
-1.0
 40
-0.7907552673887423
 40
-0.7907552673887423
 40
-0.7907552673887423
 40
-0.6535033875453485
 40
-0.6535033875453485
 40
-0.6535033875453485
 40
-0.6535033875453485
 10
47.50000000000006
 20
-2.000000000000015
 30
0.0
 10
47.50001724877422
 20
-1.997098202773333
 30
0.0
 10
47.63515725661203
 20
-1.911522152462047
 30
0.0
 10
47.86463729127463
 20
-1.773393535455381
 30
0.0
 10
48.01516230450154
 20
-1.682789523073598
 30
0.0
 10
48.20501487260765
 20
-1.57008031690017
 30
0.0
 10
48.42229672436979
 20
-1.445770536745212
 30
0.0
  0
SPLINE
  5
B50C
330
B507
100
AcDbEntity
  8
0
100
AcDbSpline
210
0.0
220
0.0
230
1.0
 70
     8
 71
     3
 72
    10
 73
     6
 74
     0
 42
0.000000001
 43
0.0000000001
 40
0.0
 40
0.0
 40
0.0
 40
0.0
 40
0.067058416331616
 40
0.067058416331616
 40
0.1015857294839266
 40
0.1015857294839266
 40
0.1015857294839266
 40
0.1015857294839266
 10
52.08980804090609
 20
-2.000030232669501
 30
0.0
 10
51.89154521944981
 20
-2.000297119480222
 30
0.0
 10
51.68834991667556
 20
-2.0014224906989
 30
0.0
 10
51.37453551180335
 20
-2.013511332999269
 30
0.0
 10
51.26446343885304
 20
-2.019552871731613
 30
0.0
 10
51.15274930209491
 20
-2.030278825408095
 30
0.0
  0
SPLINE
  5
B50D
330
B507
100
AcDbEntity
  8
0
100
AcDbSpline
210
0.0
220
0.0
230
1.0
 70
     8
 71
     3
 72
    10
 73
     6
 74
     0
 42
0.000000001
 43
0.0000000001
 40
0.0589313022180647
 40
0.0589313022180647
 40
0.0589313022180647
 40
0.0589313022180647
 40
0.0599779860655756
 40
0.0599779860655756
 40
0.0663268531586982
 40
0.0663268531586982
 40
0.0663268531586982
 40
0.0663268531586982
 10
49.50026149195256
 20
-3.967645940210235
 30
0.0
 10
49.50024336833412
 20
-3.96938351470778
 30
0.0
 10
49.50022834572028
 20
-3.970951905562936
 30
0.0
 10
49.50012589227615
 20
-3.98175412353267
 30
0.0
 10
49.50006999202731
 20
-3.989563038545908
 30
0.0
 10
49.50002531920677
 20
-4.000000108971984
 30
0.0
  0
SPLINE
  5
B50E
330
B507
100
AcDbEntity
  8
0
100
AcDbSpline
210
0.0
220
0.0
230
1.0
 70
     8
 71
     3
 72
    34
 73
    30
 74
     0
 42
0.000000001
 43
0.0000000001
 40
0.0101706378623866
 40
0.0101706378623866
 40
0.0101706378623866
 40
0.0101706378623866
 40
0.0113032242440707
 40
0.0113032242440707
 40
0.0117452734091505
 40
0.0117452734091505
 40
0.0119671978996168
 40
0.0119671978996168
 40
0.012191283274146
 40
0.012191283274146
 40
0.0124134708817821
 40
0.0124134708817821
 40
0.0133139289601967
 40
0.0133139289601967
 40
0.0702379393956246
 40
0.0702379393956246
 40
0.1264917602575921
 40
0.1264917602575921
 40
0.1751659246266834
 40
0.1751659246266834
 40
0.1996211853578317
 40
0.1996211853578317
 40
0.2119712530820723
 40
0.2119712530820723
 40
0.2186278258442801
 40
0.2186278258442801
 40
0.2221807180241718
 40
0.2221807180241718
 40
0.2258666335917687
 40
0.2258666335917687
 40
0.2258666335917687
 40
0.2258666335917687
 10
47.49996698296278
 20
-3.998219693829738
 30
0.0
 10
47.49996230387246
 20
-3.99795018121366
 30
0.0
 10
47.49995706363124
 20
-3.997648663778976
 30
0.0
 10
47.49993617332303
 20
-3.996443926265252
 30
0.0
 10
47.49992863161853
 20
-3.99600897222747
 30
0.0
 10
47.49990995843824
 20
-3.994930140245515
 30
0.0
 10
47.49990223966984
 20
-3.994483968049117
 30
0.0
 10
47.49988342129963
 20
-3.993394856429014
 30
0.0
 10
47.49987196134728
 20
-3.992730976436464
 30
0.0
 10
47.49984791580298
 20
-3.991335836590738
 30
0.0
 10
47.49983512135364
 20
-3.99059248420622
 30
0.0
 10
47.49977100182139
 20
-3.9868614238804
 30
0.0
 10
47.49971951674542
 20
-3.983847026960385
 30
0.0
 10
47.49655721218601
 20
-3.797606331745778
 30
0.0
 10
47.49490021394669
 20
-3.631656770250244
 30
0.0
 10
47.49335586086282
 20
-3.291343792376518
 30
0.0
 10
47.4934283902154
 20
-3.120449923779267
 30
0.0
 10
47.49449057081839
 20
-2.794092814346791
 30
0.0
 10
47.49542236232603
 20
-2.639749386681324
 30
0.0
 10
47.49709804748088
 20
-2.414735470384737
 30
0.0
 10
47.49772907605406
 20
-2.340295015098809
 30
0.0
 10
47.49882206480488
 20
-2.228366384998603
 30
0.0
 10
47.49918481868295
 20
-2.190556333589356
 30
0.0
 10
47.49948694003164
 20
-2.138734333471772
 30
0.0
 10
47.49954739751676
 20
-2.121671504206152
 30
0.0
 10
47.49958626689699
 20
-2.098890268284117
 30
0.0
 10
47.49959049249963
 20
-2.09153804831643
 30
0.0
 10
47.49958778636114
 20
-2.078516647506255
 30
0.0
 10
47.49958019964295
 20
-2.072835310520914
 30
0.0
 10
47.49957228829791
 20
-2.069004766170387
 30
0.0
  0
SPLINE
  5
B50F
330
B507
100
AcDbEntity
  8
0
100
AcDbSpline
210
0.0
220
0.0
230
1.0
 70
     8
 71
     3
 72
    12
 73
     8
 74
     0
 42
0.000000001
 43
0.0000000001
 40
0.0
 40
0.0
 40
0.0
 40
0.0
 40
0.0073837082033494
 40
0.0073837082033494
 40
0.0094968776846024
 40
0.0094968776846024
 40
0.0106851798890531
 40
0.0106851798890531
 40
0.0106851798890531
 40
0.0106851798890531
 10
47.49996052260964
 20
-3.999985103458852
 30
0.0
 10
47.50000146855742
 20
-3.988676024704279
 30
0.0
 10
47.50005745707825
 20
-3.976740013375697
 30
0.0
 10
47.50011516119715
 20
-3.9667617091877
 30
0.0
 10
47.50012635319167
 20
-3.964941242466283
 30
0.0
 10
47.50013635879009
 20
-3.963322951738254
 30
0.0
 10
47.50013843235771
 20
-3.96298922647058
 30
0.0
 10
47.50013843227565
 20
-3.962989239795637
 30
0.0
  0
LINE
  5
B510
330
B507
100
AcDbEntity
  8
0
100
AcDbLine
 10
-47.5
 20
-1.999999999999999
 30
0.0
 11
-47.5
 21
-2.069004613550447
 31
0.0
  0
SPLINE
  5
B511
330
B507
100
AcDbEntity
  8
0
100
AcDbSpline
210
0.0
220
0.0
230
1.0
 70
     8
 71
     3
 72
    11
 73
     7
 74
     0
 42
0.000000001
 43
0.0000000001
 40
-1.0
 40
-1.0
 40
-1.0
 40
-1.0
 40
-0.7907552673887423
 40
-0.7907552673887423
 40
-0.7907552673887423
 40
-0.6535033875453485
 40
-0.6535033875453485
 40
-0.6535033875453485
 40
-0.6535033875453485
 10
-47.50000000000006
 20
-2.000000000000015
 30
0.0
 10
-47.50001724877422
 20
-1.997098202773333
 30
0.0
 10
-47.63515725661203
 20
-1.911522152462047
 30
0.0
 10
-47.86463729127463
 20
-1.773393535455381
 30
0.0
 10
-48.01516230450154
 20
-1.682789523073598
 30
0.0
 10
-48.20501487260765
 20
-1.57008031690017
 30
0.0
 10
-48.42229672436979
 20
-1.445770536745212
 30
0.0
  0
SPLINE
  5
B512
330
B507
100
AcDbEntity
  8
0
100
AcDbSpline
210
0.0
220
0.0
230
1.0
 70
     8
 71
     3
 72
    44
 73
    40
 74
     0
 42
0.000000001
 43
0.0000000001
 40
0.0
 40
0.0
 40
0.0
 40
0.0
 40
0.0038040348705558
 40
0.0038040348705558
 40
0.0084788653955544
 40
0.0084788653955544
 40
0.0158053345842499
 40
0.0158053345842499
 40
0.0259998532270861
 40
0.0259998532270861
 40
0.049519730342111
 40
0.049519730342111
 40
0.1201073313141278
 40
0.1201073313141278
 40
0.1773295333191262
 40
0.1773295333191262
 40
0.1997047457686732
 40
0.1997047457686732
 40
0.2080944186383068
 40
0.2080944186383068
 40
0.2112406561791204
 40
0.2112406561791204
 40
0.2124207485354199
 40
0.2124207485354199
 40
0.2133083388686912
 40
0.2133083388686912
 40
0.213631281624578
 40
0.213631281624578
 40
0.2138073634943691
 40
0.2138073634943691
 40
0.2140087099908008
 40
0.2140087099908008
 40
0.2141985739151758
 40
0.2141985739151758
 40
0.2144561819676553
 40
0.2144561819676553
 40
0.2149191867695977
 40
0.2149191867695977
 40
0.2157309493542243
 40
0.2157309493542243
 40
0.2157309493542243
 40
0.2157309493542243
 10
-47.49957228798269
 20
-2.069004613550447
 30
0.0
 10
-47.49958045285545
 20
-2.072957861390888
 30
0.0
 10
-47.49958825457615
 20
-2.078880777228115
 30
0.0
 10
-47.49959053809952
 20
-2.094284926734503
 30
0.0
 10
-47.49958182869732
 20
-2.104402270642004
 30
0.0
 10
-47.49951287674327
 20
-2.132561847345484
 30
0.0
 10
-47.49942217256163
 20
-2.152169617650848
 30
0.0
 10
-47.49908019635729
 20
-2.201628001201252
 30
0.0
 10
-47.49878021097802
 20
-2.232654927189984
 30
0.0
 10
-47.49777931805843
 20
-2.335144704260746
 30
0.0
 10
-47.49716330175892
 20
-2.406776611560211
 30
0.0
 10
-47.49498755088873
 20
-2.695949861485431
 30
0.0
 10
-47.49378549309628
 20
-2.921279997472771
 30
0.0
 10
-47.49344330820199
 20
-3.31291197142863
 30
0.0
 10
-47.49387940319762
 20
-3.483471588542697
 30
0.0
 10
-47.49604650207337
 20
-3.724095204158597
 30
0.0
 10
-47.49683211617436
 20
-3.792215023661212
 30
0.0
 10
-47.49816821091697
 20
-3.886828530545821
 30
0.0
 10
-47.49855792895143
 20
-3.91269714524702
 30
0.0
 10
-47.49913004519356
 20
-3.948473704622528
 30
0.0
 10
-47.499289637233
 20
-3.958243956950701
 30
0.0
 10
-47.4995163583774
 20
-3.97183492654026
 30
0.0
 10
-47.49957897555451
 20
-3.975559950593694
 30
0.0
 10
-47.4996912176255
 20
-3.982184852655111
 30
0.0
 10
-47.49974064847847
 20
-3.985085806314174
 30
0.0
 10
-47.49980969813232
 20
-3.989113535723003
 30
0.0
 10
-47.49982860606075
 20
-3.990214008880968
 30
0.0
 10
-47.49985644975804
 20
-3.991831172729012
 30
0.0
 10
-47.49986611773052
 20
-3.992392010727892
 30
0.0
 10
-47.49988497973728
 20
-3.993485137982148
 30
0.0
 10
-47.4998940735342
 20
-3.994011472754061
 30
0.0
 10
-47.49990865508709
 20
-3.99485482696979
 30
0.0
 10
-47.49991454115942
 20
-3.995194949990684
 30
0.0
 10
-47.49992619540102
 20
-3.995868105416395
 30
0.0
 10
-47.49993132789149
 20
-3.996164305755685
 30
0.0
 10
-47.49994325371365
 20
-3.996852361464693
 30
0.0
 10
-47.49994827632852
 20
-3.997141858597483
 30
0.0
 10
-47.49995948331281
 20
-3.997787753581951
 30
0.0
 10
-47.49996362557495
 20
-3.998026310431436
 30
0.0
 10
-47.49996698296334
 20
-3.998219693861505
 30
0.0
  0
SPLINE
  5
B513
330
B507
100
AcDbEntity
  8
0
100
AcDbSpline
210
0.0
220
0.0
230
1.0
 70
     8
 71
     3
 72
    14
 73
    10
 74
     0
 42
0.000000001
 43
0.0000000001
 40
0.0078286890159717
 40
0.0078286890159717
 40
0.0078286890159717
 40
0.0078286890159717
 40
0.0081756997842382
 40
0.0081756997842382
 40
0.0102325369326329
 40
0.0102325369326329
 40
0.0133245865596707
 40
0.0133245865596707
 40
0.0185206293507112
 40
0.0185206293507112
 40
0.0185206293507112
 40
0.0185206293507112
 10
-47.50013843227555
 20
-3.962989239805127
 30
0.0
 10
-47.50013843227555
 20
-3.962989239805513
 30
0.0
 10
-47.50013825698676
 20
-3.963017673771358
 30
0.0
 10
-47.50013591722389
 20
-3.963395647963922
 30
0.0
 10
-47.50012809224418
 20
-3.964642737570093
 30
0.0
 10
-47.50010165109059
 20
-3.969046620871416
 30
0.0
 10
-47.50007995426564
 20
-3.972835993728772
 30
0.0
 10
-47.50002326049649
 20
-3.983979990838325
 30
0.0
 10
-47.49998928364099
 20
-3.992040166907402
 30
0.0
 10
-47.49996047355859
 20
-3.999998652206486
 30
0.0
  0
SPLINE
  5
B514
330
B507
100
AcDbEntity
  8
0
100
AcDbSpline
210
0.0
220
0.0
230
1.0
 70
     8
 71
     3
 72
    10
 73
     6
 74
     0
 42
0.000000001
 43
0.0000000001
 40
0.0
 40
0.0
 40
0.0
 40
0.0
 40
0.00499068780266
 40
0.00499068780266
 40
0.0073950152801256
 40
0.0073950152801256
 40
0.0073950152801256
 40
0.0073950152801256
 10
-49.50002531920677
 20
-4.000000108971984
 30
0.0
 10
-49.50006043540899
 20
-3.991795785380472
 30
0.0
 10
-49.5001054380397
 20
-3.98504448910052
 30
0.0
 10
-49.50019029816793
 20
-3.974913319889079
 30
0.0
 10
-49.50022128444469
 20
-3.971546284443067
 30
0.0
 10
-49.50026242521149
 20
-3.967601975673689
 30
0.0
  0
SPLINE
  5
B515
330
B507
100
AcDbEntity
  8
0
100
AcDbSpline
210
0.0
220
0.0
230
1.0
 70
     8
 71
     3
 72
    12
 73
     8
 74
     0
 42
0.000000001
 43
0.0000000001
 40
0.1006407255261553
 40
0.1006407255261553
 40
0.1006407255261553
 40
0.1006407255261553
 40
0.1211256635484667
 40
0.1211256635484667
 40
0.1784064189516257
 40
0.1784064189516257
 40
0.2023979344810272
 40
0.2023979344810272
 40
0.2023979344810272
 40
0.2023979344810272
 10
-51.15225355623984
 20
-2.030463909734685
 30
0.0
 10
-51.21837693381166
 20
-2.024115238887283
 30
0.0
 10
-51.28376124665144
 20
-2.019390814223792
 30
0.0
 10
-51.52830126557883
 20
-2.005407957726188
 30
0.0
 10
-51.70098786195478
 20
-2.0026060291194
 30
0.0
 10
-51.94720089235069
 20
-2.000365144870559
 30
0.0
 10
-52.01887547464252
 20
-2.000125716866929
 30
0.0
 10
-52.08980804090458
 20
-2.000030232669503
 30
0.0
  0
LINE
  5
B516
330
B507
100
AcDbEntity
  8
0
100
AcDbLine
 10
-47.5
 20
-1.999999999999999
 30
0.0
 11
-45.5
 21
-1.999999999999997
 31
0.0
  0
LINE
  5
B517
330
B507
100
AcDbEntity
  8
0
100
AcDbLine
 10
-47.49999999999999
 20
-86.00000000000001
 30
0.0
 11
-45.49999999999998
 21
-86.00000000000001
 31
0.0
  0
LINE
  5
B518
330
B507
100
AcDbEntity
  8
0
100
AcDbLine
 10
45.50000000000001
 20
-1.999999999999997
 30
0.0
 11
-45.50000000000001
 21
-1.999999999999997
 31
0.0
  0
LINE
  5
B519
330
B507
100
AcDbEntity
  8
0
100
AcDbLine
 10
-45.49999999999998
 20
-86.00000000000001
 30
0.0
 11
45.49999999999998
 21
-86.00000000000001
 31
0.0
  0
CIRCLE
  5
B51A
330
B507
100
AcDbEntity
  8
0
100
AcDbCircle
 10
0.0
 20
-47.99999999999998
 30
0.0
 40
2.5
  0
CIRCLE
  5
B51B
330
B507
100
AcDbEntity
  8
0
100
AcDbCircle
 10
0.0
 20
-67.99999999999998
 30
0.0
 40
2.5
  0
LINE
  5
B51C
330
B507
100
AcDbEntity
  8
0
100
AcDbLine
 10
47.5
 20
-1.999999999999999
 30
0.0
 11
45.5
 21
-1.999999999999997
 31
0.0
  0
LINE
  5
B51D
330
B507
100
AcDbEntity
  8
0
100
AcDbLine
 10
51.5
 20
0.0
 30
0.0
 11
89.0
 21
0.0
 31
0.0
  0
ARC
  5
B51E
330
B507
100
AcDbEntity
  8
0
100
AcDbCircle
 10
51.5
 20
-4.000000000000004
 30
0.0
 40
4.000000000000003
100
AcDbArc
 50
90.0
 51
180.0
  0
LINE
  5
B51F
330
B507
100
AcDbEntity
  8
0
100
AcDbLine
 10
47.49999999999997
 20
-86.00000000000006
 30
0.0
 11
47.49999999999999
 21
-46.00000000000004
 31
0.0
  0
LINE
  5
B520
330
B507
100
AcDbEntity
  8
0
100
AcDbLine
 10
49.49999999999999
 20
-86.00000000000006
 30
0.0
 11
47.49999999999997
 21
-86.00000000000006
 31
0.0
  0
LINE
  5
B521
330
B507
100
AcDbEntity
  8
0
100
AcDbLine
 10
49.49999999999999
 20
-46.00000000000004
 30
0.0
 11
49.49999999999999
 21
-86.00000000000006
 31
0.0
  0
LINE
  5
B522
330
B507
100
AcDbEntity
  8
0
100
AcDbLine
 10
47.49999999999999
 20
-46.00000000000001
 30
0.0
 11
49.49999999999999
 21
-46.00000000000001
 31
0.0
  0
LINE
  5
B523
330
B507
100
AcDbEntity
  8
0
100
AcDbLine
 10
49.5
 20
-4.000000000000003
 30
0.0
 11
49.49999999999999
 21
-46.00000000000001
 31
0.0
  0
LINE
  5
B524
330
B507
100
AcDbEntity
  8
0
100
AcDbLine
 10
47.49999999999999
 20
-46.00000000000001
 30
0.0
 11
47.5
 21
-4.000000000000003
 31
0.0
  0
LINE
  5
B525
330
B507
100
AcDbEntity
  8
0
100
AcDbLine
 10
47.49999999999999
 20
-86.00000000000001
 30
0.0
 11
45.49999999999998
 21
-86.00000000000001
 31
0.0
  0
ARC
  5
B526
330
B507
100
AcDbEntity
  8
0
100
AcDbCircle
 10
51.5
 20
-4.000000000000004
 30
0.0
 40
2.000000000000001
100
AcDbArc
 50
90.0
 51
180.0
  0
LINE
  5
B527
330
B507
100
AcDbEntity
  8
0
100
AcDbLine
 10
89.0
 20
0.0
 30
0.0
 11
89.0
 21
-2.00000000000001
 31
0.0
  0
LINE
  5
B528
330
B507
100
AcDbEntity
  8
0
100
AcDbLine
 10
89.0
 20
-2.00000000000001
 30
0.0
 11
51.5
 21
-2.000000000000001
 31
0.0
  0
LINE
  5
B529
330
B507
100
AcDbEntity
  8
0
100
AcDbLine
 10
-89.0
 20
-2.00000000000001
 30
0.0
 11
-51.5
 21
-2.000000000000001
 31
0.0
  0
LINE
  5
B52A
330
B507
100
AcDbEntity
  8
0
100
AcDbLine
 10
-47.49999999999999
 20
-46.00000000000001
 30
0.0
 11
-47.5
 21
-4.000000000000003
 31
0.0
  0
LINE
  5
B52B
330
B507
100
AcDbEntity
  8
0
100
AcDbLine
 10
-49.5
 20
-4.000000000000003
 30
0.0
 11
-49.49999999999999
 21
-46.00000000000001
 31
0.0
  0
LINE
  5
B52C
330
B507
100
AcDbEntity
  8
0
100
AcDbLine
 10
-51.5
 20
0.0
 30
0.0
 11
-89.0
 21
0.0
 31
0.0
  0
LINE
  5
B52D
330
B507
100
AcDbEntity
  8
0
100
AcDbLine
 10
-89.0
 20
0.0
 30
0.0
 11
-89.0
 21
-2.00000000000001
 31
0.0
  0
ARC
  5
B52E
330
B507
100
AcDbEntity
  8
0
100
AcDbCircle
 10
-51.5
 20
-4.000000000000004
 30
0.0
 40
2.000000000000001
100
AcDbArc
 50
0.0
 51
90.0
  0
ARC
  5
B52F
330
B507
100
AcDbEntity
  8
0
100
AcDbCircle
 10
-51.5
 20
-4.000000000000004
 30
0.0
 40
4.000000000000003
100
AcDbArc
 50
0.0
 51
90.0
  0
LINE
  5
B530
330
B507
100
AcDbEntity
  8
0
100
AcDbLine
 10
-47.49999999999999
 20
-46.00000000000004
 30
0.0
 11
-47.49999999999997
 21
-86.00000000000006
 31
0.0
  0
LINE
  5
B531
330
B507
100
AcDbEntity
  8
0
100
AcDbLine
 10
-49.49999999999999
 20
-86.00000000000006
 30
0.0
 11
-49.49999999999999
 21
-46.00000000000004
 31
0.0
  0
LINE
  5
B532
330
B507
100
AcDbEntity
  8
0
100
AcDbLine
 10
-47.49999999999997
 20
-86.00000000000006
 30
0.0
 11
-49.49999999999999
 21
-86.00000000000006
 31
0.0
  0
LINE
  5
B533
330
B507
100
AcDbEntity
  8
0
100
AcDbLine
 10
-49.49999999999999
 20
-46.00000000000001
 30
0.0
 11
-47.49999999999999
 21
-46.00000000000001
 31
0.0
  0
ENDBLK
  5
B509
330
B507
100
AcDbEntity
  8
0
100
AcDbBlockEnd
  0
BLOCK
  5
B535
330
B534
100
AcDbEntity
  8
0
100
AcDbBlockBegin
  2
SAE440_95_2-Bottom
 70
     0
 10
0.0
 20
0.0
 30
0.0
  3
SAE440_95_2-Bottom
  1

  0
SPLINE
  5
B537
330
B534
100
AcDbEntity
  8
0
100
AcDbSpline
210
0.0
220
0.0
230
1.0
 70
     8
 71
     3
 72
    17
 73
    13
 74
     0
 42
0.000000001
 43
0.0000000001
 40
0.0
 40
0.0
 40
0.0
 40
0.0
 40
0.3704689058693629
 40
0.3704689058693629
 40
0.3704689058693629
 40
0.7029757053307318
 40
0.7029757053307318
 40
0.7029757053307318
 40
0.9335813790875445
 40
0.9335813790875445
 40
0.9335813790875445
 40
1.0
 40
1.0
 40
1.0
 40
1.0
 10
52.10606060606068
 20
2.000000000000005
 30
0.0
 10
51.75310981611439
 20
2.000006377019311
 30
0.0
 10
51.30994835338928
 20
2.000465619612689
 30
0.0
 10
50.88299606376502
 20
1.999851137318994
 30
0.0
 10
50.4997937569141
 20
1.999299621287377
 30
0.0
 10
50.13742190750897
 20
2.000043886462064
 30
0.0
 10
49.87998709144348
 20
2.000290307240734
 30
0.0
 10
49.70144659451706
 20
2.000461209098335
 30
0.0
 10
49.57197149374566
 20
2.000344409457291
 30
0.0
 10
49.52188707330079
 20
2.000001688218355
 30
0.0
 10
49.50746185088124
 20
1.999902978279104
 30
0.0
 10
49.49999784581293
 20
2.000565701782119
 30
0.0
 10
49.50000000001907
 20
2.00000000000014
 30
0.0
  0
ARC
  5
B538
330
B534
100
AcDbEntity
  8
0
100
AcDbCircle
 10
51.5
 20
4.000000000000004
 30
0.0
 40
1.999999999999992
100
AcDbArc
 50
180.1766999795573
 51
259.9841446491059
  0
ARC
  5
B539
330
B534
100
AcDbEntity
  8
0
100
AcDbCircle
 10
51.5
 20
4.000000000000004
 30
0.0
 40
3.999999999999994
100
AcDbArc
 50
219.6735598722816
 51
270.0
  0
LINE
  5
B53A
330
B534
100
AcDbEntity
  8
0
100
AcDbLine
 10
52.10606060606068
 20
0.0
 30
0.0
 11
51.5
 21
0.0
 31
0.0
  0
SPLINE
  5
B53B
330
B534
100
AcDbEntity
  8
0
100
AcDbSpline
210
0.0
220
0.0
230
1.0
 70
     8
 71
     3
 72
    17
 73
    13
 74
     0
 42
0.000000001
 43
0.0000000001
 40
-1.0
 40
-1.0
 40
-1.0
 40
-1.0
 40
-0.7907552673887423
 40
-0.7907552673887423
 40
-0.7907552673887423
 40
-0.3883396848776792
 40
-0.3883396848776792
 40
-0.3883396848776792
 40
-0.1053184206031904
 40
-0.1053184206031904
 40
-0.1053184206031904
 40
0.0
 40
0.0
 40
0.0
 40
0.0
 10
47.50000000000006
 20
2.000000000000015
 30
0.0
 10
47.50001724877422
 20
1.997098202773333
 30
0.0
 10
47.63515725661203
 20
1.911522152462047
 30
0.0
 10
47.86463729127463
 20
1.773393535455381
 30
0.0
 10
48.30596903076923
 20
1.507747145314448
 30
0.0
 10
49.08537332976376
 20
1.052077259781165
 30
0.0
 10
49.9029661653062
 20
0.6711423121729422
 30
0.0
 10
50.47798405236981
 20
0.4032285057401319
 30
0.0
 10
51.07892350317442
 20
0.16932905421774
 30
0.0
 10
51.58259362674299
 20
0.0606817918166896
 30
0.0
 10
51.77002032789648
 20
0.020251762263004
 30
0.0
 10
51.9446733204402
 20
0.0000166268648443
 30
0.0
 10
52.10606060606069
 20
0.0000000000000003
 30
0.0
  0
LINE
  5
B53C
330
B534
100
AcDbEntity
  8
0
100
AcDbLine
 10
52.10606060606068
 20
2.000000000000005
 30
0.0
 11
52.10606060606068
 21
0.0
 31
0.0
  0
SPLINE
  5
B53D
330
B534
100
AcDbEntity
  8
0
100
AcDbSpline
210
0.0
220
0.0
230
1.0
 70
     8
 71
     3
 72
    28
 73
    24
 74
     0
 42
0.000000001
 43
0.0000000001
 40
0.0690822590119712
 40
0.0690822590119712
 40
0.0690822590119712
 40
0.0690822590119712
 40
0.0695373376947076
 40
0.0695373376947076
 40
0.0705592775771735
 40
0.0705592775771735
 40
0.0715813611852802
 40
0.0715813611852802
 40
0.0725991042098998
 40
0.0725991042098998
 40
0.0746451822656137
 40
0.0746451822656137
 40
0.0787297326833362
 40
0.0787297326833362
 40
0.0838653754389238
 40
0.0838653754389238
 40
0.0955614324967342
 40
0.0955614324967342
 40
0.1211256635489939
 40
0.1211256635489939
 40
0.1784064189530061
 40
0.1784064189530061
 40
0.1798465075920991
 40
0.1798465075920991
 40
0.1798465075920991
 40
0.1798465075920991
 10
50.86371670695479
 20
2.070841470802942
 30
0.0
 10
50.86371670696275
 20
2.07084147080133
 30
0.0
 10
50.8638021474456
 20
2.070824147944812
 30
0.0
 10
50.86438361945951
 20
2.070706910031326
 30
0.0
 10
50.86528572235074
 20
2.070525432049267
 30
0.0
 10
50.86805655518922
 20
2.069975659406762
 30
0.0
 10
50.86994902274831
 20
2.06960292636656
 30
0.0
 10
50.87436619550444
 20
2.06874496889867
 30
0.0
 10
50.87691522268309
 20
2.068255027857897
 30
0.0
 10
50.88509412283145
 20
2.066704419210782
 30
0.0
 10
50.89131852210762
 20
2.065552216829782
 30
0.0
 10
50.910321463667
 20
2.062130588048058
 30
0.0
 10
50.9238168920752
 20
2.059823029340361
 30
0.0
 10
50.95405151580685
 20
2.054909058545641
 30
0.0
 10
50.97106069529456
 20
2.052318623663114
 30
0.0
 10
51.02650619138985
 20
2.044365323487842
 30
0.0
 10
51.06492454356797
 20
2.039625143306273
 30
0.0
 10
51.18595330092793
 20
2.026494701270352
 30
0.0
 10
51.26778903115921
 20
2.020304109307929
 30
0.0
 10
51.52830126558637
 20
2.005407957725902
 30
0.0
 10
51.70098786196484
 20
2.002606029119203
 30
0.0
 10
51.87888170931708
 20
2.000986945353286
 30
0.0
 10
51.88323776592179
 20
2.000948997469753
 30
0.0
 10
51.88759632902226
 20
2.000912033595469
 30
0.0
  0
SPLINE
  5
B53E
330
B534
100
AcDbEntity
  8
0
100
AcDbSpline
210
0.0
220
0.0
230
1.0
 70
     8
 71
     3
 72
    30
 73
    26
 74
     0
 42
0.000000001
 43
0.0000000001
 40
0.0
 40
0.0
 40
0.0
 40
0.0
 40
0.0049906878105474
 40
0.0049906878105474
 40
0.0087372355733711
 40
0.0087372355733711
 40
0.0097952253406572
 40
0.0097952253406572
 40
0.0104899688918715
 40
0.0104899688918715
 40
0.0114835377106487
 40
0.0114835377106487
 40
0.0123917508540818
 40
0.0123917508540818
 40
0.0135259377124757
 40
0.0135259377124757
 40
0.01517438140101
 40
0.01517438140101
 40
0.017723327579359
 40
0.017723327579359
 40
0.0214777529837219
 40
0.0214777529837219
 40
0.0261198062395442
 40
0.0261198062395442
 40
0.0306018019471009
 40
0.0306018019471009
 40
0.0306018019471009
 40
0.0306018019471009
 10
49.50002531920677
 20
4.000000108971985
 30
0.0
 10
49.50006043540902
 20
3.991795785367972
 30
0.0
 10
49.50010543803987
 20
3.9850444890787
 30
0.0
 10
49.50020570056854
 20
3.973074478379102
 30
0.0
 10
49.50025216705103
 20
3.968020207018203
 30
0.0
 10
49.50037082767038
 20
3.958018887157451
 30
0.0
 10
49.50040161077475
 20
3.955539561542012
 30
0.0
 10
49.50046347754336
 20
3.950898298622817
 30
0.0
 10
49.50049113795298
 20
3.9488991779397
 30
0.0
 10
49.50056545828724
 20
3.94377669369358
 30
0.0
 10
49.50061636413046
 20
3.940467859624291
 30
0.0
 10
49.50072033177621
 20
3.934149189236148
 30
0.0
 10
49.5007737234608
 20
3.93107968302573
 30
0.0
 10
49.5008965962991
 20
3.924378860081423
 30
0.0
 10
49.50096786688636
 20
3.920734150511859
 30
0.0
 10
49.50114460638928
 20
3.912180966579837
 30
0.0
 10
49.50125249030293
 20
3.907368438203175
 30
0.0
 10
49.50152755708359
 20
3.895853857486706
 30
0.0
 10
49.50169749325851
 20
3.889446306367903
 30
0.0
 10
49.50210476727718
 20
3.875140055220309
 30
0.0
 10
49.50233985503268
 20
3.867834575331611
 30
0.0
 10
49.50278976725034
 20
3.854669012999194
 30
0.0
 10
49.5029885121713
 20
3.849467629085388
 30
0.0
 10
49.50322997974687
 20
3.843272573695735
 30
0.0
 10
49.5032809978523
 20
3.842057251312449
 30
0.0
 10
49.50328099785173
 20
3.842057251326332
 30
0.0
  0
SPLINE
  5
B53F
330
B534
100
AcDbEntity
  8
0
100
AcDbSpline
210
0.0
220
0.0
230
1.0
 70
     8
 71
     3
 72
     8
 73
     4
 74
     0
 42
0.000000001
 43
0.0000000001
 40
0.0
 40
0.0
 40
0.0
 40
0.0
 40
0.0004151367485978
 40
0.0004151367485978
 40
0.0004151367485978
 40
0.0004151367485978
 10
49.50002109558394
 20
4.000000267145738
 30
0.0
 10
49.50001411393838
 20
3.999222903658172
 30
0.0
 10
49.50000714111364
 20
3.998428973610883
 30
0.0
 10
49.50000008478681
 20
3.997615301482357
 30
0.0
  0
CIRCLE
  5
B540
330
B534
100
AcDbEntity
  8
0
100
AcDbCircle
 10
0.0
 20
67.99999999999998
 30
0.0
 40
2.5
  0
CIRCLE
  5
B541
330
B534
100
AcDbEntity
  8
0
100
AcDbCircle
 10
0.0
 20
47.99999999999998
 30
0.0
 40
2.5
  0
LINE
  5
B542
330
B534
100
AcDbEntity
  8
0
100
AcDbLine
 10
45.50000000000001
 20
1.999999999999997
 30
0.0
 11
-45.50000000000001
 21
1.999999999999997
 31
0.0
  0
LINE
  5
B543
330
B534
100
AcDbEntity
  8
0
100
AcDbLine
 10
45.49999999999998
 20
86.00000000000001
 30
0.0
 11
-45.49999999999998
 21
86.00000000000001
 31
0.0
  0
SPLINE
  5
B544
330
B534
100
AcDbEntity
  8
0
100
AcDbSpline
210
0.0
220
0.0
230
1.0
 70
     8
 71
     3
 72
    17
 73
    13
 74
     0
 42
0.000000001
 43
0.0000000001
 40
-1.0
 40
-1.0
 40
-1.0
 40
-1.0
 40
-0.7907552673887423
 40
-0.7907552673887423
 40
-0.7907552673887423
 40
-0.3883396848776792
 40
-0.3883396848776792
 40
-0.3883396848776792
 40
-0.1053184206031904
 40
-0.1053184206031904
 40
-0.1053184206031904
 40
0.0
 40
0.0
 40
0.0
 40
0.0
 10
-47.50000000000006
 20
2.000000000000015
 30
0.0
 10
-47.50001724877422
 20
1.997098202773333
 30
0.0
 10
-47.63515725661203
 20
1.911522152462047
 30
0.0
 10
-47.86463729127463
 20
1.773393535455381
 30
0.0
 10
-48.30596903076923
 20
1.507747145314448
 30
0.0
 10
-49.08537332976376
 20
1.052077259781165
 30
0.0
 10
-49.9029661653062
 20
0.6711423121729422
 30
0.0
 10
-50.47798405236981
 20
0.4032285057401319
 30
0.0
 10
-51.07892350317442
 20
0.16932905421774
 30
0.0
 10
-51.58259362674299
 20
0.0606817918166896
 30
0.0
 10
-51.77002032789648
 20
0.020251762263004
 30
0.0
 10
-51.9446733204402
 20
0.0000166268648443
 30
0.0
 10
-52.10606060606069
 20
0.0000000000000003
 30
0.0
  0
LINE
  5
B545
330
B534
100
AcDbEntity
  8
0
100
AcDbLine
 10
-51.5
 20
0.0
 30
0.0
 11
-52.10606060606068
 21
0.0
 31
0.0
  0
ARC
  5
B546
330
B534
100
AcDbEntity
  8
0
100
AcDbCircle
 10
-51.5
 20
4.000000000000004
 30
0.0
 40
3.999999999999994
100
AcDbArc
 50
270.0
 51
320.3264401277183
  0
ARC
  5
B547
330
B534
100
AcDbEntity
  8
0
100
AcDbCircle
 10
-51.5
 20
4.000000000000004
 30
0.0
 40
1.999999999999992
100
AcDbArc
 50
280.0158553508936
 51
359.826924356002
  0
SPLINE
  5
B548
330
B534
100
AcDbEntity
  8
0
100
AcDbSpline
210
0.0
220
0.0
230
1.0
 70
     8
 71
     3
 72
    17
 73
    13
 74
     0
 42
0.000000001
 43
0.0000000001
 40
0.0
 40
0.0
 40
0.0
 40
0.0
 40
0.3704689058693629
 40
0.3704689058693629
 40
0.3704689058693629
 40
0.7029757053307318
 40
0.7029757053307318
 40
0.7029757053307318
 40
0.9335813790875445
 40
0.9335813790875445
 40
0.9335813790875445
 40
1.0
 40
1.0
 40
1.0
 40
1.0
 10
-52.10606060606068
 20
2.000000000000005
 30
0.0
 10
-51.75310981611439
 20
2.000006377019311
 30
0.0
 10
-51.30994835338928
 20
2.000465619612689
 30
0.0
 10
-50.88299606376502
 20
1.999851137318994
 30
0.0
 10
-50.4997937569141
 20
1.999299621287377
 30
0.0
 10
-50.13742190750897
 20
2.000043886462064
 30
0.0
 10
-49.87998709144348
 20
2.000290307240734
 30
0.0
 10
-49.70144659451706
 20
2.000461209098335
 30
0.0
 10
-49.57197149374566
 20
2.000344409457291
 30
0.0
 10
-49.52188707330079
 20
2.000001688218355
 30
0.0
 10
-49.50746185088124
 20
1.999902978279104
 30
0.0
 10
-49.49999784581293
 20
2.000565701782119
 30
0.0
 10
-49.50000000001907
 20
2.00000000000014
 30
0.0
  0
LINE
  5
B549
330
B534
100
AcDbEntity
  8
0
100
AcDbLine
 10
-52.10606060606068
 20
0.0
 30
0.0
 11
-52.10606060606068
 21
2.000000000000005
 31
0.0
  0
SPLINE
  5
B54A
330
B534
100
AcDbEntity
  8
0
100
AcDbSpline
210
0.0
220
0.0
230
1.0
 70
     8
 71
     3
 72
    28
 73
    24
 74
     0
 42
0.000000001
 43
0.0000000001
 40
0.0357732034662291
 40
0.0357732034662291
 40
0.0357732034662291
 40
0.0357732034662291
 40
0.039042275356715
 40
0.039042275356715
 40
0.045261150528859
 40
0.045261150528859
 40
0.0483374926736262
 40
0.0483374926736262
 40
0.0514208782505187
 40
0.0514208782505187
 40
0.0529575421123527
 40
0.0529575421123527
 40
0.054506259770916
 40
0.054506259770916
 40
0.0552768639423969
 40
0.0552768639423969
 40
0.0560490423729498
 40
0.0560490423729498
 40
0.0568196217467574
 40
0.0568196217467574
 40
0.059977986004285
 40
0.059977986004285
 40
0.0663268531593844
 40
0.0663268531593844
 40
0.0663268531593844
 40
0.0663268531593844
 10
-49.50328099785167
 20
3.842057251326784
 30
0.0
 10
-49.50328099785001
 20
3.842057251367336
 30
0.0
 10
-49.50325370308817
 20
3.842715126918825
 30
0.0
 10
-49.50307566836266
 20
3.847192838258177
 30
0.0
 10
-49.50281926781038
 20
3.853659085234223
 30
0.0
 10
-49.50230490581106
 20
3.868952895847911
 30
0.0
 10
-49.50211373393273
 20
3.874953169671496
 30
0.0
 10
-49.5017182415793
 20
3.888620143897082
 30
0.0
 10
-49.50151123847279
 20
3.896381733706719
 30
0.0
 10
-49.50120926593029
 20
3.90928842618063
 30
0.0
 10
-49.50110914437144
 20
3.913838539789733
 30
0.0
 10
-49.5009141242629
 20
3.923413604165416
 30
0.0
 10
-49.50081699725537
 20
3.928569998500832
 30
0.0
 10
-49.5006843869309
 20
3.936297115875561
 30
0.0
 10
-49.50064189434235
 20
3.938896184625342
 30
0.0
 10
-49.50056372807607
 20
3.943909393802711
 30
0.0
 10
-49.5005274902089
 20
3.946359798895255
 30
0.0
 10
-49.50046356992011
 20
3.950879019050464
 30
0.0
 10
-49.50043532219884
 20
3.952983957234338
 30
0.0
 10
-49.50030935107172
 20
3.962745419512408
 30
0.0
 10
-49.50025759965358
 20
3.967867505972894
 30
0.0
 10
-49.50012589227696
 20
3.98175412339649
 30
0.0
 10
-49.50006999202774
 20
3.989563038445606
 30
0.0
 10
-49.50002531920677
 20
4.000000108971986
 30
0.0
  0
SPLINE
  5
B54B
330
B534
100
AcDbEntity
  8
0
100
AcDbSpline
210
0.0
220
0.0
230
1.0
 70
     8
 71
     3
 72
    24
 73
    20
 74
     0
 42
0.000000001
 43
0.0000000001
 40
0.0225455043765708
 40
0.0225455043765708
 40
0.0225455043765708
 40
0.0225455043765708
 40
0.0670584163315265
 40
0.0670584163315265
 40
0.1176569868689319
 40
0.1176569868689319
 40
0.1255739066769768
 40
0.1255739066769768
 40
0.1275474479966781
 40
0.1275474479966781
 40
0.1295305933407535
 40
0.1295305933407535
 40
0.1305201882835989
 40
0.1305201882835989
 40
0.1315137659901597
 40
0.1315137659901597
 40
0.1325098132824056
 40
0.1325098132824056
 40
0.1331618384306194
 40
0.1331618384306194
 40
0.1331618384306194
 40
0.1331618384306194
 10
-51.88760111846384
 20
2.000911654798919
 30
0.0
 10
-51.7527743785148
 20
2.002055086372727
 30
0.0
 10
-51.6187032834884
 20
2.00410543689985
 30
0.0
 10
-51.32488885279539
 20
2.015423834854389
 30
0.0
 10
-51.16175508015882
 20
2.025387294195041
 30
0.0
 10
-50.96909929813393
 20
2.052544208789091
 30
0.0
 10
-50.94256094016677
 20
2.056642800089986
 30
0.0
 10
-50.91059037181533
 20
2.062112997844331
 30
0.0
 10
-50.90425431293514
 20
2.063224475851759
 30
0.0
 10
-50.89196875281709
 20
2.065433787399483
 30
0.0
 10
-50.88592496735346
 20
2.066549999542225
 30
0.0
 10
-50.87787001000883
 20
2.068072834181843
 30
0.0
 10
-50.87533670014369
 20
2.068558169849779
 30
0.0
 10
-50.87086743294429
 20
2.069423429225277
 30
0.0
 10
-50.86890767036155
 20
2.069807990018932
 30
0.0
 10
-50.86590446928412
 20
2.070401936554457
 30
0.0
 10
-50.86484122766552
 20
2.070615025879388
 30
0.0
 10
-50.86389298444851
 20
2.07080571503925
 30
0.0
 10
-50.86371671482559
 20
2.07084146920783
 30
0.0
 10
-50.86371670695517
 20
2.070841470802863
 30
0.0
  0
LINE
  5
B54C
330
B534
100
AcDbEntity
  8
0
100
AcDbLine
 10
-49.50000000000001
 20
2.000000000000002
 30
0.0
 11
-45.5
 21
1.999999999999997
 31
0.0
  0
LINE
  5
B54D
330
B534
100
AcDbEntity
  8
0
100
AcDbLine
 10
-45.49999999999998
 20
86.00000000000001
 30
0.0
 11
-49.49999999999999
 21
86.00000000000001
 31
0.0
  0
LINE
  5
B54E
330
B534
100
AcDbEntity
  8
0
100
AcDbLine
 10
-49.5
 20
2.000000000000002
 30
0.0
 11
-49.49999999999999
 21
86.00000000000001
 31
0.0
  0
LINE
  5
B54F
330
B534
100
AcDbEntity
  8
0
100
AcDbLine
 10
49.50000000000001
 20
2.000000000000002
 30
0.0
 11
45.5
 21
1.999999999999997
 31
0.0
  0
LINE
  5
B550
330
B534
100
AcDbEntity
  8
0
100
AcDbLine
 10
49.5
 20
2.000000000000002
 30
0.0
 11
49.49999999999999
 21
86.00000000000001
 31
0.0
  0
LINE
  5
B551
330
B534
100
AcDbEntity
  8
0
100
AcDbLine
 10
45.49999999999998
 20
86.00000000000001
 30
0.0
 11
49.49999999999999
 21
86.00000000000001
 31
0.0
  0
LINE
  5
B552
330
B534
100
AcDbEntity
  8
0
100
AcDbLine
 10
89.00000000000005
 20
0.0
 30
0.0
 11
52.10606060606068
 21
0.0
 31
0.0
  0
LINE
  5
B553
330
B534
100
AcDbEntity
  8
0
100
AcDbLine
 10
89.00000000000005
 20
1.999999999999992
 30
0.0
 11
89.00000000000005
 21
0.0
 31
0.0
  0
LINE
  5
B554
330
B534
100
AcDbEntity
  8
0
100
AcDbLine
 10
52.10606060606068
 20
2.000000000000005
 30
0.0
 11
89.00000000000005
 21
1.999999999999992
 31
0.0
  0
LINE
  5
B555
330
B534
100
AcDbEntity
  8
0
100
AcDbLine
 10
-89.00000000000005
 20
1.999999999999992
 30
0.0
 11
-52.10606060606068
 21
2.000000000000005
 31
0.0
  0
LINE
  5
B556
330
B534
100
AcDbEntity
  8
0
100
AcDbLine
 10
-89.00000000000005
 20
0.0
 30
0.0
 11
-89.00000000000005
 21
1.999999999999992
 31
0.0
  0
LINE
  5
B557
330
B534
100
AcDbEntity
  8
0
100
AcDbLine
 10
-52.10606060606068
 20
0.0
 30
0.0
 11
-89.00000000000005
 21
0.0
 31
0.0
  0
ENDBLK
  5
B536
330
B534
100
AcDbEntity
  8
0
100
AcDbBlockEnd
  0
BLOCK
  5
B559
330
B558
100
AcDbEntity
  8
0
100
AcDbBlockBegin
  2
SAE440_95_2-ISO
 70
     0
 10
0.0
 20
0.0
 30
0.0
  3
SAE440_95_2-ISO
  1

  0
LINE
  5
B55B
330
B558
100
AcDbEntity
  8
0
100
AcDbLine
 10
63.98473169414947
 20
-62.87510495077132
 30
0.0
 11
63.85958829813291
 21
-62.94735652414878
 31
0.0
  0
SPLINE
  5
B55C
330
B558
100
AcDbEntity
  8
0
100
AcDbSpline
210
0.0
220
0.0
230
1.0
 70
     8
 71
     3
 72
    17
 73
    13
 74
     0
 42
0.000000001
 43
0.0000000001
 40
0.0
 40
0.0
 40
0.0
 40
0.0
 40
0.3704689058693629
 40
0.3704689058693629
 40
0.3704689058693629
 40
0.7029757053307318
 40
0.7029757053307318
 40
0.7029757053307318
 40
0.9335813790875445
 40
0.9335813790875445
 40
0.9335813790875445
 40
1.0
 40
1.0
 40
1.0
 40
1.0
 10
65.82749482087807
 20
-61.84675224941353
 30
0.0
 10
65.57791641464833
 20
-61.93776659461037
 30
0.0
 10
65.26422920564286
 20
-61.94783570884062
 30
0.0
 10
64.96276285100321
 20
-61.97918530432672
 30
0.0
 10
64.69218788198848
 20
-62.00732249342502
 30
0.0
 10
64.43542601501099
 20
-62.05485624056052
 30
0.0
 10
64.25321786505394
 20
-62.19990065632757
 30
0.0
 10
64.12684982309844
 20
-62.30049428411746
 30
0.0
 10
64.0353796911664
 20
-62.45242682771598
 30
0.0
 10
64.00020699835012
 20
-62.66705519089736
 30
0.0
 10
63.99007662422455
 20
-62.72887205628045
 30
0.0
 10
63.98433015934291
 20
-62.79462548548046
 30
0.0
 10
63.98473169416284
 20
-62.87510495077262
 30
0.0
  0
LINE
  5
B55D
330
B558
100
AcDbEntity
  8
0
100
AcDbLine
 10
65.79274679921987
 20
-61.82669046975529
 30
0.0
 11
65.82749482087809
 21
-61.84675224941347
 31
0.0
  0
LINE
  5
B55E
330
B558
100
AcDbEntity
  8
0
100
AcDbLine
 10
65.39894525652255
 20
-61.59932904307169
 30
0.0
 11
65.79274679921987
 21
-61.82669046975529
 31
0.0
  0
ELLIPSE
  5
B55F
330
B558
100
AcDbEntity
  8
0
100
AcDbEllipse
 10
63.98473169414945
 20
-62.41582562399942
 30
0.0
 11
1.999999999999992
 21
0.0000000000000003
 31
0.0
210
0.0
220
0.0
230
1.0
 40
0.5773502691896258
 41
0.7853981633974457
 42
0.8225763078181067
  0
ELLIPSE
  5
B560
330
B558
100
AcDbEntity
  8
0
100
AcDbEllipse
 10
63.98473169414945
 20
-62.41582562399942
 30
0.0
 11
1.999999999999992
 21
-0.0000000000001196
 31
0.0
210
0.0
220
0.0
230
1.0
 40
0.5773502691896257
 41
0.8225763078183367
 42
2.35619449019261
  0
LINE
  5
B561
330
B558
100
AcDbEntity
  8
0
100
AcDbLine
 10
62.57051813177636
 20
-62.42244378615286
 30
0.0
 11
62.57051813177636
 21
-61.59932904307169
 31
0.0
  0
LINE
  5
B562
330
B558
100
AcDbEntity
  8
0
100
AcDbLine
 10
62.57051813177636
 20
-63.69160153169904
 30
0.0
 11
62.57051813177636
 21
-62.42244378615286
 31
0.0
  0
LINE
  5
B563
330
B558
100
AcDbEntity
  8
0
100
AcDbLine
 10
63.85958829808668
 20
-62.94735652417546
 30
0.0
 11
62.57051813177636
 21
-63.69160153169904
 31
0.0
  0
ELLIPSE
  5
B564
330
B558
100
AcDbEntity
  8
0
100
AcDbEllipse
 10
-17.68610153289678
 20
-81.45040216687707
 30
0.0
 11
-2.5
 21
-0.0000000000001497
 31
0.0
210
0.0
220
0.0
230
1.0
 40
0.5773502691896258
 41
3.742856870268575
 42
5.681921090500119
  0
ELLIPSE
  5
B565
330
B558
100
AcDbEntity
  8
0
100
AcDbEllipse
 10
-3.543965909165827
 20
-73.28543635759982
 30
0.0
 11
-2.5
 21
-0.0000000000001497
 31
0.0
210
0.0
220
0.0
230
1.0
 40
0.5773502691896258
 41
3.74285687026858
 42
5.681921090500121
  0
LINE
  5
B566
330
B558
100
AcDbEntity
  8
0
100
AcDbLine
 10
1.759334949733246
 20
-107.3741686113324
 30
0.0
 11
-62.58738213824255
 21
-70.22357417912084
 31
0.0
  0
LINE
  5
B567
330
B558
100
AcDbEntity
  8
0
100
AcDbLine
 10
-4.604626080945664
 20
-23.27502077577659
 30
0.0
 11
-4.604626080945655
 21
-31.84823487551772
 31
0.0
  0
LINE
  5
B568
330
B558
100
AcDbEntity
  8
0
100
AcDbLine
 10
37.60652510870226
 20
-57.85184753952038
 30
0.0
 11
36.62282290941897
 21
-57.28390680996176
 31
0.0
  0
LINE
  5
B569
330
B558
100
AcDbEntity
  8
0
100
AcDbLine
 10
30.87663610379848
 20
-53.96634431092288
 30
0.0
 11
-3.190412518572567
 21
-34.29772461830089
 31
0.0
  0
LINE
  5
B56A
330
B558
100
AcDbEntity
  8
0
100
AcDbLine
 10
-62.58738213824256
 20
-68.59058101726541
 30
0.0
 11
1.759334949733242
 21
-105.7411754494769
 31
0.0
  0
ELLIPSE
  5
B56B
330
B558
100
AcDbEntity
  8
0
100
AcDbEllipse
 10
-3.543965909165827
 20
-71.65244319574435
 30
0.0
 11
-2.5
 21
0.0000000000001493
 31
0.0
210
0.0
220
0.0
230
1.0
 40
0.5773502691896257
 41
0.0
 42
6.283185307179586
  0
ELLIPSE
  5
B56C
330
B558
100
AcDbEntity
  8
0
100
AcDbEllipse
 10
-17.68610153289678
 20
-79.81740900502162
 30
0.0
 11
-2.5
 21
0.0000000000001493
 31
0.0
210
0.0
220
0.0
230
1.0
 40
0.5773502691896257
 41
0.0
 42
6.283185307179586
  0
LINE
  5
B56D
330
B558
100
AcDbEntity
  8
0
100
AcDbLine
 10
-4.604626080945664
 20
-23.27502077577659
 30
0.0
 11
-6.01883964331876
 21
-24.09151735670432
 31
0.0
  0
SPLINE
  5
B56E
330
B558
100
AcDbEntity
  8
0
100
AcDbSpline
210
0.0
220
0.0
230
1.0
 70
     8
 71
     3
 72
    11
 73
     7
 74
     0
 42
0.000000001
 43
0.0000000001
 40
-1.0
 40
-1.0
 40
-1.0
 40
-1.0
 40
-0.7907552673887423
 40
-0.7907552673887423
 40
-0.7907552673887423
 40
-0.6580591922547696
 40
-0.6580591922547696
 40
-0.6580591922547696
 40
-0.6580591922547696
 10
-4.604626080945708
 20
-23.27502077577657
 30
0.0
 10
-4.60258639717427
 20
-22.87676802552983
 30
0.0
 10
-4.637633407643724
 20
-22.4889713535055
 30
0.0
 10
-4.702228614539234
 20
-22.13538211731457
 30
0.0
 10
-4.743192754092637
 20
-21.91114754153042
 30
0.0
 10
-4.795539906990717
 20
-21.69570159317637
 30
0.0
 10
-4.858379522859954
 20
-21.48637125894929
 30
0.0
  0
ELLIPSE
  5
B56F
330
B558
100
AcDbEntity
  8
0
100
AcDbEllipse
 10
-8.847266768064944
 20
-20.36625170622153
 30
0.0
 11
3.999999999999994
 21
-0.0000000000000001
 31
0.0
210
0.0
220
0.0
230
1.0
 40
0.5773502691896259
 41
6.068647301408359
 42
6.283185307179588
  0
ELLIPSE
  5
B570
330
B558
100
AcDbEntity
  8
0
100
AcDbEllipse
 10
-8.847266768064944
 20
-20.36625170622153
 30
0.0
 11
3.999999999999995
 21
-0.0000000000000003
 31
0.0
210
0.0
220
0.0
230
1.0
 40
0.5773502691896257
 41
5.497787143782126
 42
6.068647301408359
  0
LINE
  5
B571
330
B558
100
AcDbEntity
  8
0
100
AcDbLine
 10
-6.018839643318751
 20
-21.99924486807699
 30
0.0
 11
-6.018839643318751
 21
-24.09151735670432
 31
0.0
  0
SPLINE
  5
B572
330
B558
100
AcDbEntity
  8
0
100
AcDbSpline
210
0.0
220
0.0
230
1.0
 70
     8
 71
     3
 72
    16
 73
    12
 74
     0
 42
0.000000001
 43
0.0000000001
 40
0.0
 40
0.0
 40
0.0
 40
0.0
 40
0.0351246652474422
 40
0.0351246652474422
 40
0.0553378239198147
 40
0.0553378239198147
 40
0.0803966042693123
 40
0.0803966042693123
 40
0.1060254000800287
 40
0.1060254000800287
 40
0.1164300524871915
 40
0.1164300524871915
 40
0.1164300524871915
 40
0.1164300524871915
 10
-4.858639438856977
 20
-20.54027945749003
 30
0.0
 10
-4.873834063669133
 20
-20.65636769430193
 30
0.0
 10
-4.888763937457225
 20
-20.77459596353091
 30
0.0
 10
-4.903616574389344
 20
-20.95196111906721
 30
0.0
 10
-4.907192548708794
 20
-21.01547406423211
 30
0.0
 10
-4.909436321348201
 20
-21.14656827579616
 30
0.0
 10
-4.906702293245084
 20
-21.21242144180869
 30
0.0
 10
-4.894837194397583
 20
-21.32786236570075
 30
0.0
 10
-4.885780625092426
 20
-21.37848866346077
 30
0.0
 10
-4.868945869389622
 20
-21.44729945642881
 30
0.0
 10
-4.863554249150046
 20
-21.46702999441053
 30
0.0
 10
-4.857439479671175
 20
-21.48735121613377
 30
0.0
  0
ELLIPSE
  5
B573
330
B558
100
AcDbEntity
  8
0
100
AcDbEllipse
 10
-3.190412518572562
 20
-32.66473145644544
 30
0.0
 11
1.000000000000105
 21
-1.732050807568816
 31
0.0
210
0.0
220
0.0
230
1.0
 40
0.5773502691896264
 41
3.926990816987
 42
5.497787143781897
  0
LINE
  5
B574
330
B558
100
AcDbEntity
  8
0
100
AcDbLine
 10
-3.190412518572567
 20
-34.29772461830089
 30
0.0
 11
-62.58738213824257
 21
-68.59058101726541
 31
0.0
  0
ELLIPSE
  5
B575
330
B558
100
AcDbEntity
  8
0
100
AcDbEllipse
 10
-62.58738213824256
 20
-66.95758785540994
 30
0.0
 11
2.000000000000208
 21
-3.464101615137638
 31
0.0
210
0.0
220
0.0
230
1.0
 40
0.5773502691896258
 41
3.926990816986997
 42
5.497787143781893
  0
LINE
  5
B576
330
B558
100
AcDbEntity
  8
0
100
AcDbLine
 10
-64.00159570061565
 20
-66.14109127448222
 30
0.0
 11
-4.604626080945655
 21
-31.84823487551771
 31
0.0
  0
LINE
  5
B577
330
B558
100
AcDbEntity
  8
0
100
AcDbLine
 10
-65.41580926298876
 20
-65.3245946935545
 30
0.0
 11
-64.00159570061565
 21
-66.14109127448222
 31
0.0
  0
LINE
  5
B578
330
B558
100
AcDbEntity
  8
0
100
AcDbLine
 10
-62.58738213824256
 20
-70.22357417912084
 30
0.0
 11
-62.58738213824256
 21
-68.59058101726541
 31
0.0
  0
ELLIPSE
  5
B579
330
B558
100
AcDbEntity
  8
0
100
AcDbEllipse
 10
-62.58738213824256
 20
-66.95758785540994
 30
0.0
 11
1.000000000000104
 21
-1.732050807568819
 31
0.0
210
0.0
220
0.0
230
1.0
 40
0.5773502691896258
 41
3.926990816986997
 42
5.497787143781896
  0
LINE
  5
B57A
330
B558
100
AcDbEntity
  8
0
100
AcDbLine
 10
63.98473169414945
 20
-71.44831905051242
 30
0.0
 11
63.98473169414947
 21
-62.87510495077132
 31
0.0
  0
ELLIPSE
  5
B57B
330
B558
100
AcDbEntity
  8
0
100
AcDbEllipse
 10
61.15630456940327
 20
-69.81532588865698
 30
0.0
 11
2.0
 21
-3.464101615137754
 31
0.0
210
0.0
220
0.0
230
1.0
 40
0.5773502691896251
 41
0.0
 42
0.7853981633974465
  0
LINE
  5
B57C
330
B558
100
AcDbEntity
  8
0
100
AcDbLine
 10
1.759334949733246
 20
-105.7411754494769
 30
0.0
 11
3.173548512106347
 21
-104.9246788685492
 31
0.0
  0
LINE
  5
B57D
330
B558
100
AcDbEntity
  8
0
100
AcDbLine
 10
63.98473169414945
 20
-71.44831905051242
 30
0.0
 11
4.587762074479435
 21
-105.7411754494769
 31
0.0
  0
ELLIPSE
  5
B57E
330
B558
100
AcDbEntity
  8
0
100
AcDbEllipse
 10
1.759334949733246
 20
-104.1081822876215
 30
0.0
 11
2.000000000000002
 21
-3.464101615137759
 31
0.0
210
0.0
220
0.0
230
1.0
 40
0.5773502691896258
 41
5.497787143782137
 42
7.068583470577033
  0
LINE
  5
B57F
330
B558
100
AcDbEntity
  8
0
100
AcDbLine
 10
91.91544955101813
 20
-52.056525253479
 30
0.0
 11
93.32966311339124
 21
-51.24002867255125
 31
0.0
  0
LINE
  5
B580
330
B558
100
AcDbEntity
  8
0
100
AcDbLine
 10
65.82749482087809
 20
-61.84675224941345
 30
0.0
 11
91.91544955101813
 21
-52.056525253479
 31
0.0
  0
ELLIPSE
  5
B581
330
B558
100
AcDbEntity
  8
0
100
AcDbEllipse
 10
79.5410808802535
 20
44.08594715076079
 30
0.0
 11
-3.25
 21
5.629165124598853
 31
0.0
210
0.0
220
0.0
230
1.0
 40
0.5773502691896255
 41
0.2193254863005912
 42
2.9222671672892
  0
ELLIPSE
  5
B582
330
B558
100
AcDbEntity
  8
0
100
AcDbEllipse
 10
87.31925547330554
 20
51.84266466957419
 30
0.0
 11
1.250000000000129
 21
-2.165063509461022
 31
0.0
210
0.0
220
0.0
230
1.0
 40
0.5773502691896257
 41
3.742856870268601
 42
5.681921090500122
  0
LINE
  5
B583
330
B558
100
AcDbEntity
  8
0
100
AcDbLine
 10
66.81315881889566
 20
67.76434799766485
 30
0.0
 11
93.32966311339118
 21
52.45503710526998
 31
0.0
  0
LINE
  5
B584
330
B558
100
AcDbEntity
  8
0
100
AcDbLine
 10
93.32966311339124
 20
-51.24002867255125
 30
0.0
 11
93.32966311339118
 21
52.45503710526998
 31
0.0
  0
ELLIPSE
  5
B585
330
B558
100
AcDbEntity
  8
0
100
AcDbEllipse
 10
63.98473169414946
 20
66.1313548358094
 30
0.0
 11
4.000000000000003
 21
-0.0000000000002381
 31
0.0
210
0.0
220
0.0
230
1.0
 40
0.5773502691896257
 41
0.7853981633976881
 42
2.356194490192585
  0
ELLIPSE
  5
B586
330
B558
100
AcDbEntity
  8
0
100
AcDbEllipse
 10
36.76112061846735
 20
41.43233326274567
 30
0.0
 11
1.249999999999871
 21
2.165063509461171
 31
0.0
210
0.0
220
0.0
230
0.9999999999999998
 40
0.577350269189626
 41
3.742856870268578
 42
5.681921090500118
  0
ELLIPSE
  5
B587
330
B558
100
AcDbEntity
  8
0
100
AcDbEllipse
 10
38.17533418084045
 20
40.61583668181795
 30
0.0
 11
-1.25
 21
-2.165063509461096
 31
0.0
210
0.0
220
0.0
230
0.9999999999999998
 40
0.577350269189626
 41
0.0
 42
6.283185307179586
  0
LINE
  5
B588
330
B558
100
AcDbEntity
  8
0
100
AcDbLine
 10
3.173548512106303
 20
-96.35146476880809
 30
0.0
 11
31.45781975956822
 21
-53.07714597963864
 31
0.0
  0
LINE
  5
B589
330
B558
100
AcDbEntity
  8
0
100
AcDbLine
 10
4.587762074479408
 20
-97.16796134973581
 30
0.0
 11
3.173548512106303
 21
-96.35146476880809
 31
0.0
  0
LINE
  5
B58A
330
B558
100
AcDbEntity
  8
0
100
AcDbLine
 10
32.87203332194132
 20
-53.89364256056636
 30
0.0
 11
4.587762074479408
 21
-97.16796134973581
 31
0.0
  0
LINE
  5
B58B
330
B558
100
AcDbEntity
  8
0
100
AcDbLine
 10
32.87203332194132
 20
-53.89364256056636
 30
0.0
 11
31.45781975956822
 21
-53.07714597963864
 31
0.0
  0
LINE
  5
B58C
330
B558
100
AcDbEntity
  8
0
100
AcDbLine
 10
31.45781975956822
 20
-53.07714597963864
 30
0.0
 11
31.45781975956825
 21
50.61791979818261
 31
0.0
  0
LINE
  5
B58D
330
B558
100
AcDbEntity
  8
0
100
AcDbLine
 10
32.87203332194135
 20
49.80142321725487
 30
0.0
 11
32.87203332194132
 21
-53.89364256056636
 31
0.0
  0
LINE
  5
B58E
330
B558
100
AcDbEntity
  8
0
100
AcDbLine
 10
31.45781975956825
 20
50.61791979818261
 30
0.0
 11
32.87203332194135
 21
49.80142321725487
 31
0.0
  0
LINE
  5
B58F
330
B558
100
AcDbEntity
  8
0
100
AcDbLine
 10
4.587762074479408
 20
-97.16796134973581
 30
0.0
 11
4.58776207447944
 21
-105.7411754494769
 31
0.0
  0
LINE
  5
B590
330
B558
100
AcDbEntity
  8
0
100
AcDbLine
 10
62.57051813177636
 20
-61.59932904307169
 30
0.0
 11
62.57051813177636
 21
66.94785141673711
 31
0.0
  0
LINE
  5
B591
330
B558
100
AcDbEntity
  8
0
100
AcDbLine
 10
62.57051813177636
 20
66.94785141673712
 30
0.0
 11
32.87203332194135
 21
49.80142321725487
 31
0.0
  0
LINE
  5
B592
330
B558
100
AcDbEntity
  8
0
100
AcDbLine
 10
31.45781975956825
 20
50.61791979818261
 30
0.0
 11
61.15630456940326
 21
67.76434799766485
 31
0.0
  0
LINE
  5
B593
330
B558
100
AcDbEntity
  8
0
100
AcDbLine
 10
3.173548512106338
 20
-104.9246788685492
 30
0.0
 11
3.173548512106303
 21
-96.35146476880809
 31
0.0
  0
LINE
  5
B594
330
B558
100
AcDbEntity
  8
0
100
AcDbLine
 10
1.759334949733246
 20
-105.7411754494769
 30
0.0
 11
1.759334949733246
 21
-107.3741686113324
 31
0.0
  0
LINE
  5
B595
330
B558
100
AcDbEntity
  8
0
100
AcDbLine
 10
3.173548512106338
 20
-104.9246788685492
 30
0.0
 11
4.58776207447944
 21
-105.7411754494769
 31
0.0
  0
ELLIPSE
  5
B596
330
B558
100
AcDbEntity
  8
0
100
AcDbEllipse
 10
1.759334949733246
 20
-104.1081822876215
 30
0.0
 11
1.000000000000001
 21
-1.732050807568879
 31
0.0
210
0.0
220
0.0
230
1.0
 40
0.5773502691896258
 41
5.497787143782142
 42
7.068583470577038
  0
LINE
  5
B597
330
B558
100
AcDbEntity
  8
0
100
AcDbLine
 10
65.39894525652255
 20
-61.5993290430717
 30
0.0
 11
65.39894525652257
 21
66.94785141673712
 31
0.0
  0
ELLIPSE
  5
B598
330
B558
100
AcDbEntity
  8
0
100
AcDbEllipse
 10
63.98473169414946
 20
66.1313548358094
 30
0.0
 11
-2.000000000000001
 21
-0.0000000000001193
 31
0.0
210
0.0
220
0.0
230
1.0
 40
0.5773502691896258
 41
3.926990816986995
 42
5.497787143781891
  0
LINE
  5
B599
330
B558
100
AcDbEntity
  8
0
100
AcDbLine
 10
93.32966311339118
 20
52.45503710526998
 30
0.0
 11
91.91544955101809
 21
51.63854052434226
 31
0.0
  0
LINE
  5
B59A
330
B558
100
AcDbEntity
  8
0
100
AcDbLine
 10
91.91544955101813
 20
-52.056525253479
 30
0.0
 11
91.91544955101809
 21
51.63854052434226
 31
0.0
  0
LINE
  5
B59B
330
B558
100
AcDbEntity
  8
0
100
AcDbLine
 10
62.57051813177636
 20
66.94785141673712
 30
0.0
 11
61.15630456940326
 21
67.76434799766485
 31
0.0
  0
LINE
  5
B59C
330
B558
100
AcDbEntity
  8
0
100
AcDbLine
 10
65.39894525652257
 20
66.94785141673712
 30
0.0
 11
66.81315881889566
 21
67.76434799766485
 31
0.0
  0
LINE
  5
B59D
330
B558
100
AcDbEntity
  8
0
100
AcDbLine
 10
91.91544955101809
 20
51.63854052434226
 30
0.0
 11
65.39894525652257
 21
66.94785141673712
 31
0.0
  0
ELLIPSE
  5
B59E
330
B558
100
AcDbEntity
  8
0
100
AcDbEllipse
 10
78.12686731788041
 20
43.26945056983307
 30
0.0
 11
-3.25
 21
5.62916512459885
 31
0.0
210
0.0
220
0.0
230
1.0
 40
0.5773502691896258
 41
0.0
 42
6.283185307179586
  0
ELLIPSE
  5
B59F
330
B558
100
AcDbEntity
  8
0
100
AcDbEllipse
 10
85.90504191093245
 20
51.02616808864647
 30
0.0
 11
-1.25
 21
2.165063509461097
 31
0.0
210
0.0
220
0.0
230
1.0
 40
0.5773502691896257
 41
0.0
 42
6.283185307179586
  0
LINE
  5
B5A0
330
B558
100
AcDbEntity
  8
0
100
AcDbLine
 10
3.759334949733248
 20
-107.5722839027592
 30
0.0
 11
63.15630456940327
 21
-73.27942750379475
 31
0.0
  0
ELLIPSE
  5
B5A1
330
B558
100
AcDbEntity
  8
0
100
AcDbEllipse
 10
79.5410808802535
 20
-37.5637109420118
 30
0.0
 11
-3.25
 21
5.62916512459885
 31
0.0
210
0.0
220
0.0
230
1.0
 40
0.5773502691896258
 41
0.2193254863005913
 42
2.9222671672892
  0
ELLIPSE
  5
B5A2
330
B558
100
AcDbEntity
  8
0
100
AcDbEllipse
 10
78.12686731788041
 20
-38.38020752293953
 30
0.0
 11
-3.25
 21
5.62916512459885
 31
0.0
210
0.0
220
0.0
230
1.0
 40
0.5773502691896258
 41
0.0
 42
6.283185307179586
  0
ELLIPSE
  5
B5A3
330
B558
100
AcDbEntity
  8
0
100
AcDbEllipse
 10
71.76290628720147
 20
-45.3204284608252
 30
0.0
 11
1.250000000000128
 21
-2.165063509461022
 31
0.0
210
0.0
220
0.0
230
0.9999999999999998
 40
0.5773502691896258
 41
3.742856870268576
 42
5.681921090500122
  0
ELLIPSE
  5
B5A4
330
B558
100
AcDbEntity
  8
0
100
AcDbEllipse
 10
71.76290628720147
 20
-28.99049684227068
 30
0.0
 11
1.250000000000128
 21
-2.165063509461022
 31
0.0
210
0.0
220
0.0
230
0.9999999999999998
 40
0.5773502691896258
 41
3.742856870268576
 42
5.681921090500122
  0
ELLIPSE
  5
B5A5
330
B558
100
AcDbEntity
  8
0
100
AcDbEllipse
 10
71.76290628720147
 20
-12.66056522371616
 30
0.0
 11
1.250000000000128
 21
-2.165063509461022
 31
0.0
210
0.0
220
0.0
230
0.9999999999999998
 40
0.5773502691896258
 41
3.742856870268578
 42
5.681921090500122
  0
ELLIPSE
  5
B5A6
330
B558
100
AcDbEntity
  8
0
100
AcDbEllipse
 10
71.76290628720147
 20
3.669366394838364
 30
0.0
 11
1.250000000000128
 21
-2.165063509461022
 31
0.0
210
0.0
220
0.0
230
0.9999999999999998
 40
0.5773502691896258
 41
3.742856870268578
 42
5.681921090500122
  0
ELLIPSE
  5
B5A7
330
B558
100
AcDbEntity
  8
0
100
AcDbEllipse
 10
71.76290628720147
 20
19.99929801339289
 30
0.0
 11
1.250000000000128
 21
-2.165063509461022
 31
0.0
210
0.0
220
0.0
230
0.9999999999999998
 40
0.5773502691896258
 41
3.742856870268576
 42
5.681921090500122
  0
ELLIPSE
  5
B5A8
330
B558
100
AcDbEntity
  8
0
100
AcDbEllipse
 10
71.76290628720147
 20
36.32922963194741
 30
0.0
 11
1.250000000000128
 21
-2.165063509461022
 31
0.0
210
0.0
220
0.0
230
0.9999999999999998
 40
0.5773502691896258
 41
3.742856870268576
 42
5.681921090500122
  0
ELLIPSE
  5
B5A9
330
B558
100
AcDbEntity
  8
0
100
AcDbEllipse
 10
70.34869272482838
 20
-46.13692504175292
 30
0.0
 11
-1.25
 21
2.165063509461097
 31
0.0
210
0.0
220
0.0
230
1.0
 40
0.5773502691896257
 41
0.0
 42
6.283185307179586
  0
ELLIPSE
  5
B5AA
330
B558
100
AcDbEntity
  8
0
100
AcDbEllipse
 10
70.34869272482838
 20
-29.8069934231984
 30
0.0
 11
-1.25
 21
2.165063509461097
 31
0.0
210
0.0
220
0.0
230
1.0
 40
0.5773502691896257
 41
0.0
 42
6.283185307179586
  0
ELLIPSE
  5
B5AB
330
B558
100
AcDbEntity
  8
0
100
AcDbEllipse
 10
70.34869272482838
 20
-13.47706180464388
 30
0.0
 11
-1.25
 21
2.165063509461097
 31
0.0
210
0.0
220
0.0
230
1.0
 40
0.5773502691896257
 41
0.0
 42
6.283185307179586
  0
ELLIPSE
  5
B5AC
330
B558
100
AcDbEntity
  8
0
100
AcDbEllipse
 10
70.34869272482838
 20
2.852869813910636
 30
0.0
 11
-1.25
 21
2.165063509461097
 31
0.0
210
0.0
220
0.0
230
1.0
 40
0.5773502691896257
 41
0.0
 42
6.283185307179586
  0
ELLIPSE
  5
B5AD
330
B558
100
AcDbEntity
  8
0
100
AcDbEllipse
 10
70.34869272482838
 20
19.18280143246516
 30
0.0
 11
-1.25
 21
2.165063509461097
 31
0.0
210
0.0
220
0.0
230
1.0
 40
0.5773502691896257
 41
0.0
 42
6.283185307179586
  0
ELLIPSE
  5
B5AE
330
B558
100
AcDbEntity
  8
0
100
AcDbEllipse
 10
70.34869272482838
 20
35.51273305101967
 30
0.0
 11
-1.25
 21
2.165063509461097
 31
0.0
210
0.0
220
0.0
230
1.0
 40
0.5773502691896257
 41
0.0
 42
6.283185307179586
  0
ELLIPSE
  5
B5AF
330
B558
100
AcDbEntity
  8
0
100
AcDbEllipse
 10
71.76290628720147
 20
52.65916125050193
 30
0.0
 11
1.250000000000128
 21
-2.165063509461022
 31
0.0
210
0.0
220
0.0
230
0.9999999999999998
 40
0.5773502691896258
 41
3.742856870268576
 42
5.681921090500122
  0
ELLIPSE
  5
B5B0
330
B558
100
AcDbEntity
  8
0
100
AcDbEllipse
 10
70.34869272482838
 20
51.84266466957419
 30
0.0
 11
-1.25
 21
2.165063509461097
 31
0.0
210
0.0
220
0.0
230
1.0
 40
0.5773502691896257
 41
0.0
 42
6.283185307179586
  0
ELLIPSE
  5
B5B1
330
B558
100
AcDbEntity
  8
0
100
AcDbEllipse
 10
87.31925547330554
 20
-46.13692504175292
 30
0.0
 11
1.250000000000128
 21
-2.165063509461022
 31
0.0
210
0.0
220
0.0
230
0.9999999999999998
 40
0.5773502691896258
 41
3.742856870268573
 42
5.681921090500111
  0
ELLIPSE
  5
B5B2
330
B558
100
AcDbEntity
  8
0
100
AcDbEllipse
 10
87.31925547330554
 20
-29.80699342319841
 30
0.0
 11
1.250000000000128
 21
-2.165063509461022
 31
0.0
210
0.0
220
0.0
230
0.9999999999999998
 40
0.5773502691896258
 41
3.742856870268575
 42
5.681921090500111
  0
ELLIPSE
  5
B5B3
330
B558
100
AcDbEntity
  8
0
100
AcDbEllipse
 10
87.31925547330554
 20
-13.47706180464389
 30
0.0
 11
1.250000000000128
 21
-2.165063509461022
 31
0.0
210
0.0
220
0.0
230
0.9999999999999998
 40
0.5773502691896258
 41
3.742856870268575
 42
5.681921090500111
  0
ELLIPSE
  5
B5B4
330
B558
100
AcDbEntity
  8
0
100
AcDbEllipse
 10
87.31925547330554
 20
2.852869813910636
 30
0.0
 11
1.250000000000128
 21
-2.165063509461022
 31
0.0
210
0.0
220
0.0
230
0.9999999999999998
 40
0.5773502691896258
 41
3.742856870268575
 42
5.681921090500111
  0
ELLIPSE
  5
B5B5
330
B558
100
AcDbEntity
  8
0
100
AcDbEllipse
 10
87.31925547330554
 20
19.18280143246514
 30
0.0
 11
1.250000000000128
 21
-2.165063509461022
 31
0.0
210
0.0
220
0.0
230
0.9999999999999998
 40
0.5773502691896258
 41
3.742856870268575
 42
5.681921090500111
  0
ELLIPSE
  5
B5B6
330
B558
100
AcDbEntity
  8
0
100
AcDbEllipse
 10
87.31925547330554
 20
35.51273305101967
 30
0.0
 11
1.250000000000128
 21
-2.165063509461022
 31
0.0
210
0.0
220
0.0
230
0.9999999999999998
 40
0.5773502691896258
 41
3.742856870268575
 42
5.681921090500111
  0
ELLIPSE
  5
B5B7
330
B558
100
AcDbEntity
  8
0
100
AcDbEllipse
 10
-27.93914986010173
 20
100.4242112347739
 30
0.0
 11
1.25
 21
-2.165063509461096
 31
0.0
210
0.0
220
0.0
230
1.0
 40
0.5773502691896259
 41
0.0
 42
6.283185307179586
  0
ELLIPSE
  5
B5B8
330
B558
100
AcDbEntity
  8
0
100
AcDbEllipse
 10
-26.52493629772864
 20
101.2407078157016
 30
0.0
 11
1.25000000000013
 21
-2.165063509461022
 31
0.0
210
0.0
220
0.0
230
1.0
 40
0.5773502691896259
 41
3.742856870268576
 42
5.681921090500115
  0
ELLIPSE
  5
B5B9
330
B558
100
AcDbEntity
  8
0
100
AcDbEllipse
 10
85.90504191093245
 20
-46.95342162268065
 30
0.0
 11
-1.25
 21
2.165063509461097
 31
0.0
210
0.0
220
0.0
230
1.0
 40
0.5773502691896257
 41
0.0
 42
6.283185307179586
  0
ELLIPSE
  5
B5BA
330
B558
100
AcDbEntity
  8
0
100
AcDbEllipse
 10
85.90504191093245
 20
-30.62349000412614
 30
0.0
 11
-1.25
 21
2.165063509461097
 31
0.0
210
0.0
220
0.0
230
1.0
 40
0.5773502691896257
 41
0.0
 42
6.283185307179586
  0
ELLIPSE
  5
B5BB
330
B558
100
AcDbEntity
  8
0
100
AcDbEllipse
 10
85.90504191093245
 20
-14.29355838557161
 30
0.0
 11
-1.25
 21
2.165063509461097
 31
0.0
210
0.0
220
0.0
230
1.0
 40
0.5773502691896257
 41
0.0
 42
6.283185307179586
  0
ELLIPSE
  5
B5BC
330
B558
100
AcDbEntity
  8
0
100
AcDbEllipse
 10
85.90504191093245
 20
2.036373232982917
 30
0.0
 11
-1.25
 21
2.165063509461097
 31
0.0
210
0.0
220
0.0
230
1.0
 40
0.5773502691896257
 41
0.0
 42
6.283185307179586
  0
ELLIPSE
  5
B5BD
330
B558
100
AcDbEntity
  8
0
100
AcDbEllipse
 10
85.90504191093245
 20
18.36630485153742
 30
0.0
 11
-1.25
 21
2.165063509461097
 31
0.0
210
0.0
220
0.0
230
1.0
 40
0.5773502691896257
 41
0.0
 42
6.283185307179586
  0
ELLIPSE
  5
B5BE
330
B558
100
AcDbEntity
  8
0
100
AcDbEllipse
 10
85.90504191093245
 20
34.69623647009195
 30
0.0
 11
-1.25
 21
2.165063509461097
 31
0.0
210
0.0
220
0.0
230
1.0
 40
0.5773502691896257
 41
0.0
 42
6.283185307179586
  0
ELLIPSE
  5
B5BF
330
B558
100
AcDbEntity
  8
0
100
AcDbEllipse
 10
-20.1609752670497
 20
100.01596294431
 30
0.0
 11
-3.250000000000003
 21
5.629165124598848
 31
0.0
210
0.0
220
0.0
230
1.0
 40
0.577350269189626
 41
4.71238898038469
 42
7.853981633974483
  0
ELLIPSE
  5
B5C0
330
B558
100
AcDbEntity
  8
0
100
AcDbEllipse
 10
-18.7467617046766
 20
100.8324595252377
 30
0.0
 11
-3.250000000000003
 21
5.629165124598854
 31
0.0
210
0.0
220
0.0
230
1.0
 40
0.5773502691896258
 41
0.219325486300592
 42
1.570796326794897
  0
ELLIPSE
  5
B5C1
330
B558
100
AcDbEntity
  8
0
100
AcDbEllipse
 10
-27.93914986010172
 20
116.7541428533284
 30
0.0
 11
1.25
 21
-2.165063509461096
 31
0.0
210
0.0
220
0.0
230
1.0
 40
0.5773502691896259
 41
0.0
 42
6.283185307179586
  0
ELLIPSE
  5
B5C2
330
B558
100
AcDbEntity
  8
0
100
AcDbEllipse
 10
-26.52493629772863
 20
117.5706394342561
 30
0.0
 11
1.250000000000129
 21
-2.165063509461022
 31
0.0
210
0.0
220
0.0
230
1.0
 40
0.5773502691896259
 41
3.742856870268589
 42
5.681921090500123
  0
LINE
  5
B5C3
330
B558
100
AcDbEntity
  8
0
100
AcDbLine
 10
-7.433053205691848
 20
107.3644321726595
 30
0.0
 11
-7.433053205691844
 21
108.997425334515
 31
0.0
  0
ELLIPSE
  5
B5C4
330
B558
100
AcDbEntity
  8
0
100
AcDbEllipse
 10
-8.84726676806494
 20
108.1809287535873
 30
0.0
 11
2.000000000000001
 21
0.0000000000000001
 31
0.0
210
0.0
220
0.0
230
1.0
 40
0.5773502691896258
 41
5.497787143782129
 42
7.068583470577027
  0
LINE
  5
B5C5
330
B558
100
AcDbEntity
  8
0
100
AcDbLine
 10
-6.018839643318747
 20
106.5479355917318
 30
0.0
 11
-6.018839643318751
 21
-21.99924486807699
 31
0.0
  0
ELLIPSE
  5
B5C6
330
B558
100
AcDbEntity
  8
0
100
AcDbEllipse
 10
-8.84726676806494
 20
108.1809287535873
 30
0.0
 11
4.000000000000003
 21
-0.0000000000000001
 31
0.0
210
0.0
220
0.0
230
1.0
 40
0.5773502691896258
 41
5.497787143782137
 42
7.068583470577034
  0
LINE
  5
B5C7
330
B558
100
AcDbEntity
  8
0
100
AcDbLine
 10
-7.433053205691844
 20
108.997425334515
 30
0.0
 11
-6.018839643318747
 21
109.8139219154427
 31
0.0
  0
LINE
  5
B5C8
330
B558
100
AcDbEntity
  8
0
100
AcDbLine
 10
-7.433053205691844
 20
107.3644321726596
 30
0.0
 11
-6.018839643318747
 21
106.5479355917318
 31
0.0
  0
LINE
  5
B5C9
330
B558
100
AcDbEntity
  8
0
100
AcDbLine
 10
-4.847266768064955
 20
-20.36625170622155
 30
0.0
 11
-4.84726676806495
 21
108.1809287535873
 31
0.0
  0
LINE
  5
B5CA
330
B558
100
AcDbEntity
  8
0
100
AcDbLine
 10
-33.94955750018738
 20
124.3067362269099
 30
0.0
 11
-7.433053205691844
 21
108.997425334515
 31
0.0
  0
LINE
  5
B5CB
330
B558
100
AcDbEntity
  8
0
100
AcDbLine
 10
-33.94955750018742
 20
92.05512128026468
 30
0.0
 11
-33.94955750018738
 21
124.3067362269099
 31
0.0
  0
LINE
  5
B5CC
330
B558
100
AcDbEntity
  8
0
100
AcDbLine
 10
-64.00159570061565
 20
-66.14109127448222
 30
0.0
 11
-64.00159570061567
 21
-57.56787717474111
 31
0.0
  0
LINE
  5
B5CD
330
B558
100
AcDbEntity
  8
0
100
AcDbLine
 10
-35.71732445315375
 20
89.40150739224959
 30
0.0
 11
-6.018839643318747
 21
106.5479355917318
 31
0.0
  0
LINE
  5
B5CE
330
B558
100
AcDbEntity
  8
0
100
AcDbLine
 10
-65.41580926298879
 20
-56.75138059381339
 30
0.0
 11
-65.41580926298876
 21
-65.3245946935545
 31
0.0
  0
LINE
  5
B5CF
330
B558
100
AcDbEntity
  8
0
100
AcDbLine
 10
-7.433053205691844
 20
107.3644321726596
 30
0.0
 11
-37.13153801552684
 21
90.21800397317731
 31
0.0
  0
LINE
  5
B5D0
330
B558
100
AcDbEntity
  8
0
100
AcDbLine
 10
-6.018839643318747
 20
109.8139219154427
 30
0.0
 11
-32.53534393781429
 21
125.1232328078376
 31
0.0
  0
LINE
  5
B5D1
330
B558
100
AcDbEntity
  8
0
100
AcDbLine
 10
-32.53534393781429
 20
125.1232328078376
 30
0.0
 11
-33.94955750018738
 21
124.3067362269099
 31
0.0
  0
ELLIPSE
  5
B5D2
330
B558
100
AcDbEntity
  8
0
100
AcDbEllipse
 10
36.76112061846735
 20
-56.54725644858145
 30
0.0
 11
1.249999999999871
 21
2.165063509461171
 31
0.0
210
0.0
220
0.0
230
0.9999999999999998
 40
0.577350269189626
 41
3.742856870268578
 42
5.681921090500116
  0
ELLIPSE
  5
B5D3
330
B558
100
AcDbEntity
  8
0
100
AcDbEllipse
 10
38.17533418084044
 20
-57.36375302950918
 30
0.0
 11
-1.25
 21
-2.165063509461096
 31
0.0
210
0.0
220
0.0
230
0.9999999999999998
 40
0.577350269189626
 41
0.0
 42
6.283185307179586
  0
ELLIPSE
  5
B5D4
330
B558
100
AcDbEntity
  8
0
100
AcDbEllipse
 10
36.76112061846735
 20
-40.21732483002693
 30
0.0
 11
1.249999999999871
 21
2.165063509461171
 31
0.0
210
0.0
220
0.0
230
0.9999999999999998
 40
0.577350269189626
 41
3.742856870268578
 42
5.681921090500118
  0
ELLIPSE
  5
B5D5
330
B558
100
AcDbEntity
  8
0
100
AcDbEllipse
 10
38.17533418084044
 20
-41.03382141095464
 30
0.0
 11
-1.25
 21
-2.165063509461096
 31
0.0
210
0.0
220
0.0
230
0.9999999999999998
 40
0.577350269189626
 41
0.0
 42
6.283185307179586
  0
ELLIPSE
  5
B5D6
330
B558
100
AcDbEntity
  8
0
100
AcDbEllipse
 10
36.76112061846735
 20
-23.88739321147241
 30
0.0
 11
1.249999999999871
 21
2.165063509461171
 31
0.0
210
0.0
220
0.0
230
0.9999999999999998
 40
0.577350269189626
 41
3.742856870268578
 42
5.681921090500118
  0
ELLIPSE
  5
B5D7
330
B558
100
AcDbEntity
  8
0
100
AcDbEllipse
 10
38.17533418084044
 20
-24.70388979240013
 30
0.0
 11
-1.25
 21
-2.165063509461096
 31
0.0
210
0.0
220
0.0
230
0.9999999999999998
 40
0.577350269189626
 41
0.0
 42
6.283185307179586
  0
ELLIPSE
  5
B5D8
330
B558
100
AcDbEntity
  8
0
100
AcDbEllipse
 10
36.76112061846735
 20
-7.557461592917888
 30
0.0
 11
1.249999999999871
 21
2.165063509461171
 31
0.0
210
0.0
220
0.0
230
0.9999999999999998
 40
0.577350269189626
 41
3.742856870268578
 42
5.681921090500119
  0
ELLIPSE
  5
B5D9
330
B558
100
AcDbEntity
  8
0
100
AcDbEllipse
 10
38.17533418084044
 20
-8.373958173845608
 30
0.0
 11
-1.25
 21
-2.165063509461096
 31
0.0
210
0.0
220
0.0
230
0.9999999999999998
 40
0.577350269189626
 41
0.0
 42
6.283185307179586
  0
ELLIPSE
  5
B5DA
330
B558
100
AcDbEntity
  8
0
100
AcDbEllipse
 10
36.76112061846735
 20
8.772470025636636
 30
0.0
 11
1.249999999999871
 21
2.165063509461171
 31
0.0
210
0.0
220
0.0
230
0.9999999999999998
 40
0.577350269189626
 41
3.742856870268578
 42
5.681921090500118
  0
ELLIPSE
  5
B5DB
330
B558
100
AcDbEntity
  8
0
100
AcDbEllipse
 10
38.17533418084045
 20
7.955973444708916
 30
0.0
 11
-1.25
 21
-2.165063509461096
 31
0.0
210
0.0
220
0.0
230
0.9999999999999998
 40
0.577350269189626
 41
0.0
 42
6.283185307179586
  0
ELLIPSE
  5
B5DC
330
B558
100
AcDbEntity
  8
0
100
AcDbEllipse
 10
36.76112061846735
 20
25.10240164419114
 30
0.0
 11
1.249999999999871
 21
2.165063509461171
 31
0.0
210
0.0
220
0.0
230
0.9999999999999998
 40
0.577350269189626
 41
3.742856870268578
 42
5.681921090500118
  0
ELLIPSE
  5
B5DD
330
B558
100
AcDbEntity
  8
0
100
AcDbEllipse
 10
38.17533418084045
 20
24.28590506326342
 30
0.0
 11
-1.25
 21
-2.165063509461096
 31
0.0
210
0.0
220
0.0
230
0.9999999999999998
 40
0.577350269189626
 41
0.0
 42
6.283185307179586
  0
ELLIPSE
  5
B5DE
330
B558
100
AcDbEntity
  8
0
100
AcDbEllipse
 10
-31.82823715662774
 20
-25.11213808286397
 30
0.0
 11
1.249999999999871
 21
2.165063509461171
 31
0.0
210
0.0
220
0.0
230
1.0
 40
0.5773502691896259
 41
3.742856870268578
 42
5.681921090500114
  0
ELLIPSE
  5
B5DF
330
B558
100
AcDbEntity
  8
0
100
AcDbEllipse
 10
-30.41402359425465
 20
-25.92863466379171
 30
0.0
 11
1.249999999999999
 21
2.165063509461096
 31
0.0
210
0.0
220
0.0
230
1.0
 40
0.5773502691896259
 41
0.0
 42
6.283185307179586
  0
ELLIPSE
  5
B5E0
330
B558
100
AcDbEntity
  8
0
100
AcDbEllipse
 10
-31.82823715662774
 20
-8.782206464309458
 30
0.0
 11
1.249999999999871
 21
2.165063509461171
 31
0.0
210
0.0
220
0.0
230
1.0
 40
0.5773502691896259
 41
3.742856870268578
 42
5.681921090500114
  0
ELLIPSE
  5
B5E1
330
B558
100
AcDbEntity
  8
0
100
AcDbEllipse
 10
-30.41402359425465
 20
-9.598703045237186
 30
0.0
 11
1.249999999999999
 21
2.165063509461096
 31
0.0
210
0.0
220
0.0
230
1.0
 40
0.5773502691896259
 41
0.0
 42
6.283185307179586
  0
ELLIPSE
  5
B5E2
330
B558
100
AcDbEntity
  8
0
100
AcDbEllipse
 10
-31.82823715662774
 20
7.547725154245057
 30
0.0
 11
1.249999999999871
 21
2.165063509461171
 31
0.0
210
0.0
220
0.0
230
1.0
 40
0.5773502691896259
 41
3.742856870268578
 42
5.681921090500114
  0
ELLIPSE
  5
B5E3
330
B558
100
AcDbEntity
  8
0
100
AcDbEllipse
 10
-30.41402359425465
 20
6.731228573317338
 30
0.0
 11
1.249999999999999
 21
2.165063509461096
 31
0.0
210
0.0
220
0.0
230
1.0
 40
0.5773502691896259
 41
0.0
 42
6.283185307179586
  0
ELLIPSE
  5
B5E4
330
B558
100
AcDbEntity
  8
0
100
AcDbEllipse
 10
-31.82823715662774
 20
23.87765677279958
 30
0.0
 11
1.249999999999871
 21
2.165063509461171
 31
0.0
210
0.0
220
0.0
230
1.0
 40
0.5773502691896259
 41
3.742856870268578
 42
5.681921090500118
  0
ELLIPSE
  5
B5E5
330
B558
100
AcDbEntity
  8
0
100
AcDbEllipse
 10
-30.41402359425465
 20
23.06116019187186
 30
0.0
 11
1.249999999999999
 21
2.165063509461096
 31
0.0
210
0.0
220
0.0
230
1.0
 40
0.5773502691896259
 41
0.0
 42
6.283185307179586
  0
ELLIPSE
  5
B5E6
330
B558
100
AcDbEntity
  8
0
100
AcDbEllipse
 10
-31.82823715662774
 20
40.2075883913541
 30
0.0
 11
1.249999999999871
 21
2.165063509461171
 31
0.0
210
0.0
220
0.0
230
1.0
 40
0.5773502691896259
 41
3.742856870268578
 42
5.681921090500118
  0
ELLIPSE
  5
B5E7
330
B558
100
AcDbEntity
  8
0
100
AcDbEllipse
 10
-30.41402359425465
 20
39.39109181042639
 30
0.0
 11
1.249999999999999
 21
2.165063509461096
 31
0.0
210
0.0
220
0.0
230
1.0
 40
0.5773502691896259
 41
0.0
 42
6.283185307179586
  0
ELLIPSE
  5
B5E8
330
B558
100
AcDbEntity
  8
0
100
AcDbEllipse
 10
-31.82823715662774
 20
56.53752000990862
 30
0.0
 11
1.249999999999871
 21
2.165063509461171
 31
0.0
210
0.0
220
0.0
230
1.0
 40
0.5773502691896259
 41
3.742856870268578
 42
5.681921090500118
  0
ELLIPSE
  5
B5E9
330
B558
100
AcDbEntity
  8
0
100
AcDbEllipse
 10
-30.41402359425465
 20
55.7210234289809
 30
0.0
 11
1.249999999999999
 21
2.165063509461096
 31
0.0
210
0.0
220
0.0
230
1.0
 40
0.5773502691896259
 41
0.0
 42
6.283185307179586
  0
ELLIPSE
  5
B5EA
330
B558
100
AcDbEntity
  8
0
100
AcDbEllipse
 10
-31.82823715662774
 20
72.86745162846314
 30
0.0
 11
1.249999999999871
 21
2.165063509461171
 31
0.0
210
0.0
220
0.0
230
1.0
 40
0.5773502691896259
 41
3.742856870268578
 42
5.681921090500118
  0
ELLIPSE
  5
B5EB
330
B558
100
AcDbEntity
  8
0
100
AcDbEllipse
 10
-30.41402359425465
 20
72.05095504753542
 30
0.0
 11
1.249999999999999
 21
2.165063509461096
 31
0.0
210
0.0
220
0.0
230
1.0
 40
0.5773502691896259
 41
0.0
 42
6.283185307179586
  0
ELLIPSE
  5
B5EC
330
B558
100
AcDbEntity
  8
0
100
AcDbEllipse
 10
-31.82823715662774
 20
89.19738324701766
 30
0.0
 11
1.249999999999871
 21
2.165063509461171
 31
0.0
210
0.0
220
0.0
230
1.0
 40
0.5773502691896259
 41
3.74285687026858
 42
5.681921090500104
  0
ELLIPSE
  5
B5ED
330
B558
100
AcDbEntity
  8
0
100
AcDbEllipse
 10
-30.41402359425463
 20
88.38088666608994
 30
0.0
 11
1.249999999999999
 21
2.165063509461096
 31
0.0
210
0.0
220
0.0
230
1.0
 40
0.5773502691896259
 41
0.0
 42
6.283185307179586
  0
LINE
  5
B5EE
330
B558
100
AcDbEntity
  8
0
100
AcDbLine
 10
-35.71732445315377
 20
-14.29355838557165
 30
0.0
 11
-64.00159570061567
 21
-57.56787717474111
 31
0.0
  0
LINE
  5
B5EF
330
B558
100
AcDbEntity
  8
0
100
AcDbLine
 10
-37.13153801552687
 20
-13.47706180464392
 30
0.0
 11
-35.71732445315377
 21
-14.29355838557165
 31
0.0
  0
LINE
  5
B5F0
330
B558
100
AcDbEntity
  8
0
100
AcDbLine
 10
-65.41580926298879
 20
-56.75138059381339
 30
0.0
 11
-37.13153801552687
 21
-13.47706180464392
 31
0.0
  0
LINE
  5
B5F1
330
B558
100
AcDbEntity
  8
0
100
AcDbLine
 10
-64.00159570061567
 20
-57.56787717474111
 30
0.0
 11
-65.41580926298879
 21
-56.75138059381339
 31
0.0
  0
LINE
  5
B5F2
330
B558
100
AcDbEntity
  8
0
100
AcDbLine
 10
-35.71732445315375
 20
89.40150739224959
 30
0.0
 11
-35.71732445315377
 21
-14.29355838557166
 31
0.0
  0
LINE
  5
B5F3
330
B558
100
AcDbEntity
  8
0
100
AcDbLine
 10
-37.13153801552684
 20
90.21800397317731
 30
0.0
 11
-35.71732445315375
 21
89.40150739224959
 31
0.0
  0
LINE
  5
B5F4
330
B558
100
AcDbEntity
  8
0
100
AcDbLine
 10
-37.13153801552687
 20
-13.47706180464392
 30
0.0
 11
-37.13153801552684
 21
90.21800397317731
 31
0.0
  0
ENDBLK
  5
B55A
330
B558
100
AcDbEntity
  8
0
100
AcDbBlockEnd
  0
ENDSEC
  0
SECTION
  2
ENTITIES
  0
INSERT
  5
B5F5
330
1F
100
AcDbEntity
  8
0
100
AcDbBlockReference
  2
SAE440_95_2-Front
 10
0.0
 20
0.0
 30
0.0
  0
INSERT
  5
B5F6
330
1F
100
AcDbEntity
  8
0
100
AcDbBlockReference
  2
SAE440_95_2-Left
 10
141.35
 20
0.0
 30
0.0
  0
INSERT
  5
B5F7
330
1F
100
AcDbEntity
  8
0
100
AcDbBlockReference
  2
SAE440_95_2-Right
 10
-141.35
 20
0.0
 30
0.0
  0
INSERT
  5
B5F8
330
1F
100
AcDbEntity
  8
0
100
AcDbBlockReference
  2
SAE440_95_2-Top
 10
0.0
 20
-54.35
 30
0.0
  0
INSERT
  5
B5F9
330
1F
100
AcDbEntity
  8
0
100
AcDbBlockReference
  2
SAE440_95_2-Bottom
 10
0.0
 20
224.85
 30
0.0
  0
INSERT
  5
B5FA
330
1F
100
AcDbEntity
  8
0
100
AcDbBlockReference
  2
SAE440_95_2-ISO
 10
206.7658092629889
 20
-179.4732328078376
 30
0.0
  0
MTEXT
  5
B5FB
330
1F
100
AcDbEntity
  8
0
100
AcDbMText
 10
0.0
 20
-192.7
 30
0.0
 40
17.45
 41
0.0
 71
     5
 72
     5
  1
SAE440/95/2
 73
     1
 44
1.0
1001
ACAD
1000
MTEXTBEGIN
1070
    73
1070
     1
1070
    44
1040
1.0
1070
    74
1070
     0
1000
MTEXTEND
  0
ENDSEC
  0
SECTION
  2
OBJECTS
  0
DICTIONARY
  5
C
330
0
100
AcDbDictionary
281
     1
  3
ACAD_CIP_PREVIOUS_PRODUCT_INFO
350
216
  3
ACAD_COLOR
350
6B
  3
ACAD_DETAILVIEWSTYLE
350
21B
  3
ACAD_GROUP
350
D
  3
ACAD_LAYOUT
350
1A
  3
ACAD_MATERIAL
350
6A
  3
ACAD_MLEADERSTYLE
350
12D
  3
ACAD_MLINESTYLE
350
17
  3
ACAD_PLOTSETTINGS
350
19
  3
ACAD_PLOTSTYLENAME
350
E
  3
ACAD_SCALELIST
350
10C
  3
ACAD_SECTIONVIEWSTYLE
350
219
  3
ACAD_TABLESTYLE
350
7E
  3
ACAD_VISUALSTYLE
350
EF
  3
ACDB_RECOMPOSE_DATA
350
B6FC
  3
AcDbVariableDictionary
350
5E
  3
DWGPROPS
350
B6FD
  0
DICTIONARY
  5
B64C
330
8
100
AcDbDictionary
280
     1
281
     1
  0
DICTIONARY
  5
1FF
330
2
100
AcDbDictionary
280
     1
281
     1
  3
ACAD_LAYERSTATES
360
200
  0
DICTIONARY
  5
13C
330
10
100
AcDbDictionary
280
     1
281
     1
  0
DICTIONARY
  5
1CE
330
1F
100
AcDbDictionary
280
     1
281
     1
  3
ACAD_LAYOUTSELFREF
360
B654
  0
DICTIONARY
  5
B5FF
330
D2
100
AcDbDictionary
280
     1
281
     1
  3
ACAD_LAYOUTSELFREF
360
B65D
  0
DICTIONARY
  5
B601
330
D6
100
AcDbDictionary
280
     1
281
     1
  3
ACAD_LAYOUTSELFREF
360
B660
  0
XRECORD
  5
216
102
{ACAD_REACTORS
330
C
102
}
330
C
100
AcDbXrecord
280
     1
300
ACD
300
2021
300
87393ACD_2021_0F
  0
DICTIONARY
  5
6B
102
{ACAD_REACTORS
330
C
102
}
330
C
100
AcDbDictionary
281
     1
  0
DICTIONARY
  5
21B
102
{ACAD_REACTORS
330
C
102
}
330
C
100
AcDbDictionary
281
     1
  3
Metric50
350
21C
  0
DICTIONARY
  5
D
102
{ACAD_REACTORS
330
C
102
}
330
C
100
AcDbDictionary
281
     1
  0
DICTIONARY
  5
1A
102
{ACAD_REACTORS
330
C
102
}
330
C
100
AcDbDictionary
281
     1
  3
Layout1
350
D3
  3
Layout2
350
D7
  3
Model
350
22
  0
DICTIONARY
  5
6A
102
{ACAD_REACTORS
330
C
102
}
330
C
100
AcDbDictionary
281
     1
  3
ByBlock
350
ED
  3
ByLayer
350
EC
  3
Global
350
EE
  0
DICTIONARY
  5
12D
102
{ACAD_REACTORS
330
C
102
}
330
C
100
AcDbDictionary
281
     1
  3
Standard
350
12E
  0
DICTIONARY
  5
17
102
{ACAD_REACTORS
330
C
102
}
330
C
100
AcDbDictionary
281
     1
  3
Standard
350
18
  0
DICTIONARY
  5
19
102
{ACAD_REACTORS
330
C
102
}
330
C
100
AcDbDictionary
281
     1
  0
ACDBDICTIONARYWDFLT
  5
E
102
{ACAD_REACTORS
330
C
102
}
330
C
100
AcDbDictionary
281
     1
  3
Normal
350
F
100
AcDbDictionaryWithDefault
340
F
  0
DICTIONARY
  5
10C
102
{ACAD_REACTORS
330
C
102
}
330
C
100
AcDbDictionary
281
     1
  3
A0
350
10D
  3
A1
350
1BE
  3
A2
350
1BF
  3
A3
350
1C0
  3
A4
350
1C1
  3
A5
350
1C2
  3
A6
350
1C3
  3
A7
350
1C4
  3
A8
350
1C5
  3
A9
350
1C6
  3
B0
350
1C7
  3
B1
350
1C8
  3
B2
350
1C9
  3
B3
350
1CA
  3
B4
350
1CB
  3
B5
350
1CC
  3
B6
350
1CD
  0
DICTIONARY
  5
219
102
{ACAD_REACTORS
330
C
102
}
330
C
100
AcDbDictionary
281
     1
  3
Metric50
350
21A
  0
DICTIONARY
  5
7E
102
{ACAD_REACTORS
330
C
102
}
330
C
100
AcDbDictionary
281
     1
  3
Standard
350
7F
  0
DICTIONARY
  5
EF
102
{ACAD_REACTORS
330
C
102
}
330
C
100
AcDbDictionary
281
     1
  3
2dWireframe
350
F5
  3
Basic
350
F4
  3
Brighten
350
FB
  3
ColorChange
350
FF
  3
Conceptual
350
F8
  3
Dim
350
FA
  3
EdgeColorOff
350
1E6
  3
Facepattern
350
FE
  3
Flat
350
F0
  3
FlatWithEdges
350
F1
  3
Gouraud
350
F2
  3
GouraudWithEdges
350
F3
  3
Hidden
350
F7
  3
JitterOff
350
1E4
  3
Linepattern
350
FD
  3
OverhangOff
350
1E5
  3
Realistic
350
F9
  3
Shaded
350
1F3
  3
Shaded with edges
350
1F2
  3
Shades of Gray
350
1EF
  3
Sketchy
350
1F0
  3
Thicken
350
FC
  3
Wireframe
350
F6
  3
X-Ray
350
1F1
  0
XRECORD
  5
B6FC
102
{ACAD_REACTORS
330
C
102
}
330
C
100
AcDbXrecord
280
     1
 90
        1
330
7F
  0
DICTIONARY
  5
5E
102
{ACAD_REACTORS
330
C
102
}
330
C
100
AcDbDictionary
281
     1
  3
CANNOSCALE
350
146
  3
CENTEREXE
350
259
  3
CENTERLTYPEFILE
350
25A
  3
CMLEADERSTYLE
350
145
  3
CTABLESTYLE
350
84
  3
CVIEWDETAILSTYLE
350
227
  3
CVIEWSECTIONSTYLE
350
228
  3
DIMASSOC
350
5F
  3
HIDETEXT
350
63
  3
INDEXCTL
350
B6A9
  3
LAYEREVAL
350
1AE
  3
LAYERNOTIFY
350
1AF
  3
LIGHTINGUNITS
350
B6A7
  3
MSLTSCALE
350
B6A6
  3
PSOLHEIGHT
350
B6F9
  3
PSOLWIDTH
350
B6F8
  3
SORTENTS
350
B6A8
  3
XCLIPFRAME
350
B6FA
  0
XRECORD
  5
B6FD
102
{ACAD_REACTORS
330
C
102
}
330
C
100
AcDbXrecord
280
     1
  1
DWGPROPS COOKIE
  2

  3

  4

  6

  7

  8
truole
  9

300
=
301
=
302
=
303
=
304
=
305
=
306
=
307
=
308
=
309
=
 40
0.0079282407407407
 41
2460398.356956019
 42
2460398.375925926
  1

 90
        0
  0
DICTIONARY
  5
200
102
{ACAD_REACTORS
330
1FF
102
}
330
1FF
100
AcDbDictionary
281
     1
  0
XRECORD
  5
B654
102
{ACAD_REACTORS
330
1CE
102
}
330
1CE
100
AcDbXrecord
280
     1
340
1F
  0
XRECORD
  5
B65D
102
{ACAD_REACTORS
330
B5FF
102
}
330
B5FF
100
AcDbXrecord
280
     1
340
D2
  0
XRECORD
  5
B660
102
{ACAD_REACTORS
330
B601
102
}
330
B601
100
AcDbXrecord
280
     1
340
D6
  0
ACDBDETAILVIEWSTYLE
  5
21C
102
{ACAD_XDICTIONARY
360
B73C
102
}
102
{ACAD_REACTORS
330
21B
102
}
330
21B
100
AcDbModelDocViewStyle
 70
     0
  3
Metric50
290
     0
100
AcDbDetailViewStyle
 70
     0
 71
     0
 90
        3
 71
     1
340
11
 40
5.0
340
0
 40
5.0
300

 40
0.0
280
     1
 71
     2
340
16
 90
       25
 71
     3
340
11
 40
5.0
 90
        0
 40
15.0
 90
        1
300
%<\AcVar ViewDetailId>% (%<\AcVar ViewScale \f "%sn">%)
 71
     4
340
16
 90
       25
340
16
 90
       25
280
     0
  0
LAYOUT
  5
D3
102
{ACAD_XDICTIONARY
360
B701
102
}
102
{ACAD_REACTORS
330
1A
102
}
330
1A
100
AcDbPlotSettings
  1

  2
C:\Documents and Settings\basas\Application Data\Autodesk\AutoCAD 2005\R16.1\enu\plotters\Default Windows System Printer.pc3
  4

  6

 40
0.0
 41
0.0
 42
0.0
 43
0.0
 44
0.0
 45
0.0
 46
0.0
 47
0.0
 48
0.0
 49
0.0
140
0.0
141
0.0
142
1.0
143
1.0
 70
   688
 72
     0
 73
     0
 74
     5
  7

 75
    16
147
1.0
148
0.0
149
0.0
100
AcDbLayout
  1
Layout1
 70
     1
 71
     1
 10
0.0
 20
0.0
 11
12.0
 21
9.0
 12
0.0
 22
0.0
 32
0.0
 14
0.0
 24
0.0
 34
0.0
 15
0.0
 25
0.0
 35
0.0
146
0.0
 13
0.0
 23
0.0
 33
0.0
 16
1.0
 26
0.0
 36
0.0
 17
0.0
 27
1.0
 37
0.0
 76
     0
330
D2
  0
LAYOUT
  5
D7
102
{ACAD_XDICTIONARY
360
B703
102
}
102
{ACAD_REACTORS
330
1A
102
}
330
1A
100
AcDbPlotSettings
  1

  2
C:\Documents and Settings\basas\Application Data\Autodesk\AutoCAD 2005\R16.1\enu\plotters\Default Windows System Printer.pc3
  4

  6

 40
0.0
 41
0.0
 42
0.0
 43
0.0
 44
0.0
 45
0.0
 46
0.0
 47
0.0
 48
0.0
 49
0.0
140
0.0
141
0.0
142
1.0
143
1.0
 70
   688
 72
     0
 73
     0
 74
     5
  7

 75
    16
147
1.0
148
0.0
149
0.0
100
AcDbLayout
  1
Layout2
 70
     1
 71
     2
 10
0.0
 20
0.0
 11
12.0
 21
9.0
 12
0.0
 22
0.0
 32
0.0
 14
0.0
 24
0.0
 34
0.0
 15
0.0
 25
0.0
 35
0.0
146
0.0
 13
0.0
 23
0.0
 33
0.0
 16
1.0
 26
0.0
 36
0.0
 17
0.0
 27
1.0
 37
0.0
 76
     0
330
D6
  0
LAYOUT
  5
22
102
{ACAD_XDICTIONARY
360
B6FE
102
}
102
{ACAD_REACTORS
330
1A
102
}
330
1A
100
AcDbPlotSettings
  1

  2
none_device
  4
ISO_A4_(210.00_x_297.00_MM)
  6

 40
7.5
 41
20.0
 42
7.5
 43
20.0
 44
210.0
 45
297.0
 46
11.54999923706054
 47
-13.65000009536743
 48
0.0
 49
0.0
140
0.0
141
0.0
142
1.0
143
8.704084754739808
 70
 11952
 72
     1
 73
     0
 74
     0
  7

 75
     0
147
0.1148885871608098
148
0.0
149
0.0
100
AcDbLayout
  1
Model
 70
     1
 71
     0
 10
0.0
 20
0.0
 11
12.0
 21
9.0
 12
0.0
 22
0.0
 32
0.0
 14
0.0
 24
0.0
 34
0.0
 15
0.0
 25
0.0
 35
0.0
146
0.0
 13
0.0
 23
0.0
 33
0.0
 16
1.0
 26
0.0
 36
0.0
 17
0.0
 27
1.0
 37
0.0
 76
     0
330
1F
331
EA
1001
ACAD_PSEXT
1000
None
1000
None
1000
Not applicable
1000
The layout will not be plotted unless a new plotter configuration name is selected.
1070
     0
  0
MATERIAL
  5
ED
102
{ACAD_XDICTIONARY
360
1F9
102
}
102
{ACAD_REACTORS
330
6A
102
}
330
6A
100
AcDbMaterial
  1
ByBlock
  0
MATERIAL
  5
EC
102
{ACAD_XDICTIONARY
360
1F7
102
}
102
{ACAD_REACTORS
330
6A
102
}
330
6A
100
AcDbMaterial
  1
ByLayer
  0
MATERIAL
  5
EE
102
{ACAD_XDICTIONARY
360
173
102
}
102
{ACAD_REACTORS
330
6A
102
}
330
6A
100
AcDbMaterial
  1
Global
 43
0.0007999999797903
 43
0.0
 43
0.0
 43
0.0
 43
0.0
 43
0.0007999999797903
 43
0.0
 43
0.0
 43
0.0
 43
0.0
 43
1.0
 43
0.0
 43
0.0
 43
0.0
 43
0.0
 43
1.0
 49
0.0007999999797903
 49
0.0
 49
0.0
 49
0.0
 49
0.0
 49
0.0007999999797903
 49
0.0
 49
0.0
 49
0.0
 49
0.0
 49
1.0
 49
0.0
 49
0.0
 49
0.0
 49
0.0
 49
1.0
142
0.0007999999797903
142
0.0
142
0.0
142
0.0
142
0.0
142
0.0007999999797903
142
0.0
142
0.0
142
0.0
142
0.0
142
1.0
142
0.0
142
0.0
142
0.0
142
0.0
142
1.0
144
0.0007999999797903
144
0.0
144
0.0
144
0.0
144
0.0
144
0.0007999999797903
144
0.0
144
0.0
144
0.0
144
0.0
144
1.0
144
0.0
144
0.0
144
0.0
144
0.0
144
1.0
1001
ACAD
1070
    -1
1070
     3
1070
     0
1000

1071
        0
1070
     0
  0
MLEADERSTYLE
  5
12E
102
{ACAD_XDICTIONARY
360
B728
102
}
102
{ACAD_REACTORS
330
12D
102
}
330
12D
100
AcDbMLeaderStyle
170
     2
171
     1
172
     0
 90
        2
 40
0.0
 41
0.0
173
     1
 91
-1056964608
340
14
 92
       -2
290
     1
 42
2.0
291
     1
 43
8.0
  3
Standard
 44
4.0
300

342
11
174
     1
178
     1
175
     1
176
     0
 93
-1056964608
 45
4.0
292
     0
297
     0
 46
4.0
 94
-1056964608
 47
1.0
 49
1.0
140
1.0
293
     1
141
0.0
294
     1
177
     0
142
1.0
295
     0
296
     0
143
3.75
1001
ACAD_MLEADERVER
1070
     2
  0
MLINESTYLE
  5
18
102
{ACAD_REACTORS
330
17
102
}
330
17
100
AcDbMlineStyle
  2
STANDARD
 70
     0
  3

 62
   256
 51
90.0
 52
90.0
 71
     2
 49
0.5
 62
   256
  6
BYLAYER
 49
-0.5
 62
   256
  6
BYLAYER
  0
ACDBPLACEHOLDER
  5
F
102
{ACAD_REACTORS
330
E
102
}
330
E
  0
SCALE
  5
10D
102
{ACAD_REACTORS
330
10C
102
}
330
10C
100
AcDbScale
 70
     0
300
1:1
140
1.0
141
1.0
290
     1
  0
SCALE
  5
1BE
102
{ACAD_REACTORS
330
10C
102
}
330
10C
100
AcDbScale
 70
     0
300
1:2
140
1.0
141
2.0
290
     0
  0
SCALE
  5
1BF
102
{ACAD_REACTORS
330
10C
102
}
330
10C
100
AcDbScale
 70
     0
300
1:4
140
1.0
141
4.0
290
     0
  0
SCALE
  5
1C0
102
{ACAD_REACTORS
330
10C
102
}
330
10C
100
AcDbScale
 70
     0
300
1:5
140
1.0
141
5.0
290
     0
  0
SCALE
  5
1C1
102
{ACAD_REACTORS
330
10C
102
}
330
10C
100
AcDbScale
 70
     0
300
1:8
140
1.0
141
8.0
290
     0
  0
SCALE
  5
1C2
102
{ACAD_REACTORS
330
10C
102
}
330
10C
100
AcDbScale
 70
     0
300
1:10
140
1.0
141
10.0
290
     0
  0
SCALE
  5
1C3
102
{ACAD_REACTORS
330
10C
102
}
330
10C
100
AcDbScale
 70
     0
300
1:16
140
1.0
141
16.0
290
     0
  0
SCALE
  5
1C4
102
{ACAD_REACTORS
330
10C
102
}
330
10C
100
AcDbScale
 70
     0
300
1:20
140
1.0
141
20.0
290
     0
  0
SCALE
  5
1C5
102
{ACAD_REACTORS
330
10C
102
}
330
10C
100
AcDbScale
 70
     0
300
1:30
140
1.0
141
30.0
290
     0
  0
SCALE
  5
1C6
102
{ACAD_REACTORS
330
10C
102
}
330
10C
100
AcDbScale
 70
     0
300
1:40
140
1.0
141
40.0
290
     0
  0
SCALE
  5
1C7
102
{ACAD_REACTORS
330
10C
102
}
330
10C
100
AcDbScale
 70
     0
300
1:50
140
1.0
141
50.0
290
     0
  0
SCALE
  5
1C8
102
{ACAD_REACTORS
330
10C
102
}
330
10C
100
AcDbScale
 70
     0
300
1:100
140
1.0
141
100.0
290
     0
  0
SCALE
  5
1C9
102
{ACAD_REACTORS
330
10C
102
}
330
10C
100
AcDbScale
 70
     0
300
2:1
140
2.0
141
1.0
290
     0
  0
SCALE
  5
1CA
102
{ACAD_REACTORS
330
10C
102
}
330
10C
100
AcDbScale
 70
     0
300
4:1
140
4.0
141
1.0
290
     0
  0
SCALE
  5
1CB
102
{ACAD_REACTORS
330
10C
102
}
330
10C
100
AcDbScale
 70
     0
300
8:1
140
8.0
141
1.0
290
     0
  0
SCALE
  5
1CC
102
{ACAD_REACTORS
330
10C
102
}
330
10C
100
AcDbScale
 70
     0
300
10:1
140
10.0
141
1.0
290
     0
  0
SCALE
  5
1CD
102
{ACAD_REACTORS
330
10C
102
}
330
10C
100
AcDbScale
 70
     0
300
100:1
140
100.0
141
1.0
290
     0
  0
ACDBSECTIONVIEWSTYLE
  5
21A
102
{ACAD_XDICTIONARY
360
B73A
102
}
102
{ACAD_REACTORS
330
219
102
}
330
219
100
AcDbModelDocViewStyle
 70
     0
  3
Metric50
290
     0
100
AcDbSectionViewStyle
 70
     0
 71
     0
 90
      102
 71
     1
340
11
 40
5.0
340
0
340
0
 40
5.0
300
I, O, Q, S, X, Z
 40
10.0
 90
        0
 40
2.5
 90
        0
 71
     2
340
16
 90
       25
340
16
 90
       50
 40
5.0
 40
2.5
 40
5.0
 71
     3
340
11
 40
5.0
 90
        0
 40
15.0
 90
        1
300
%<\AcVar ViewSectionStartId>%-%<\AcVar ViewSectionEndId>% (%<\AcVar ViewScale \f "%sn">%)
 71
     4
300
ANSI31
 40
1.0
 90
        0
290
     0
290
     0
 90
        6
 40
0.0
 40
1.570796326794896
 40
0.2617993877991494
 40
1.308996938995747
 40
-0.2617993877991494
 40
1.832595714594046
  0
TABLESTYLE
  5
7F
102
{ACAD_XDICTIONARY
360
162
102
}
102
{ACAD_REACTORS
330
7E
102
}
330
7E
100
AcDbTableStyle
  3
Standard
 70
     0
 71
     0
 40
1.5
 41
1.5
280
     0
281
     0
  7
Standard
140
4.5
170
     2
 62
     0
 63
     7
283
     0
274
    -2
284
     1
 64
     0
275
    -2
285
     1
 65
     0
276
    -2
286
     1
 66
     0
277
    -2
287
     1
 67
     0
278
    -2
288
     1
 68
     0
279
    -2
289
     1
 69
     0
  7
Standard
140
6.0
170
     5
 62
     0
 63
     7
283
     0
274
    -2
284
     1
 64
     0
275
    -2
285
     1
 65
     0
276
    -2
286
     1
 66
     0
277
    -2
287
     1
 67
     0
278
    -2
288
     1
 68
     0
279
    -2
289
     1
 69
     0
  7
Standard
140
4.5
170
     5
 62
     0
 63
     7
283
     0
274
    -2
284
     1
 64
     0
275
    -2
285
     1
 65
     0
276
    -2
286
     1
 66
     0
277
    -2
287
     1
 67
     0
278
    -2
288
     1
 68
     0
279
    -2
289
     1
 69
     0
  0
VISUALSTYLE
  5
F5
102
{ACAD_XDICTIONARY
360
B712
102
}
102
{ACAD_REACTORS
330
EF
102
}
330
EF
100
AcDbVisualStyle
  2
2dWireframe
 70
     4
 71
     0
 72
     2
 73
     1
 90
        0
 40
-0.6
 41
-30.0
 62
     5
 63
     7
 74
     1
 91
        4
 64
     7
 65
   257
 75
     1
175
     1
 42
1.0
 92
        0
 66
   257
 43
1.0
 76
     1
 77
     6
 78
     2
 67
     7
 79
     5
170
     0
171
     0
290
     0
174
     0
 93
        1
 44
0.0
173
     0
291
     0
 45
0.0
1001
ACAD
1000
AcDbSavedByObjectVersion
1070
     0
  0
VISUALSTYLE
  5
F4
102
{ACAD_XDICTIONARY
360
B710
102
}
102
{ACAD_REACTORS
330
EF
102
}
330
EF
100
AcDbVisualStyle
  2
Basic
 70
     7
 71
     1
 72
     0
 73
     1
 90
        0
 40
-0.6
 41
-30.0
 62
     5
 63
     7
 74
     0
 91
        4
 64
     7
 65
   257
 75
     1
175
     1
 42
1.0
 92
        8
 66
     7
 43
1.0
 76
     1
 77
     6
 78
     2
 67
     7
 79
     5
170
     0
171
     0
290
     0
174
     0
 93
        1
 44
0.0
173
     0
291
     1
 45
0.0
1001
ACAD
1000
AcDbSavedByObjectVersion
1070
     0
  0
VISUALSTYLE
  5
FB
102
{ACAD_XDICTIONARY
360
B71E
102
}
102
{ACAD_REACTORS
330
EF
102
}
330
EF
100
AcDbVisualStyle
  2
Brighten
 70
    12
 71
     2
 72
     2
 73
     1
 90
        0
 40
-0.6
 41
-30.0
 62
     5
 63
     7
 74
     1
 91
        4
 64
     7
 65
   257
 75
     1
175
     1
 42
1.0
 92
        8
 66
     7
 43
1.0
 76
     1
 77
     6
 78
     2
 67
     7
 79
     5
170
     0
171
     0
290
     0
174
     0
 93
        1
 44
50.0
173
     0
291
     1
 45
0.0
1001
ACAD
1000
AcDbSavedByObjectVersion
1070
     0
  0
VISUALSTYLE
  5
FF
102
{ACAD_XDICTIONARY
360
B726
102
}
102
{ACAD_REACTORS
330
EF
102
}
330
EF
100
AcDbVisualStyle
  2
ColorChange
 70
    16
 71
     2
 72
     2
 73
     3
 90
        0
 40
-0.6
 41
-30.0
 62
     5
 63
     8
 74
     1
 91
        4
 64
     7
 65
   257
 75
     1
175
     1
 42
1.0
 92
        8
 66
     8
 43
1.0
 76
     1
 77
     6
 78
     2
 67
     7
 79
     5
170
     0
171
     0
290
     0
174
     0
 93
        1
 44
0.0
173
     0
291
     1
 45
0.0
1001
ACAD
1000
AcDbSavedByObjectVersion
1070
     0
  0
VISUALSTYLE
  5
F8
102
{ACAD_XDICTIONARY
360
B718
102
}
102
{ACAD_REACTORS
330
EF
102
}
330
EF
100
AcDbVisualStyle
  2
Conceptual
 70
     9
 71
     3
 72
     2
 73
     1
 90
        0
 40
-0.6
 41
-30.0
 62
     5
 63
     7
 74
     2
 91
        2
 64
     7
 65
   257
 75
     1
175
     1
 42
40.0
 92
        8
 66
     7
 43
1.0
 76
     1
 77
     6
 78
     2
 67
     7
 79
     3
170
     0
171
     0
290
     0
174
     0
 93
        1
 44
0.0
173
     0
291
     0
 45
0.0
1001
ACAD
1000
AcDbSavedByObjectVersion
1070
     0
  0
VISUALSTYLE
  5
FA
102
{ACAD_XDICTIONARY
360
B71C
102
}
102
{ACAD_REACTORS
330
EF
102
}
330
EF
100
AcDbVisualStyle
  2
Dim
 70
    11
 71
     2
 72
     2
 73
     1
 90
        0
 40
-0.6
 41
-30.0
 62
     5
 63
     7
 74
     1
 91
        4
 64
     7
 65
   257
 75
     1
175
     1
 42
1.0
 92
        8
 66
     7
 43
1.0
 76
     1
 77
     6
 78
     2
 67
     7
 79
     5
170
     0
171
     0
290
     0
174
     0
 93
        1
 44
-50.0
173
     0
291
     1
 45
0.0
1001
ACAD
1000
AcDbSavedByObjectVersion
1070
     0
  0
VISUALSTYLE
  5
1E6
102
{ACAD_XDICTIONARY
360
B72E
102
}
102
{ACAD_REACTORS
330
EF
102
}
330
EF
100
AcDbVisualStyle
  2
EdgeColorOff
 70
    22
 71
     2
 72
     2
 73
     0
 90
        0
 40
-0.6
 41
-30.0
 62
     5
 63
     7
 74
     1
 91
        4
 64
     7
 65
   257
 75
     1
175
     1
 42
1.0
 92
        8
 66
     7
 43
1.0
 76
     1
 77
     6
 78
     2
 67
     7
 79
     5
170
     0
171
     0
290
     0
174
     0
 93
        1
 44
0.0
173
     0
291
     1
 45
0.0
1001
ACAD
1000
AcDbSavedByObjectVersion
1070
     0
  0
VISUALSTYLE
  5
FE
102
{ACAD_XDICTIONARY
360
B724
102
}
102
{ACAD_REACTORS
330
EF
102
}
330
EF
100
AcDbVisualStyle
  2
Facepattern
 70
    15
 71
     2
 72
     2
 73
     1
 90
        0
 40
-0.6
 41
-30.0
 62
     5
 63
     7
 74
     1
 91
        4
 64
     7
 65
   257
 75
     1
175
     1
 42
1.0
 92
        8
 66
     7
 43
1.0
 76
     1
 77
     6
 78
     2
 67
     7
 79
     5
170
     0
171
     0
290
     0
174
     0
 93
        1
 44
0.0
173
     0
291
     1
 45
0.0
1001
ACAD
1000
AcDbSavedByObjectVersion
1070
     0
  0
VISUALSTYLE
  5
F0
102
{ACAD_XDICTIONARY
360
B708
102
}
102
{ACAD_REACTORS
330
EF
102
}
330
EF
100
AcDbVisualStyle
  2
Flat
 70
     0
 71
     2
 72
     1
 73
     1
 90
        2
 40
-0.6
 41
30.0
 62
     5
 63
     7
 74
     0
 91
        0
 64
     7
 65
   257
 75
     1
175
     1
 42
1.0
 92
        8
 66
     7
 43
1.0
 76
     1
 77
     6
 78
     2
 67
     7
 79
     5
170
     0
171
     0
290
     0
174
     0
 93
       13
 44
0.0
173
     0
291
     1
 45
0.0
1001
ACAD
1000
AcDbSavedByObjectVersion
1070
     0
  0
VISUALSTYLE
  5
F1
102
{ACAD_XDICTIONARY
360
B70A
102
}
102
{ACAD_REACTORS
330
EF
102
}
330
EF
100
AcDbVisualStyle
  2
FlatWithEdges
 70
     1
 71
     2
 72
     1
 73
     1
 90
        2
 40
-0.6
 41
30.0
 62
     5
 63
     7
 74
     1
 91
        0
 64
     7
 65
   257
 75
     1
175
     1
 42
1.0
 92
        0
 66
   257
 43
1.0
 76
     1
 77
     6
 78
     2
 67
     7
 79
     5
170
     0
171
     0
290
     0
174
     0
 93
       13
 44
0.0
173
     0
291
     1
 45
0.0
1001
ACAD
1000
AcDbSavedByObjectVersion
1070
     0
  0
VISUALSTYLE
  5
F2
102
{ACAD_XDICTIONARY
360
B70C
102
}
102
{ACAD_REACTORS
330
EF
102
}
330
EF
100
AcDbVisualStyle
  2
Gouraud
 70
     2
 71
     2
 72
     2
 73
     1
 90
        2
 40
-0.6
 41
30.0
 62
     5
 63
     7
 74
     0
 91
        0
 64
     7
 65
   257
 75
     1
175
     1
 42
1.0
 92
        0
 66
     7
 43
1.0
 76
     1
 77
     6
 78
     2
 67
     7
 79
     5
170
     0
171
     0
290
     0
174
     0
 93
       13
 44
0.0
173
     0
291
     1
 45
0.0
1001
ACAD
1000
AcDbSavedByObjectVersion
1070
     0
  0
VISUALSTYLE
  5
F3
102
{ACAD_XDICTIONARY
360
B70E
102
}
102
{ACAD_REACTORS
330
EF
102
}
330
EF
100
AcDbVisualStyle
  2
GouraudWithEdges
 70
     3
 71
     2
 72
     2
 73
     1
 90
        2
 40
-0.6
 41
30.0
 62
     5
 63
     7
 74
     1
 91
        0
 64
     7
 65
   257
 75
     1
175
     1
 42
1.0
 92
        0
 66
   257
 43
1.0
 76
     1
 77
     6
 78
     2
 67
     7
 79
     5
170
     0
171
     0
290
     0
174
     0
 93
       13
 44
0.0
173
     0
291
     1
 45
0.0
1001
ACAD
1000
AcDbSavedByObjectVersion
1070
     0
  0
VISUALSTYLE
  5
F7
102
{ACAD_XDICTIONARY
360
B716
102
}
102
{ACAD_REACTORS
330
EF
102
}
330
EF
100
AcDbVisualStyle
  2
Hidden
 70
     6
 71
     1
 72
     2
 73
     2
 90
        0
 40
-0.6
 41
-30.0
 62
     5
 63
     7
 74
     2
 91
        2
 64
     7
 65
   257
 75
     2
175
     1
 42
40.0
 92
        0
 66
   257
 43
1.0
 76
     1
 77
     6
 78
     2
 67
     7
 79
     3
170
     0
171
     0
290
     0
174
     0
 93
        1
 44
0.0
173
     0
291
     0
 45
0.0
1001
ACAD
1000
AcDbSavedByObjectVersion
1070
     0
  0
VISUALSTYLE
  5
1E4
102
{ACAD_XDICTIONARY
360
B72A
102
}
102
{ACAD_REACTORS
330
EF
102
}
330
EF
100
AcDbVisualStyle
  2
JitterOff
 70
    20
 71
     2
 72
     2
 73
     0
 90
        0
 40
-0.6
 41
-30.0
 62
     5
 63
     7
 74
     1
 91
        4
 64
     7
 65
   257
 75
     1
175
     1
 42
1.0
 92
       10
 66
     7
 43
1.0
 76
     1
 77
     6
 78
     2
 67
     7
 79
     5
170
     0
171
     0
290
     0
174
     0
 93
        1
 44
0.0
173
     0
291
     1
 45
0.0
1001
ACAD
1000
AcDbSavedByObjectVersion
1070
     0
  0
VISUALSTYLE
  5
FD
102
{ACAD_XDICTIONARY
360
B722
102
}
102
{ACAD_REACTORS
330
EF
102
}
330
EF
100
AcDbVisualStyle
  2
Linepattern
 70
    14
 71
     2
 72
     2
 73
     1
 90
        0
 40
-0.6
 41
-30.0
 62
     5
 63
     7
 74
     1
 91
        4
 64
     7
 65
   257
 75
     7
175
     7
 42
1.0
 92
        8
 66
     7
 43
1.0
 76
     1
 77
     6
 78
     2
 67
     7
 79
     5
170
     0
171
     0
290
     0
174
     0
 93
        1
 44
0.0
173
     0
291
     1
 45
0.0
1001
ACAD
1000
AcDbSavedByObjectVersion
1070
     0
  0
VISUALSTYLE
  5
1E5
102
{ACAD_XDICTIONARY
360
B72C
102
}
102
{ACAD_REACTORS
330
EF
102
}
330
EF
100
AcDbVisualStyle
  2
OverhangOff
 70
    21
 71
     2
 72
     2
 73
     0
 90
        0
 40
-0.6
 41
-30.0
 62
     5
 63
     7
 74
     1
 91
        4
 64
     7
 65
   257
 75
     1
175
     1
 42
1.0
 92
        9
 66
     7
 43
1.0
 76
     1
 77
     6
 78
     2
 67
     7
 79
     5
170
     0
171
     0
290
     0
174
     0
 93
        1
 44
0.0
173
     0
291
     1
 45
0.0
1001
ACAD
1000
AcDbSavedByObjectVersion
1070
     0
  0
VISUALSTYLE
  5
F9
102
{ACAD_XDICTIONARY
360
B71A
102
}
102
{ACAD_REACTORS
330
EF
102
}
330
EF
100
AcDbVisualStyle
  2
Realistic
 70
     8
 71
     2
 72
     2
 73
     0
 90
        2
 40
-0.6
 41
30.0
 62
     5
 63
     7
 74
     0
 91
        0
 64
     7
 65
   257
 75
     1
175
     1
 42
1.0
 92
        8
 66
   257
 43
1.0
 76
     1
 77
     6
 78
     2
 67
     7
 79
     3
170
     0
171
     0
290
     0
174
     0
 93
       13
 44
0.0
173
     0
291
     0
 45
0.0
1001
ACAD
1000
AcDbSavedByObjectVersion
1070
     0
  0
VISUALSTYLE
  5
1F3
102
{ACAD_XDICTIONARY
360
B738
102
}
102
{ACAD_REACTORS
330
EF
102
}
330
EF
100
AcDbVisualStyle
  2
Shaded
 70
    27
 71
     2
 72
     2
 73
     1
 90
        2
 40
-0.6
 41
30.0
 62
     5
 63
     7
 74
     0
 91
        4
 64
     7
 65
   257
 75
     1
175
     1
 42
1.0
 92
        8
 66
   257
 43
1.0
 76
     1
 77
     6
 78
     2
 67
     8
 79
     3
170
     0
171
     0
290
     0
174
     0
 93
        5
 44
0.0
173
     0
291
     0
 45
0.0
1001
ACAD
1000
AcDbSavedByObjectVersion
1070
     0
  0
VISUALSTYLE
  5
1F2
102
{ACAD_XDICTIONARY
360
B736
102
}
102
{ACAD_REACTORS
330
EF
102
}
330
EF
100
AcDbVisualStyle
  2
Shaded with edges
 70
    26
 71
     2
 72
     2
 73
     1
 90
        2
 40
-0.6
 41
30.0
 62
     5
 63
     7
 74
     1
 91
        2
 64
     7
 65
   257
 75
     2
175
     1
 42
1.0
 92
        8
 66
   257
 43
1.0
 76
     1
 77
     6
 78
     2
 67
     7
 79
     3
170
     0
171
     0
290
     0
174
     0
 93
        5
 44
0.0
173
     0
291
     0
 45
0.0
1001
ACAD
1000
AcDbSavedByObjectVersion
1070
     0
  0
VISUALSTYLE
  5
1EF
102
{ACAD_XDICTIONARY
360
B730
102
}
102
{ACAD_REACTORS
330
EF
102
}
330
EF
100
AcDbVisualStyle
  2
Shades of Gray
 70
    23
 71
     2
 72
     2
 73
     3
 90
        0
 40
-0.6
 41
-30.0
 62
     5
 63
     7
 74
     2
 91
        2
 64
     7
 65
     7
 75
     1
175
     1
 42
40.0
 92
        8
 66
     7
 43
1.0
 76
     1
 77
     6
 78
     2
 67
     7
 79
     3
170
     0
171
     0
290
     0
174
     0
 93
        1
 44
0.0
173
     0
291
     0
 45
0.0
1001
ACAD
1000
AcDbSavedByObjectVersion
1070
     0
  0
VISUALSTYLE
  5
1F0
102
{ACAD_XDICTIONARY
360
B732
102
}
102
{ACAD_REACTORS
330
EF
102
}
330
EF
100
AcDbVisualStyle
  2
Sketchy
 70
    24
 71
     1
 72
     2
 73
     2
 90
        0
 40
-0.6
 41
-30.0
 62
     5
 63
     7
 74
     2
 91
        2
 64
     7
 65
     7
 75
     1
175
     1
 42
40.0
 92
       11
 66
     7
 43
1.0
 76
     1
 77
     6
 78
     2
 67
     7
 79
     6
170
     0
171
     0
290
     0
174
     0
 93
        1
 44
0.0
173
     0
291
     0
 45
0.0
1001
ACAD
1000
AcDbSavedByObjectVersion
1070
     0
  0
VISUALSTYLE
  5
FC
102
{ACAD_XDICTIONARY
360
B720
102
}
102
{ACAD_REACTORS
330
EF
102
}
330
EF
100
AcDbVisualStyle
  2
Thicken
 70
    13
 71
     2
 72
     2
 73
     1
 90
        0
 40
-0.6
 41
-30.0
 62
     5
 63
     7
 74
     1
 91
        4
 64
     7
 65
   257
 75
     1
175
     1
 42
1.0
 92
       12
 66
     7
 43
1.0
 76
     1
 77
     6
 78
     2
 67
     7
 79
     5
170
     0
171
     0
290
     0
174
     0
 93
        1
 44
0.0
173
     0
291
     1
 45
0.0
1001
ACAD
1000
AcDbSavedByObjectVersion
1070
     0
  0
VISUALSTYLE
  5
F6
102
{ACAD_XDICTIONARY
360
B714
102
}
102
{ACAD_REACTORS
330
EF
102
}
330
EF
100
AcDbVisualStyle
  2
Wireframe
 70
     5
 71
     0
 72
     2
 73
     0
 90
        0
 40
-0.6
 41
-30.0
 62
     5
 63
     7
 74
     1
 91
        4
 64
     7
 65
   257
 75
     1
175
     1
 42
1.0
 92
        0
 66
   257
 43
1.0
 76
     1
 77
     6
 78
     2
 67
     7
 79
     3
170
     0
171
     0
290
     0
174
     0
 93
        1
 44
0.0
173
     0
291
     0
 45
0.0
1001
ACAD
1000
AcDbSavedByObjectVersion
1070
     0
  0
VISUALSTYLE
  5
1F1
102
{ACAD_XDICTIONARY
360
B734
102
}
102
{ACAD_REACTORS
330
EF
102
}
330
EF
100
AcDbVisualStyle
  2
X-Ray
 70
    25
 71
     2
 72
     2
 73
     1
 90
        1
 40
0.5
 41
-30.0
 62
     5
 63
     7
 74
     1
 91
        0
 64
     7
 65
   257
 75
     1
175
     1
 42
1.0
 92
        8
 66
     7
 43
1.0
 76
     1
 77
     6
 78
     2
 67
     7
 79
     3
170
     0
171
     0
290
     0
174
     0
 93
       13
 44
0.0
173
     0
291
     0
 45
0.0
1001
ACAD
1000
AcDbSavedByObjectVersion
1070
     0
  0
DICTIONARYVAR
  5
146
102
{ACAD_REACTORS
330
5E
102
}
330
5E
100
DictionaryVariables
280
     0
  1
1:1
  0
DICTIONARYVAR
  5
259
102
{ACAD_REACTORS
330
5E
102
}
330
5E
100
DictionaryVariables
280
     0
  1
3.500000
  0
DICTIONARYVAR
  5
25A
102
{ACAD_REACTORS
330
5E
102
}
330
5E
100
DictionaryVariables
280
     0
  1
acadiso.lin
  0
DICTIONARYVAR
  5
145
102
{ACAD_REACTORS
330
5E
102
}
330
5E
100
DictionaryVariables
280
     0
  1
STANDARD
  0
DICTIONARYVAR
  5
84
102
{ACAD_REACTORS
330
5E
102
}
330
5E
100
DictionaryVariables
280
     0
  1
STANDARD
  0
DICTIONARYVAR
  5
227
102
{ACAD_REACTORS
330
5E
102
}
330
5E
100
DictionaryVariables
280
     0
  1
Metric50
  0
DICTIONARYVAR
  5
228
102
{ACAD_REACTORS
330
5E
102
}
330
5E
100
DictionaryVariables
280
     0
  1
Metric50
  0
DICTIONARYVAR
  5
5F
102
{ACAD_REACTORS
330
5E
102
}
330
5E
100
DictionaryVariables
280
     0
  1
2
  0
DICTIONARYVAR
  5
63
102
{ACAD_REACTORS
330
5E
102
}
330
5E
100
DictionaryVariables
280
     0
  1
1
  0
DICTIONARYVAR
  5
B6A9
102
{ACAD_REACTORS
330
5E
102
}
330
5E
100
DictionaryVariables
280
     0
  1
0
  0
DICTIONARYVAR
  5
1AE
102
{ACAD_REACTORS
330
5E
102
}
330
5E
100
DictionaryVariables
280
     0
  1
0
  0
DICTIONARYVAR
  5
1AF
102
{ACAD_REACTORS
330
5E
102
}
330
5E
100
DictionaryVariables
280
     0
  1
0
  0
DICTIONARYVAR
  5
B6A7
102
{ACAD_REACTORS
330
5E
102
}
330
5E
100
DictionaryVariables
280
     0
  1
2
  0
DICTIONARYVAR
  5
B6A6
102
{ACAD_REACTORS
330
5E
102
}
330
5E
100
DictionaryVariables
280
     0
  1
1
  0
DICTIONARYVAR
  5
B6F9
102
{ACAD_REACTORS
330
5E
102
}
330
5E
100
DictionaryVariables
280
     0
  1
80.000000
  0
DICTIONARYVAR
  5
B6F8
102
{ACAD_REACTORS
330
5E
102
}
330
5E
100
DictionaryVariables
280
     0
  1
5.000000
  0
DICTIONARYVAR
  5
B6A8
102
{ACAD_REACTORS
330
5E
102
}
330
5E
100
DictionaryVariables
280
     0
  1
127
  0
DICTIONARYVAR
  5
B6FA
102
{ACAD_REACTORS
330
5E
102
}
330
5E
100
DictionaryVariables
280
     0
  1
2
  0
DICTIONARY
  5
B73C
330
21C
100
AcDbDictionary
280
     1
281
     1
  3
ACAD_XREC_ROUNDTRIP
360
B73D
  0
DICTIONARY
  5
B701
330
D3
100
AcDbDictionary
280
     1
281
     1
  3
ACAD_XREC_ROUNDTRIP
360
B702
  0
DICTIONARY
  5
B703
330
D7
100
AcDbDictionary
280
     1
281
     1
  3
ACAD_XREC_ROUNDTRIP
360
B704
  0
DICTIONARY
  5
B6FE
330
22
100
AcDbDictionary
280
     1
281
     1
  3
ACAD_XREC_ROUNDTRIP
360
B6FF
  0
DICTIONARY
  5
1F9
330
ED
100
AcDbDictionary
280
     1
281
     1
  3
ACAD_XREC_ROUNDTRIP
360
B706
  3
FBXASSET
360
1FA
  0
DICTIONARY
  5
1F7
330
EC
100
AcDbDictionary
280
     1
281
     1
  3
ACAD_XREC_ROUNDTRIP
360
B705
  3
FBXASSET
360
1F8
  0
DICTIONARY
  5
173
330
EE
100
AcDbDictionary
280
     1
281
     1
  3
ACAD_XREC_ROUNDTRIP
360
B707
  3
BUMPTILE
360
175
  3
DIFFUSETILE
360
174
  3
FBXASSET
360
1FB
  3
OPACITYTILE
360
176
  3
REFLECTIONTILE
360
177
  0
DICTIONARY
  5
B728
330
12E
100
AcDbDictionary
280
     1
281
     1
  3
ACAD_XREC_ROUNDTRIP
360
B729
  0
DICTIONARY
  5
B73A
330
21A
100
AcDbDictionary
280
     1
281
     1
  3
ACAD_XREC_ROUNDTRIP
360
B73B
  0
DICTIONARY
  5
162
330
7F
100
AcDbDictionary
280
     1
281
     1
  3
ACAD_ROUNDTRIP_2008_TABLESTYLE_CELLSTYLEMAP
360
B6FB
  3
ACAD_XREC_ROUNDTRIP
360
B700
  0
DICTIONARY
  5
B712
330
F5
100
AcDbDictionary
280
     1
281
     1
  3
ACAD_XREC_ROUNDTRIP
360
B713
  0
DICTIONARY
  5
B710
330
F4
100
AcDbDictionary
280
     1
281
     1
  3
ACAD_XREC_ROUNDTRIP
360
B711
  0
DICTIONARY
  5
B71E
330
FB
100
AcDbDictionary
280
     1
281
     1
  3
ACAD_XREC_ROUNDTRIP
360
B71F
  0
DICTIONARY
  5
B726
330
FF
100
AcDbDictionary
280
     1
281
     1
  3
ACAD_XREC_ROUNDTRIP
360
B727
  0
DICTIONARY
  5
B718
330
F8
100
AcDbDictionary
280
     1
281
     1
  3
ACAD_XREC_ROUNDTRIP
360
B719
  0
DICTIONARY
  5
B71C
330
FA
100
AcDbDictionary
280
     1
281
     1
  3
ACAD_XREC_ROUNDTRIP
360
B71D
  0
DICTIONARY
  5
B72E
330
1E6
100
AcDbDictionary
280
     1
281
     1
  3
ACAD_XREC_ROUNDTRIP
360
B72F
  0
DICTIONARY
  5
B724
330
FE
100
AcDbDictionary
280
     1
281
     1
  3
ACAD_XREC_ROUNDTRIP
360
B725
  0
DICTIONARY
  5
B708
330
F0
100
AcDbDictionary
280
     1
281
     1
  3
ACAD_XREC_ROUNDTRIP
360
B709
  0
DICTIONARY
  5
B70A
330
F1
100
AcDbDictionary
280
     1
281
     1
  3
ACAD_XREC_ROUNDTRIP
360
B70B
  0
DICTIONARY
  5
B70C
330
F2
100
AcDbDictionary
280
     1
281
     1
  3
ACAD_XREC_ROUNDTRIP
360
B70D
  0
DICTIONARY
  5
B70E
330
F3
100
AcDbDictionary
280
     1
281
     1
  3
ACAD_XREC_ROUNDTRIP
360
B70F
  0
DICTIONARY
  5
B716
330
F7
100
AcDbDictionary
280
     1
281
     1
  3
ACAD_XREC_ROUNDTRIP
360
B717
  0
DICTIONARY
  5
B72A
330
1E4
100
AcDbDictionary
280
     1
281
     1
  3
ACAD_XREC_ROUNDTRIP
360
B72B
  0
DICTIONARY
  5
B722
330
FD
100
AcDbDictionary
280
     1
281
     1
  3
ACAD_XREC_ROUNDTRIP
360
B723
  0
DICTIONARY
  5
B72C
330
1E5
100
AcDbDictionary
280
     1
281
     1
  3
ACAD_XREC_ROUNDTRIP
360
B72D
  0
DICTIONARY
  5
B71A
330
F9
100
AcDbDictionary
280
     1
281
     1
  3
ACAD_XREC_ROUNDTRIP
360
B71B
  0
DICTIONARY
  5
B738
330
1F3
100
AcDbDictionary
280
     1
281
     1
  3
ACAD_XREC_ROUNDTRIP
360
B739
  0
DICTIONARY
  5
B736
330
1F2
100
AcDbDictionary
280
     1
281
     1
  3
ACAD_XREC_ROUNDTRIP
360
B737
  0
DICTIONARY
  5
B730
330
1EF
100
AcDbDictionary
280
     1
281
     1
  3
ACAD_XREC_ROUNDTRIP
360
B731
  0
DICTIONARY
  5
B732
330
1F0
100
AcDbDictionary
280
     1
281
     1
  3
ACAD_XREC_ROUNDTRIP
360
B733
  0
DICTIONARY
  5
B720
330
FC
100
AcDbDictionary
280
     1
281
     1
  3
ACAD_XREC_ROUNDTRIP
360
B721
  0
DICTIONARY
  5
B714
330
F6
100
AcDbDictionary
280
     1
281
     1
  3
ACAD_XREC_ROUNDTRIP
360
B715
  0
DICTIONARY
  5
B734
330
1F1
100
AcDbDictionary
280
     1
281
     1
  3
ACAD_XREC_ROUNDTRIP
360
B735
  0
XRECORD
  5
B73D
102
{ACAD_REACTORS
330
B73C
102
}
330
B73C
100
AcDbXrecord
280
     1
102
DISPLAYNAME
  1
Metric50
102
FLAGS
 90
        0
  0
XRECORD
  5
B702
102
{ACAD_REACTORS
330
B701
102
}
330
B701
100
AcDbXrecord
280
     1
102
SHADEPLOT
 70
     0
102
SHADEPLOTRESLEVEL
 70
     2
102
SHADEPLOTCUSTOMDPI
 70
   300
  0
XRECORD
  5
B704
102
{ACAD_REACTORS
330
B703
102
}
330
B703
100
AcDbXrecord
280
     1
102
SHADEPLOT
 70
     0
102
SHADEPLOTRESLEVEL
 70
     2
102
SHADEPLOTCUSTOMDPI
 70
   300
  0
XRECORD
  5
B6FF
102
{ACAD_REACTORS
330
B6FE
102
}
330
B6FE
100
AcDbXrecord
280
     1
102
SHADEPLOT
 70
     0
102
SHADEPLOTRESLEVEL
 70
     2
102
SHADEPLOTCUSTOMDPI
 70
   300
  0
XRECORD
  5
B706
102
{ACAD_REACTORS
330
1F9
102
}
330
1F9
100
AcDbXrecord
280
     1
102
MATERIAL
148
0.0
149
0.0
149
0.0
 93
        0
 94
       63
282
     0
 72
     1
 77
     1
171
     1
175
     1
179
     1
273
     0
  0
XRECORD
  5
1FA
102
{ACAD_REACTORS
330
1F9
102
}
330
1F9
100
AcDbXrecord
280
     1
 70
     1
 90
429727718
  1
D62C5603-E3A1-4AEA-B7FB-FE5D8D0755AF
310
504B03040A0000080000CC70623B3DEE336E79000000790000001B0000006175746F6465736B2D64657369676E2D7061636B6167652E786D6C3C3F786D6C2076657273696F6E3D22312E302220656E636F64696E673D227574662D3822203F3E3C666F726D6174733E3C666F726D61743E687474703A2F2F736368656D612E
310
6175746F6465736B2E636F6D2F64657369676E2D7061636B6167652F323030393C2F666F726D61743E3C2F666F726D6174733E504B0304140006080800CC70623BD486FD9CA0000000F4000000130000005B436F6E74656E745F54797065735D2E786D6C7D8EC10E82300C865F65E91D8A1E8C310C0EEA1BF002731658846E
310
D98AC1B77784ABF1D8FE5FBFBF75BBCE937A534CCEB38643598122B6FEE978D0B0485F9C41B54DDD7D022595594E1A469170414C76A4D9A4D207E29CF43ECE46F218070CC6BECC4078ACAA135ACF422C856C0E68EA1BF5669944DDD7BCDE7B1F8E415D77AECB980613C2E4AC91FC167A2B244592486606FC29C8FD7F045B9A
310
EF7053A7E60B504B0304140006080800CC70623B853B8169EB0000007C01000008000000636F72652E786D6C8D90416EC3201045AF62CDB6C206821CC7C244919D9CA01740401C94182C03558F5F9C3852BBEB6A467FFE9B197D7EFC9E1EC5975982F5AE035262288C535E5B377690E21535501C055FBC8FBF6C503839990E
310
5619041F179FE64D52DE45E362569DD7661365082642A11EB9E920A89B99642953CC8E702F67A9EE7234257977194EC9EAE275C4EABCCF5EAD5940D4AC6F0E35A568B8F43562CD7046CD199FD07E60174276A7BE677B5EADB0E0D14EEFFB6A31321A0D82627C4084204C3F096B71DD52F6819B16635EADF63F509AF53FA164
310
5DDCD1EDDD17164090FCC8732078B56691CB33A85CD7DCC40F504B0304140006080800CC70623B55019EA25F0000007C00000007000000636E782E786D6C4DCB3B0E80201045D1AD90E915ED2CF8AC45050C11660C8261F98AB1B07AC9C97D42D718D865D3E909258CFD00CCE24AC6E326A164D74DC0B4128928FF32603847
310
2BA13128B1252AC747C6BAB984FC68F0B87FE8960A5C09FE86CFB69FBA01504B0304140006080800CC70623BDBABAAF470010000D40300000C0000006662782F636F72652E786D6CC553D16E823014FD95A6AF4B694182CC941A83FA05FB810A9511A125A5257EFE2E82712ECEB8A7F100CD39F7F69E734AF9FADC366850B6
310
AF8DCE7018308C942E4C59EB2AC3DE1D498AD15A706B8CFB56869196ADCAF00863C12B6B7C374385D14E6907A836A59A41D9F7CA615434B0C8705F7CAA5606D23BA8E84F41278B93AC54100640439DE0BDB320004D43C63716C7C399D30917DCFBBA9CD9BA8469F5B156168B24CED3F7248AC8769F27244EB73B92EED8862C
310
B7F13E0C179B3C8F979C8ECD82BBBABDAA2BAC924E9558448CBD9330242CFA08E3154B5651FCC6D215639C8EE5774DBE2B5F6CF2B5768B68963BB5F5588420E442FC700B1139D4CB01F450C1E918227C2E09DF070D8140C84E1E9AAB8F1340832A9CB13130A5F1376A908D57309505ECF2A0DF179C4E9D30F5B239B87E3823
310
7A79C6F31DE1A8A5AEC08474B03C7837EAE4938639B44E5932B833D2C6B6B279CDC613877FA26EE21F4A2A4C63EC7F29A2F301D1F9F7A0E37D145F504B0304140006080800CC70623B9C113CC27E0000009D0000000B0000006662782F636E782E786D6C4DCCDF0A83201C86E15B91DFB94BFB330DD428C8FB886521330DA7
310
6397BF1A1DECE883878F57749FCDA1B7892F1BBC047A23808C7F84D9FA55424E0BE6803A256208E9EF06C84F9B91703228B1C690F78B66B34CD9A5439DF5CF0BFBF65E35BCA1B8D6A5C6F540381E886698B5741C695F9503EBA150A2F8958E3DC3EA0B504B0304140006080800CC70623B7DF2F77C2A010000120200003100
310
00006662782F41393633353835312D344632462D344230382D423046372D3739314545314133324237412F636F72652E786D6C8D51DB8EC22014FC15C2939B0D2DB4B45643319AE817EC0F6041255A68B86CFCFC856D4D76DF7CE190393373060EDB3DC707F856CE6B6B7A480A0C81328395DA5C7B18C3057510EC3873D686
310
3F34088C18550F330C39BB3A1BA7051AAC09CA84841A2BD5020AEF55806078A44B0FFD7053A328440C89E1EFC52486BBB8AA8214A99D789CF9E05200300FC927E4FB4D5B375D43103D5527440FB843077C5AA3F5861C8F645F5787F59E95B390B318B55CE45AA638FAA2957BD7248B390B7A7CC51F9C124149C82B8C378810
310
84AB2F42B7B8DD56F413775B8C5999E9FF4471926F8AA236A1AE96B8B3CC434E5839373893369E1FAF30EA395917409EB7F26AF8801C171837A4A6AC9C89E9F9C9B1A58BA30FD6A5EF5DDDCF894B9AD9B6A59C957943A9FCAE2FD5BC4DFE03504B0304140006080800CC70623BAD7543B64E01000033030000300000006662
310
782F41393633353835312D344632462D344230382D423046372D3739314545314133324237412F636E782E786D6CD593CD6EC32010845F0571AD6CE3D48AD20813A9873E410FBD12D82434182C7EAAE6EDBB2424CD25871E7B41D6EC30B3FA84F9E67BB2E40B4234DE8DB46F1925E094D7C6ED479AD3AE5951B2113C789FEE
310
6C943839C1488B4C05DF079FE72A69D8C96C13AAD6B8631503449F83828872B949AC57D26200B826A308D316B4064D6E46FCDA41C05550DC9E483A00797BFD207EFB092A45DE9514C1BBD22178396BD39D891265658C238DEA00936C654E5E433CB65A26D9F6EDB5EBC14EBF49A45CB856E66048291F6939A9A81BB5C89177
310
38143CA680F4AA299D66A042CEB3354A2684DC9D8D178FE0D9B8B41CAAD720F880EE7EF93C0C18769E099ECC04D5A102C8049A8A05632F4DDF376CF1DE0F6BB65C2F8627B65A33C6BB62177CEBBDAD973006829F89F22E814B54F4BC2BE347F8AA8F681390B50FA73F804400B5F542E796F19FF974E7F78DB802FE05E20750
310
4B0304140006080800CC70623BE75B7789680500003C100000340000006662782F41393633353835312D344632462D344230382D423046372D3739314545314133324237412F6F626A656374732E786D6CAD575B8F9B3818FD2B887D06C22499CB8AA1CA655245D5B455A356FB305264C061D8018C6C3393D95FBFC7600890
310
A4CD5EF210B0B1BFEBF98E3F7B1FF6596ABC522E1296DF9BAE3D320D9A872C4AF2F8DE2CE5CEBA358D0FBEC719939D65A691938CDE9B6ADAF4BD98B3B2D05311DD91329583D9D5FC0F438434A7A611A644887B5384CF34233629258BA878B12322891DEFF6B66BD70BFB62634E8AE781D082709A4B588AF91C528CDA28B73F
310
1C998EEF39EABBEFA97FBD6A7C7E9553F9D3D79FE442923C3C523610337627CB87ABE99D359D4CC6D6E4FACAB5E6ABF9D2726FC6A3C5F56271377BB88362213924694B38DD99FE47C48627A1E7D49F5A8BB5E1A74C0A599ED3B0F21F1E56366B89112D681E218F0915D0D6F17AD41FBA2A369DCF6335D62ABBD39779D5DDD1
310
11D4D8DE3CBB96B2E04FB8202E41051754A1AA8E8F76B4C6DFE810B580B1547F4B84911149794252234D024EF8BBE963A95AE27B3D310A9D5C215C7960FAEE415ED75694C6AFB17BCACA5D99A60A9AA65F217B0BFC53292ACB92BF283FAD0D3621576592CB5BED907C2FA8E9DF794E35E97BEA31BED21FEB401ABB94C44839
310
DCACBF0E1C5DA8DA5B2F4DFFD32AD86F543D9E565E7056502E157C00AD2671CD534549AB752FCA9CDA00677A313F04E51B22FF19E57B300579E3C97EB29F682D92935CEC18CF901B7B54FD8C51F362B56FC72FE0B3C1EAE335EDCCBF5AEC39ADB17DC238973F804BA5E6F6BFE7AF1FB32E523BE9F3BD571418E3631DCA4D48
310
5250CF639223210A9446CA30052EDF057BD35F8329C1ECD84552BF0DC8D18BE7BCE23BFE6BD960AB4A7DE79923A103BEBD80F911CBAA2C60DB19B01CF164A5583B772EE6D3FFA56666CBCDA74DC97724A48F9A58967497E489C4D979006FD7A05E227A1EBDD0F737C623387A9C844D3709995625106D157315F8B8392CD4E0
310
A0B9A720C4BE9829CEF37EA1E13111214D53925356365ADA634861B52519DD27A00AEB808EAF0628E6F435519D446F45CF2C9CF5214F0A15B2F6D06B79DA3EE3CBF7F56780D2F4E7EF73A0F5E5B02A38D07DC852C6B7C1FBB6664213E0C39E3EBA7FF4E1AD23EA2829407C85E586727488B751B2DB9502BC7B228A3FD68B6E
310
A65A22397E690AA8D158D7E404EC8CDA235CC3B7D1898680131CEC2CDF2638C65196279577750F15884AEE19F94199155B92B13297978469D4F8D358DF0AEF7631E28DC8F0D9F437D5D39A83B2231A1D52D543813A824EF8D44BCFF2FA6A31BD1E8DAD87F1CCB526B3879935BF59CDADD5C37479BB1CDD4CA7B3556B516589
310
EF352754B706114D9C885EC9131DE6EFEB43D99AFE2391C2F958179413D7CFEF6B1B6DB1E7600F00DE6E5C67454A339A4BA2E0FBA85ED26F045D454F463DBFCE484C2F90F2E5E3666003662ED8F755951A7D1BECD5B30B550B2785C8E7320B7292A4838DDA71BBC863ED7613CAF659337A3354231D4FF4A182A54904C2898C
310
98B28C4AD0CE056CCF332A80986E571EE9DBC305BB5FEB7E509220A58D25CF042D712A806AC0AD0C657FDEF80D2D9CEAA2EE4D1C76F60BFE74219A06527D6F82DF6412526107381E55E353090704D085B52408A8913C4ED159D79BDA71BB4BC506F4831350EB6F975CD22D69BF7AC49B91A2C0A9DDA3D5CA36AD20FC478E37
310
E61844E2352865EBCB61A275A65283CAAA9DD27703B4102F5AF51EF5F573B75CBB5AD38BC845F7A49F82A0966A49C2E3EA5EA0ECD326CD965F1DB402C6FA8B51A4658C5C5E2EC9E214602E55810345408596591009A82E7E7FFACA19EEA299B14A0081A705CB3296EBC14CDF658DCD336EA6D1136881AAEB87B81AB9EE53D5
310
F5EB8BC8362082DA24122F98680A4E7930C01A0079749CEA14382A0783E5EBA5A10F8C098456A03D6A4AEB6BB881E2513747552A5DB22C7EDAF83BD5528081A365F7FF06504B0304140006080000CC70623B000000000000000000000000350000006662782F41393633353835312D344632462D344230382D423046372D37
310
39314545314133324237412F76657274696365732E62696E504B0304140006080800CC70623BF270F1330600000004000000360000006662782F41393633353835312D344632462D344230382D423046372D3739314545314133324237412F747269616E676C65732E62696E636660600000504B0304140006080000CC7062
310
3B000000000000000000000000370000006662782F41393633353835312D344632462D344230382D423046372D3739314545314133324237412F617474726962757465732E62696E504B0304140006080800CC70623B08DA0BD19000000041010000360000006662782F41393633353835312D344632462D344230382D4230
310
46372D3739314545314133324237412F6469726563746F72792E786D6C858F410AC3201045AF22B36F53E9A60B35CBEEBAE80D244E44489C6234F4F835464A48035D0DF398FF9F8AF63D0E6CC63039F212F8F9020C7D47C6792B21C5FE7403D62A1188E2E60C98D7234A5830286103A55745067B9D86B8A3CF9C7F90C11DE6
310
07FB144396D7B6A82D282E9A152AD114D5EF2CB866EEE831B8EEA07A7BB5A8D7D61A2BAAEB7FD5F70921FF497D00504B0304140006080800CC70623BEDD1DC58FD000000A00100003B0000006662782F41393633353835312D344632462D344230382D423046372D3739314545314133324237412F7265736F75726365732F
310
636F72652E786D6C8D504B6E833010BD0A9A6D65B00922041947112427E8052C33A156828DFCA97AFC9A40A576D7CDCCE87D344F8F9FBFE667F689CE6B6B3A6039850C8DB2A336530731DC4903D95970676DF82583CCC8193B5861107C72362E3BA4AC096842428D1D7107A5F7182053CF7474E0D507CE32973124857FE48B
310
540F3961CEF244279DE03EB81420DB9EAC1384436FA353E879B1B182C7A8C75DA3C7F453DF353A1075D537A7BA6464B8F535A99AE14A9A2BBD90E350DD183B5CFABE3AF262350B1EF4FC9351399401471025A527C218A1E53BAB5A5AB765F5469B96525EACF23FA6B88CFF34456DC2A1DCE36E360F82A5202F42F062ED2BAD
310
579969AFDD8A6F504B010214000A0000080000CC70623B3DEE336E79000000790000001B00000000000000000000000000000000006175746F6465736B2D64657369676E2D7061636B6167652E786D6C504B01021400140006080800CC70623BD486FD9CA0000000F40000001300000000000000000000000000B20000005B
310
436F6E74656E745F54797065735D2E786D6C504B01021400140006080800CC70623B853B8169EB0000007C010000080000000000000000000000000083010000636F72652E786D6C504B01021400140006080800CC70623B55019EA25F0000007C000000070000000000000000000000000094020000636E782E786D6C504B
310
01021400140006080800CC70623BDBABAAF470010000D40300000C00000000000000000000000000180300006662782F636F72652E786D6C504B01021400140006080800CC70623B9C113CC27E0000009D0000000B00000000000000000000000000B20400006662782F636E782E786D6C504B01021400140006080800CC70
310
623B7DF2F77C2A010000120200003100000000000000000000000000590500006662782F41393633353835312D344632462D344230382D423046372D3739314545314133324237412F636F72652E786D6C504B01021400140006080800CC70623BAD7543B64E010000330300003000000000000000000000000000D2060000
310
6662782F41393633353835312D344632462D344230382D423046372D3739314545314133324237412F636E782E786D6C504B01021400140006080800CC70623BE75B7789680500003C10000034000000000000000000000000006E0800006662782F41393633353835312D344632462D344230382D423046372D3739314545
310
314133324237412F6F626A656374732E786D6C504B01021400140006080000CC70623B0000000000000000000000003500000000000000000000000000280E00006662782F41393633353835312D344632462D344230382D423046372D3739314545314133324237412F76657274696365732E62696E504B01021400140006
310
080800CC70623BF270F133060000000400000036000000000000000000000000007B0E00006662782F41393633353835312D344632462D344230382D423046372D3739314545314133324237412F747269616E676C65732E62696E504B01021400140006080000CC70623B0000000000000000000000003700000000000000
310
000000000000D50E00006662782F41393633353835312D344632462D344230382D423046372D3739314545314133324237412F617474726962757465732E62696E504B01021400140006080800CC70623B08DA0BD1900000004101000036000000000000000000000000002A0F00006662782F41393633353835312D344632
310
462D344230382D423046372D3739314545314133324237412F6469726563746F72792E786D6C504B01021400140006080800CC70623BEDD1DC58FD000000A00100003B000000000000000000000000000E1000006662782F41393633353835312D344632462D344230382D423046372D3739314545314133324237412F7265
310
736F75726365732F636F72652E786D6C504B0506000000000E000E0080040000641100000000
  0
XRECORD
  5
B705
102
{ACAD_REACTORS
330
1F7
102
}
330
1F7
100
AcDbXrecord
280
     1
102
MATERIAL
148
0.0
149
0.0
149
0.0
 93
        0
 94
       63
282
     0
 72
     1
 77
     1
171
     1
175
     1
179
     1
273
     0
  0
XRECORD
  5
1F8
102
{ACAD_REACTORS
330
1F7
102
}
330
1F7
100
AcDbXrecord
280
     1
 70
     1
 90
429727718
  1
30362254-06B7-45E0-A893-8CFA70E3D6BC
310
504B03040A0000080000CC70623B3DEE336E79000000790000001B0000006175746F6465736B2D64657369676E2D7061636B6167652E786D6C3C3F786D6C2076657273696F6E3D22312E302220656E636F64696E673D227574662D3822203F3E3C666F726D6174733E3C666F726D61743E687474703A2F2F736368656D612E
310
6175746F6465736B2E636F6D2F64657369676E2D7061636B6167652F323030393C2F666F726D61743E3C2F666F726D6174733E504B0304140006080800CC70623BD486FD9CA0000000F4000000130000005B436F6E74656E745F54797065735D2E786D6C7D8EC10E82300C865F65E91D8A1E8C310C0EEA1BF002731658846E
310
D98AC1B77784ABF1D8FE5FBFBF75BBCE937A534CCEB38643598122B6FEE978D0B0485F9C41B54DDD7D022595594E1A469170414C76A4D9A4D207E29CF43ECE46F218070CC6BECC4078ACAA135ACF422C856C0E68EA1BF5669944DDD7BCDE7B1F8E415D77AECB980613C2E4AC91FC167A2B244592486606FC29C8FD7F045B9A
310
EF7053A7E60B504B0304140006080800CC70623B1EC5D7A3EB0000007C01000008000000636F72652E786D6C8D90416EC3201045AF82665B6103C6756C6122AB4D4ED00B204C5C94182C03558F5F9C3852BBEB6A467FFE9B197D71FC9E6FE8CBACC17AD7032D0820E3B41FAD9B7A48F1820F808E52ACDEC75F36404ECDA687
310
4D0629A6D5A76597B477D1B89855E747B38B2A041301E95B6E7A08FAD3CCAA50296647B8168BD2573599823EBB0CA76447F43862C7BCCF5EAC59410E4DDD9C7973C2755553CCCFA4C603E3040F1565ED3B1FDE4E432BCA0D9622DAF9795FAF464533826484B498524CD807E51D79ED187F21878E10516EF63F505AC67F42C9
310
BA58B1FDDD071640D2FCC87D2045B96591CB3DA85CB7DCE40F504B0304140006080800CC70623B55019EA25F0000007C00000007000000636E782E786D6C4DCB3B0E80201045D1AD90E915ED2CF8AC45050C11660C8261F98AB1B07AC9C97D42D718D865D3E909258CFD00CCE24AC6E326A164D74DC0B4128928FF32603847
310
2BA13128B1252AC747C6BAB984FC68F0B87FE8960A5C09FE86CFB69FBA01504B0304140006080800CC70623B8C9102E971010000D40300000C0000006662782F636F72652E786D6CC5535B6E833010BC8AE5DF0A6C08340F1947A84D4ED00B38C6A128602363A31CBFCB234A53A551FA553EC09AD9F5CE8C31DB9E9B1AF5CA
310
7695D1198E428A91D2D214952E33ECDD315861B4E5CC1AE3BE9561A445A3323CC098B3D21ADFCE9034DA29ED00D5A6503328BA4E398C640D8B0C77F253352214DE4145770A5B214FA2546114020D759C75CE8200340D19DE981F0F6746269C33EFAB6266AB02A655C74A59CCF365BADC27CB5D902ED22848F6340DF238A141
310
BE88E2F57B92BFEDF23523433367AE6A2EEAA455C2A902F398D2751045018D3FA264435F3771F242571B4A1919CA6F9A7C5B3CD9E42BED16F12C776AEB308F40C848FC700B1139D4891EF410CEC810227CC6846F8386402064270EF5C5C709A05E49676C024C61FC95EA45ED154CA5211D1FF4FB8291A913A68E9B83EBBB33
310
E2A7673CDE118E5AE8124C0807CB8377834E366998436B950D7A7746DAD846D4CFD978E0F04FD455FC5D49D2D4C6FE9722321F10997F0F32DC47FE05504B0304140006080800CC70623BFFEA85907E0000009D0000000B0000006662782F636E782E786D6C4DCCD10A83201886E15B91FFDC95D95A811AB6F23E625948A6C3
310
E9D8E5AF46073BFAE0E1E365ED67B3E8ADC3CB78C7815C7240DA3DFC64DCC221C519D7805AC182F7F1EF06C88D9BE6703008B6049F9E274D7A1E938DBB5AE3D6131B2589BA0D3D965551E0B2EA732C9B9A624AAEB41E3A557677029960D9AFB4EF11165F504B0304140006080800CC70623B4FEEA4082C0100001202000031
310
0000006662782F39464131463745442D413632322D343644302D413938332D3331353338454246344243312F636F72652E786D6C8D515B6EC32010BC0AE2AB55850DD871ED0813254D72825EC00192A2C460F1A872FC42ED48ED5F7E00CDCECCCEB26C731F6FE05B39AFADE921293004CA082BB5B9F43086336A21D870E6AC
310
0D7F68109861543DCC30E4ECE26C9C164858139409093556AA051CBC570102714B8F1E7AF1A5C6A11862480C7F2DA6415C878B2A4891CA89C7990F2E050073937C42DE1DB7E4F87ED8A36D4329AA9B3D46DBAEAD504556557BD81DEBDD0761E52CE42C462D17B996298E3E6BE59E35C962CE821E1FF18553435012728A7187
310
0841987E927A8D9B35ADDF70BBC6989599FE4F1427F9A4286A132ABAC49D651EF234CD5CE04CDA78BA3DC2A8FB645D00B9DF8B57E215725C60BCA2A463E54C4CE327C7A65E1C7DB02E7DEFCBF594B864C5CA6CDBD49C957943E9FA5D5FBAF336F90F504B0304140006080800CC70623BAD7543B64E01000033030000300000
310
006662782F39464131463745442D413632322D343644302D413938332D3331353338454246344243312F636E782E786D6CD593CD6EC32010845F0571AD6CE3D48AD20813A9873E410FBD12D82434182C7EAAE6EDBB2424CD25871E7B41D6EC30B3FA84F9E67BB2E40B4234DE8DB46F1925E094D7C6ED479AD3AE5951B2113C
310
789FEE6C943839C1488B4C05DF079FE72A69D8C96C13AAD6B8631503449F83828872B949AC57D26200B826A308D316B4064D6E46FCDA41C05550DC9E483A00797BFD207EFB092A45DE9514C1BBD22178396BD39D891265658C238DEA00936C654E5E433CB65A26D9F6EDB5EBC14EBF49A45CB856E66048291F6939A9A81BB5
310
C8917738143CA680F4AA299D66A042CEB3354A2684DC9D8D178FE0D9B8B41CAAD720F880EE7EF93C0C18769E099ECC04D5A102C8049A8A05632F4DDF376CF1DE0F6BB65C2F8627B65A33C6BB62177CEBBDAD973006829F89F22E814B54F4BC2BE347F8AA8F681390B50FA73F804400B5F542E796F19FF974E7F78DB802FE05
310
E207504B0304140006080800CC70623B16AB87BA640500003C100000340000006662782F39464131463745442D413632322D343644302D413938332D3331353338454246344243312F6F626A656374732E786D6CAD575B6FA33818FD2B887DE6924B3BED8A326A92B68A663B534DD4D13E548A0C38942D60649B369D5FBFC7
310
600890A493BDE42160637FD7F31D7FF63E6FB3D478A55C242CBF3247B66B1A340F5994E4F19559CA8D75611A9F7D8F33263BCB4C232719BD32D5B4E97B316765A1A722BA21652A07B3B7B33F0D11D29C9A46981221AE4C113ED38CD8A4942CA2E2C58E882476BCD9DA23BB5ED8171B73523C0F841684D35CC252CCE79062D4
310
468DFA43D7747CCF51DF7D4FFDEB5593E3AB9CCA9FBEFE241792E4E19EB28198C968BAB8199F5D5A67D3E9C49A9E8F47D6EC76B6B0469F26EEFC7C3EBFBCBEB98462213924694B38DD98FE1D62C393D073EA4FADC5DAF04326852CCF6958F90F0F2B9BB5C48816348F90C7840A68EB78EDF68723159BCEE7891A6B95DDE9D3
310
BCEAEEE8086A6C6F9E5D4B59F0175C10A7A0820BAA5055C7473B5AE3CFDD452D602CD5DF12616444529E90D448938013FE6EFA58AA96F85E4F8C42275708571E98FE6827AF6B2B4AE3D7D83D64E5A64C53054DD3AF90BD06FEA9149565C94FCA0F6B834DC85599E4F2423B24DF0B6AFA979E534DFA9E7A4CC6FA631D486393
310
921829879BF5D781A373557BCB85E97FB90DB62B558F8795179C15944B051F40AB495CF35451D26A4727654E6D8033BD98EF82F21D91FF8AF2DD9982BCF1643BDD4EB516C9492E368C67C88DED563FC36D5EACF66DFF057C3658BDBFA69DF9578B3DA735B64F18C7F20770A9D45CFCF7FCF563D6456A277DBEF78A02637CA2
310
43B90A490AEAB94F72244481D24819A6C0E59B606BFA4B3025981DBB48EAB701D97BF19C577CC77F2D1B6C55A9EF3C732474C0B727303F625995056C3B02963D9EAC146BE78EC5FCEC7FA999EBC5EACBAAE41B12D27B4D2C0BBA49F244E2ECDC81B76B502F113D8F5EE8FB1BE3111CDD4FC2AA9B844CAB1288B68AB90A7CDC
310
1C166AB0D3DC5310625FCC14E779BFD0709F8890A629C9292B1B2DED31A4B0DA928CEE135085754027E3018A397D4D5427D15BD1330B677DC8934285AC3DF45A9EB68FF8F2B8FC0A509AFEECFD0FF2DE25CC6047F7214B195F07EFEB9A094D800F7BFAE8FED187B78EA8A3A400F115961BCAD1215E47C966530AF0EE8128FE
310
58CEBB996A8964FFA529A046635D9353B0336A8F700DDF46271A024E70B0B37C9DE01847591E54DED53D54202AB947E4076556AC49C6CA5C9E1226B7F1A7B1BE15DEED62C41B91E1B3E9AFAAA735036547343A925075041DF0A9979E893B391F8FCFA6967B3EFB644DCF6E5CEBFAE272625DCC6FAF3FB93793C5F90CE1EF57
310
407342756B10D1C489E8953CD1617E5CEECAD6F4EF8914CE5D5D504E5C3F1F9736DA62CFC11E00BCDDB8CC8A9466349744C1F75EBDA4DF09BA8A9E8C7A7E9991989E20E5DBDD6A6003664ED8F7A04A8DBE0DF6EAD9B9AA858342E47399053949D2C146EDB85DE4B176BB0965FBAC19BD19AA918E27FA50C1D22402E144464C
310
59462568E704B6E71915404CB72B8FF4EDE184DDAF753F284990D2C6926782963815403548A70C657FDEF80D2D9CEAA2AE4C1C76F60BFE74219A06527D6582DF6412526107381E55E353090704D085B52408D0933C4ED159D79BDA71BB4BC506F4831350EB6F979CD22D69BF7AC49B91A2C0A9DDA3D5CA36AD20FC478E37E6
310
1844E2352865EBCB6EA275A652E3836BE04EFB400BF1A2556F515F1FBB35B2AB35BD889C744FFA1004B5544B121E57F70215746DD2F5E2C1412B602CBF19455AC6C8E5E9922C4E01E65215385004546899059180EAFCF7A707CE7017CD8CDB0410789AB32C63B91E5CEBBBACB17AC6CD347A022D5075FD106377347AAABA7E
310
7D11590744509B44E205134DC1290F06580320F78E537D3D73540E06CB970B431F185308AD40BBD794D6D77003C5A36E8EAA54BA64597CD8F83BD552A080A365F7FF06504B0304140006080000CC70623B000000000000000000000000350000006662782F39464131463745442D413632322D343644302D413938332D3331
310
353338454246344243312F76657274696365732E62696E504B0304140006080800CC70623BF270F1330600000004000000360000006662782F39464131463745442D413632322D343644302D413938332D3331353338454246344243312F747269616E676C65732E62696E636660600000504B0304140006080000CC70623B
310
000000000000000000000000370000006662782F39464131463745442D413632322D343644302D413938332D3331353338454246344243312F617474726962757465732E62696E504B0304140006080800CC70623B08DA0BD19000000041010000360000006662782F39464131463745442D413632322D343644302D413938
310
332D3331353338454246344243312F6469726563746F72792E786D6C858F410AC3201045AF22B36F53E9A60B35CBEEBAE80D244E44489C6234F4F835464A48035D0DF398FF9F8AF63D0E6CC63039F212F8F9020C7D47C6792B21C5FE7403D62A1188E2E60C98D7234A5830286103A55745067B9D86B8A3CF9C7F90C11DE607
310
FB144396D7B6A82D282E9A152AD114D5EF2CB866EEE831B8EEA07A7BB5A8D7D61A2BAAEB7FD5F70921FF497D00504B0304140006080800CC70623B0D6EF93BFE000000A00100003B0000006662782F39464131463745442D413632322D343644302D413938332D3331353338454246344243312F7265736F75726365732F63
310
6F72652E786D6C8D50596E833010BD0A9ADFCA60B334011947A8694ED00B586642AC041B79A97AFC9A40A5F6AF3F33A3B7689E1E3F7DCD8FEC139DD7D6F4C0720A191A65476DA61E62B892236427C19DB5E1970C322367EC618541F0C9D9B8EC90B226A009093576C41D94DE63804C3DD2D18357379C652E63480A7FCF17A9
310
EE72C29CE5894E3AC17D702940B63D59270887DE46A7D0F36263058F518FBB468FE9A7BE6A7420864373B8D4873369AA8691FA421B3294352543C5CAF65C0F6FEF43CB8BD52C78D0F34F46E550061C419494B6843142CB0F5677F4B52BEB177AEC28E5C52AFF638ACBF84F53D42654E51E77B379102C05791282176B5F693D
310
CB4C7BED567C03504B010214000A0000080000CC70623B3DEE336E79000000790000001B00000000000000000000000000000000006175746F6465736B2D64657369676E2D7061636B6167652E786D6C504B01021400140006080800CC70623BD486FD9CA0000000F40000001300000000000000000000000000B20000005B
310
436F6E74656E745F54797065735D2E786D6C504B01021400140006080800CC70623B1EC5D7A3EB0000007C010000080000000000000000000000000083010000636F72652E786D6C504B01021400140006080800CC70623B55019EA25F0000007C000000070000000000000000000000000094020000636E782E786D6C504B
310
01021400140006080800CC70623B8C9102E971010000D40300000C00000000000000000000000000180300006662782F636F72652E786D6C504B01021400140006080800CC70623BFFEA85907E0000009D0000000B00000000000000000000000000B30400006662782F636E782E786D6C504B01021400140006080800CC70
310
623B4FEEA4082C0100001202000031000000000000000000000000005A0500006662782F39464131463745442D413632322D343644302D413938332D3331353338454246344243312F636F72652E786D6C504B01021400140006080800CC70623BAD7543B64E010000330300003000000000000000000000000000D5060000
310
6662782F39464131463745442D413632322D343644302D413938332D3331353338454246344243312F636E782E786D6C504B01021400140006080800CC70623B16AB87BA640500003C1000003400000000000000000000000000710800006662782F39464131463745442D413632322D343644302D413938332D3331353338
310
454246344243312F6F626A656374732E786D6C504B01021400140006080000CC70623B0000000000000000000000003500000000000000000000000000270E00006662782F39464131463745442D413632322D343644302D413938332D3331353338454246344243312F76657274696365732E62696E504B01021400140006
310
080800CC70623BF270F133060000000400000036000000000000000000000000007A0E00006662782F39464131463745442D413632322D343644302D413938332D3331353338454246344243312F747269616E676C65732E62696E504B01021400140006080000CC70623B0000000000000000000000003700000000000000
310
000000000000D40E00006662782F39464131463745442D413632322D343644302D413938332D3331353338454246344243312F617474726962757465732E62696E504B01021400140006080800CC70623B08DA0BD190000000410100003600000000000000000000000000290F00006662782F39464131463745442D413632
310
322D343644302D413938332D3331353338454246344243312F6469726563746F72792E786D6C504B01021400140006080800CC70623B0D6EF93BFE000000A00100003B000000000000000000000000000D1000006662782F39464131463745442D413632322D343644302D413938332D3331353338454246344243312F7265
310
736F75726365732F636F72652E786D6C504B0506000000000E000E0080040000641100000000
  0
XRECORD
  5
B707
102
{ACAD_REACTORS
330
173
102
}
330
173
100
AcDbXrecord
280
     1
102
MATERIAL
148
0.0
149
0.0
149
0.0
 93
        0
 94
       63
282
     0
 72
     1
 77
     1
171
     1
175
     1
179
     1
273
     0
  0
XRECORD
  5
175
102
{ACAD_REACTORS
330
173
102
}
330
173
100
AcDbXrecord
280
     1
270
     1
271
     1
  0
XRECORD
  5
174
102
{ACAD_REACTORS
330
173
102
}
330
173
100
AcDbXrecord
280
     1
270
     1
271
     1
  0
XRECORD
  5
1FB
102
{ACAD_REACTORS
330
173
102
}
330
173
100
AcDbXrecord
280
     1
 70
     0
 90
1673772943
  1
ECE7A1D2-D628-4531-984C-D00F80459256
310
504B03040A0000080000CC70623B3DEE336E79000000790000001B0000006175746F6465736B2D64657369676E2D7061636B6167652E786D6C3C3F786D6C2076657273696F6E3D22312E302220656E636F64696E673D227574662D3822203F3E3C666F726D6174733E3C666F726D61743E687474703A2F2F736368656D612E
310
6175746F6465736B2E636F6D2F64657369676E2D7061636B6167652F323030393C2F666F726D61743E3C2F666F726D6174733E504B0304140006080800CC70623BD486FD9CA0000000F4000000130000005B436F6E74656E745F54797065735D2E786D6C7D8EC10E82300C865F65E91D8A1E8C310C0EEA1BF002731658846E
310
D98AC1B77784ABF1D8FE5FBFBF75BBCE937A534CCEB38643598122B6FEE978D0B0485F9C41B54DDD7D022595594E1A469170414C76A4D9A4D207E29CF43ECE46F218070CC6BECC4078ACAA135ACF422C856C0E68EA1BF5669944DDD7BCDE7B1F8E415D77AECB980613C2E4AC91FC167A2B244592486606FC29C8FD7F045B9A
310
EF7053A7E60B504B0304140006080800CC70623BD9DDAED0EC0000007C01000008000000636F72652E786D6C8D90416EC3201045AF82665B61836D9CD8C2444DD39CA01740405C94182C03558F5F9C3852BBEB6A467FFE9B197D7EF89E6EE8CB2CC17A37002D0820E394D7D68D03A478C17B4007C117EFE32F1B20272733C0
310
2A83E0E3E2D3BC49CABB685CCCAAF3DA6CA20CC14440EA969B0182FA34932C648AD911AEC52CD5558EA6A0CF2EC329598D1E47ACCEFBECC59A050463A7EA5833865FEBDD0E37353BE3EE8DBDE3F6786A48D375FBF6CC78B9C282473B3DEFABC5C86834888A900E538A49F5419B9EB47DD5BC907D4F082F57FB1F28CDFA9F50
310
B22ED6D5F6EE030B20687EE43E10BC5CB3C8E51E54AE6B6EE207504B0304140006080800CC70623B55019EA25F0000007C00000007000000636E782E786D6C4DCB3B0E80201045D1AD90E915ED2CF8AC45050C11660C8261F98AB1B07AC9C97D42D718D865D3E909258CFD00CCE24AC6E326A164D74DC0B4128928FF326038
310
472BA13128B1252AC747C6BAB984FC68F0B87FE8960A5C09FE86CFB69FBA01504B0304140006080800CC70623BA24EB22D72010000D40300000C0000006662782F636F72652E786D6CC5535B6E833010BC8AE5DF0A6C5E49888CA3A6694ED00B38E05014B091B1518EDFE511A5A9D228FD2A1F60CDEC7A67C6986DCE4D8D7A
310
69BA4AAB0C073EC548AA5C17952A33ECECD15B61B4E1CC686DBF9561A44423333CC098B3D268D7CE50AE9595CA02AA74216750749DB418E5352C32DCE59FB211BE70162ABA93DF8AFC244AE9073ED050C759670D0840D390E18DF9F1706664C23973AE2A66B62A605A75ACA4C13C4976E1364A12EF355A2EBD384AF65EFA96
310
BC7B8BED2EA6719AAE16FB8491A199335B351775B991C2CA02F390D2D40B028F861F41BCA68B7518BFD0D59A524686F29B26D7164F36B94AD9289CE54E6D1DE6010819891F6E21228B3AD1831EC219194284CF98F06DD01008846CC5A1BEF83801D4CBDC6A1303536877A57A513B0953A94FC707FDBE6064EA84A9E3E6E0FA
310
EE8CF0E9198F7784A316AA0413C2C2F2E0ECA0934D1AE6D05A69BCDE9E91D2A611F573361E38FC1375157F5752AE6B6DFE4B11990F88CCBF0719EE23FF02504B0304140006080800CC70623B408A7D3B7C0000009D0000000B0000006662782F636E782E786D6C4DCCD10A83201886E15B91FFDC552A92A0064DBC8F581632
310
D3703A76F9ABD1C18E3E78F878E5F0D9027ABBFCF2292AE86E2D20171F69F6715550CB827B40839639A5F2770314A7CD293819B45C73AAFB45B35BA61ACAA1C1C7E7855C58C15BC331339661262CC762340413D68D77DA5B42298546CBE6573AF60CEB2F504B0304140006080800CC70623B449FB9BD290100001202000031
310
0000006662782F36394639363044362D344446342D343946362D394244322D3234314243333846323333332F636F72652E786D6C8D515B6EC32010BC0AE22B55850D98B871848994463E412FE002495162B07854397EA176A4F62F3F2C9A9D991D587EB84F37F0AD7D30CEF6905418026DA553C65E7A98E219ED203808EE9D
310
8B7F6810D871D23D2C3014FCE25D9A57483A1BB58D19B54EE9151C43D0110279CB971E06F9A5A7B11A53CC8C70ADE6515EC78BAE4895DB992778883E0700CB907242D17643D7E2538BD869608875438BBAE38922CAC8F1BDD90DB4691A5E2F42C153326A951B95E398B3D1FE599322163C9AE9115F7A3D46ADA0A018778810
310
84E907617BDCEE297BC5BB3DC6BC2EF47FA234AB2745C9D8D8D035EE220B50105E2F0DC1954B9FB747187D9F9D8FA0CCDB042D5FA0C015C65B42DF78BD10F3F3B363CB56C7109DCFDFBBB97E662ED92EB62D13BC2E1BCAE5777DB9966D8A1F504B0304140006080800CC70623BAD7543B64E01000033030000300000006662
310
782F36394639363044362D344446342D343946362D394244322D3234314243333846323333332F636E782E786D6CD593CD6EC32010845F0571AD6CE3D48AD20813A9873E410FBD12D82434182C7EAAE6EDBB2424CD25871E7B41D6EC30B3FA84F9E67BB2E40B4234DE8DB46F1925E094D7C6ED479AD3AE5951B2113C789FEE
310
6C943839C1488B4C05DF079FE72A69D8C96C13AAD6B8631503449F83828872B949AC57D26200B826A308D316B4064D6E46FCDA41C05550DC9E483A00797BFD207EFB092A45DE9514C1BBD22178396BD39D891265658C238DEA00936C654E5E433CB65A26D9F6EDB5EBC14EBF49A45CB856E66048291F6939A9A81BB5C89177
310
38143CA680F4AA299D66A042CEB3354A2684DC9D8D178FE0D9B8B41CAAD720F880EE7EF93C0C18769E099ECC04D5A102C8049A8A05632F4DDF376CF1DE0F6BB65C2F8627B65A33C6BB62177CEBBDAD973006829F89F22E814B54F4BC2BE347F8AA8F681390B50FA73F804400B5F542E796F19FF974E7F78DB802FE05E20750
310
4B0304140006080800CC70623B8D05915C650500003B100000340000006662782F36394639363044362D344446342D343946362D394244322D3234314243333846323333332F6F626A656374732E786D6CAD575B6FA33814FE2B887D06429276DA1565D4266D158D3A339A6846FB502932E050B66023DB74D2FDF5FB190C01
310
9276B2973C046C8ECFF53B17071F77456EBD502133CEAE6CDF9DD81665314F32965ED995DA3A17B6F5310C04E7AA47665B8C14F4CAD6DB7618A48257A5D94AE89654B91AEDDEDDFC61C998326A5B714EA4BCB265FC440BE2924AF184CA6737218AB8E976E7FA6E4338649B0A523E8D98964450A6A029F619B8588D52FE7039
310
B1BD30F0F4F730D0FF866AF6369557DB33949F31A9088B0F848DD8CCFCF9F2767A76E99CCDE733677E3EF59D9BBB9BA5E37F984D16E78BC5E5F5ED25044B25C0C96822E8D60EEFE11B91C581D77CEA34368A1F5329E68CD1B8B61F16D63A1B8E092D294B10C78C4A48EB593D192E7DED9BDEE7995E1B91FDEDD3ACEA9FE831
310
6A756F9F7D4D79F4274C90A7A04248AA51D5F8C718DAE06FB2F75AC4796EBE65D22A88A22223B995679120E2D50E41AA49C260C046A35368846B0BECD0DFF3EBEB8AD4F835768F69B9ADF25C43D30E6B646F807FAA64AD59F61715C7A54127C4AACA98BA3006A9D792DAE165E0D59B61A01FB3A9F9D838D2DAE62445C86166
310
F37564E842E7DE6A69879FEEA2DD5AE7E371E1A5E025154AC307D06A03D73EB5978C58FFA4C8E9033066E0F3BD53BEC1F39F91BE7B55103791EDE6BBB991A2046172CB4581D8B893FA674DDA17A77B3B7C413D1B511FD2743BFF8A38F03A658705E3ADF8015C3A3417FF3D7E439FF591DA0B5F18BC20C1B8981957AE6392A3
310
F43C640C01D1A0B4728E2DD4F26DB4B3C3152A252A3B4E913CEC1C72F012782FF88EFF8637AA552DBEF76408E8A8DE9E50F9E1CB3A2DA0DB1B6039A893B56063DC5B3E3FFB5F72E67AB9FEB4AEC496C4F4C1149625DD662C53E89D7BF0F6151A046260D1337DFDC94502430F83B0EE07A130A224BCAD7DAE1D9FB6CD422FF6
310
920702629C4BB9AE79C12F243C6432A6794E18E5552BA56B431AAB5D91317302B2B071E86C3A42B1A02F999E24061403B5D0EB639195DA655DD3EBEAB4FB862DDF579F014AD0E73C22F99E28DA57FB98E75C6CA2D74D53086D600F4786E0FE3144B771A8A7B900F03594DB8A633CBC49B2EDB69228BB479CF863B5E807AAAB
310
23872F6DFEB4129B949CA33823F58830E86D65621E10047D9DB34D862E8EAC3C2ABC2F7B2C40D67CDFE01F5545B92105AF983AC54D93D69E56FB8E797F88913F898A9FEC705D3F9D1B54EC8426FB500D40A03BD0119B06E1B95DDC7EB8F6975367793EBD70E66733DFB9BC982F9CE564727731999F5D4ECFCE3B8D6A4DC2A0
310
6D50FD148437D110834A64C6CDDF57FBACB5C307A2A477DFE4939736CFEF2B175371E0E10CF0DD1D5C15654E0BCA14D1E87DD02FF93782A162C0A3D95F1524A52770F972BF1EE9809D13CE7DD599467F8ECE9ADD85CE85A34CD45355448C64F9E8A031DC2D596ACC6E5DD93D9B82DE2EF5CAF81363A8E47996A0DE24564A79
310
4115AACE09C55E14540231FDA13C319787134EBF34E3A022514E5B4D9E0826E25C02D5805B15ABE1BEF51B26383D445DD9E875EE33FE4C22DA16427D65A3BCA92CA6D28DD01DF5DC53330704308475351050232CCD31583787BA75774AFB06E5070DD0C8EF484E19968C5D83BA5B90B244D31E54D55A372320FE4786B7EA58
310
44E135AA5467CB7EA333A61683CC6A8C3257034C10CF46F40EF9F5BE59BE5BD30C3C72D235E95D10345C1D45445A5F0BB47E46A5EBE5570F9380B5FA629579952296A773720405982B9DE04011506178964401AA8BDF1FBF0A8EAB6861DD6580C0E38217056766716DAEB2D6FA0917D3E4116581EADB879C4E7CFFB11EFACD
310
3D641311495D92C8676CB409A72D18610D803CE8A626049E8EC1887CB5B44CC39883690DDA8399B4B9855B481E7D71D4A9D22F96E5BB73BF5793020C02137BF837504B0304140006080000CC70623B000000000000000000000000350000006662782F36394639363044362D344446342D343946362D394244322D32343142
310
43333846323333332F76657274696365732E62696E504B0304140006080800CC70623BF270F1330600000004000000360000006662782F36394639363044362D344446342D343946362D394244322D3234314243333846323333332F747269616E676C65732E62696E636660600000504B0304140006080000CC70623B0000
310
00000000000000000000370000006662782F36394639363044362D344446342D343946362D394244322D3234314243333846323333332F617474726962757465732E62696E504B0304140006080800CC70623B08DA0BD19000000041010000360000006662782F36394639363044362D344446342D343946362D394244322D
310
3234314243333846323333332F6469726563746F72792E786D6C858F410AC3201045AF22B36F53E9A60B35CBEEBAE80D244E44489C6234F4F835464A48035D0DF398FF9F8AF63D0E6CC63039F212F8F9020C7D47C6792B21C5FE7403D62A1188E2E60C98D7234A5830286103A55745067B9D86B8A3CF9C7F90C11DE607FB14
310
4396D7B6A82D282E9A152AD114D5EF2CB866EEE831B8EEA07A7BB5A8D7D61A2BAAEB7FD5F70921FF497D00504B0304140006080800CC70623BCA768048FE000000A00100003B0000006662782F36394639363044362D344446342D343946362D394244322D3234314243333846323333332F7265736F75726365732F636F72
310
652E786D6C8D50596E833010BD0A9ADFCA60D600328E9AA639412F609909B1126CE4A5EAF16B0295DABFFECC8CDEA2797AECF8353F924FB44E193D409E5248504B332A3D0D10FC95B4901C39B3C6F85F3248B49871801506CE266BC2B243D2688FDA47549B11775038871E12F988C7004EDE7016A9083E2ADC3D5D84BC8B09
310
D33C8D74D471E6BC8D0192EDC93A815B742658898E651BCB59086ADC356A8C3FD555A1055ED7E7E254D615792D0F075295F585746FF53B694EE78A565DD736979A65AB9933AFE69F8CD2A2F038022F28ED489E135A7CE4554F9BBEA85E68DB53CAB255FEC71496F19FA6A0B42F8B3DEE6673C0F318E4497096AD7DC5F52C33
310
EEB55BFE0D504B010214000A0000080000CC70623B3DEE336E79000000790000001B00000000000000000000000000000000006175746F6465736B2D64657369676E2D7061636B6167652E786D6C504B01021400140006080800CC70623BD486FD9CA0000000F40000001300000000000000000000000000B20000005B436F
310
6E74656E745F54797065735D2E786D6C504B01021400140006080800CC70623BD9DDAED0EC0000007C010000080000000000000000000000000083010000636F72652E786D6C504B01021400140006080800CC70623B55019EA25F0000007C000000070000000000000000000000000095020000636E782E786D6C504B0102
310
1400140006080800CC70623BA24EB22D72010000D40300000C00000000000000000000000000190300006662782F636F72652E786D6C504B01021400140006080800CC70623B408A7D3B7C0000009D0000000B00000000000000000000000000B50400006662782F636E782E786D6C504B01021400140006080800CC70623B
310
449FB9BD290100001202000031000000000000000000000000005A0500006662782F36394639363044362D344446342D343946362D394244322D3234314243333846323333332F636F72652E786D6C504B01021400140006080800CC70623BAD7543B64E010000330300003000000000000000000000000000D20600006662
310
782F36394639363044362D344446342D343946362D394244322D3234314243333846323333332F636E782E786D6C504B01021400140006080800CC70623B8D05915C650500003B10000034000000000000000000000000006E0800006662782F36394639363044362D344446342D343946362D394244322D32343142433338
310
46323333332F6F626A656374732E786D6C504B01021400140006080000CC70623B0000000000000000000000003500000000000000000000000000250E00006662782F36394639363044362D344446342D343946362D394244322D3234314243333846323333332F76657274696365732E62696E504B010214001400060808
310
00CC70623BF270F13306000000040000003600000000000000000000000000780E00006662782F36394639363044362D344446342D343946362D394244322D3234314243333846323333332F747269616E676C65732E62696E504B01021400140006080000CC70623B00000000000000000000000037000000000000000000
310
00000000D20E00006662782F36394639363044362D344446342D343946362D394244322D3234314243333846323333332F617474726962757465732E62696E504B01021400140006080800CC70623B08DA0BD190000000410100003600000000000000000000000000270F00006662782F36394639363044362D344446342D
310
343946362D394244322D3234314243333846323333332F6469726563746F72792E786D6C504B01021400140006080800CC70623BCA768048FE000000A00100003B000000000000000000000000000B1000006662782F36394639363044362D344446342D343946362D394244322D3234314243333846323333332F7265736F
310
75726365732F636F72652E786D6C504B0506000000000E000E0080040000621100000000
  0
XRECORD
  5
176
102
{ACAD_REACTORS
330
173
102
}
330
173
100
AcDbXrecord
280
     1
270
     1
271
     1
  0
XRECORD
  5
177
102
{ACAD_REACTORS
330
173
102
}
330
173
100
AcDbXrecord
280
     1
270
     1
271
     1
  0
XRECORD
  5
B729
102
{ACAD_REACTORS
330
B728
102
}
330
B728
100
AcDbXrecord
280
     1
102
ACAD_ROUNDTRIP_2012_MLEADER_STYLE
298
     1
  0
XRECORD
  5
B73B
102
{ACAD_REACTORS
330
B73A
102
}
330
B73A
100
AcDbXrecord
280
     1
102
DISPLAYNAME
  1
Metric50
102
FLAGS
 90
        0
  0
CELLSTYLEMAP
  5
B6FB
102
{ACAD_REACTORS
330
162
102
}
330
162
100
AcDbCellStyleMap
 90
        3
300
CELLSTYLE
  1
TABLEFORMAT_BEGIN
 90
        5
170
     1
 91
        0
 92
    32768
 62
   257
 93
        1
300
CONTENTFORMAT
  1
CONTENTFORMAT_BEGIN
 90
        0
 91
        0
 92
      512
 93
        0
300

 40
0.0
140
1.0
 94
        5
 62
     0
340
11
144
6.0
309
CONTENTFORMAT_END
171
     1
301
MARGIN
  1
CELLMARGIN_BEGIN
 40
1.5
 40
1.5
 40
1.5
 40
1.5
 40
4.5
 40
4.5
309
CELLMARGIN_END
 94
        6
 95
        1
302
GRIDFORMAT
  1
GRIDFORMAT_BEGIN
 90
        0
 91
        1
 62
     0
 92
       -2
340
14
 93
        0
 40
1.125
309
GRIDFORMAT_END
 95
        2
302
GRIDFORMAT
  1
GRIDFORMAT_BEGIN
 90
        0
 91
        1
 62
     0
 92
       -2
340
14
 93
        0
 40
1.125
309
GRIDFORMAT_END
 95
        4
302
GRIDFORMAT
  1
GRIDFORMAT_BEGIN
 90
        0
 91
        1
 62
     0
 92
       -2
340
14
 93
        0
 40
1.125
309
GRIDFORMAT_END
 95
        8
302
GRIDFORMAT
  1
GRIDFORMAT_BEGIN
 90
        0
 91
        1
 62
     0
 92
       -2
340
14
 93
        0
 40
1.125
309
GRIDFORMAT_END
 95
       16
302
GRIDFORMAT
  1
GRIDFORMAT_BEGIN
 90
        0
 91
        1
 62
     0
 92
       -2
340
14
 93
        0
 40
1.125
309
GRIDFORMAT_END
 95
       32
302
GRIDFORMAT
  1
GRIDFORMAT_BEGIN
 90
        0
 91
        1
 62
     0
 92
       -2
340
14
 93
        0
 40
1.125
309
GRIDFORMAT_END
309
TABLEFORMAT_END
  1
CELLSTYLE_BEGIN
 90
        1
 91
        1
300
_TITLE
309
CELLSTYLE_END
300
CELLSTYLE
  1
TABLEFORMAT_BEGIN
 90
        5
170
     1
 91
        0
 92
        0
 62
   257
 93
        1
300
CONTENTFORMAT
  1
CONTENTFORMAT_BEGIN
 90
        0
 91
        0
 92
      512
 93
        0
300

 40
0.0
140
1.0
 94
        5
 62
     0
340
11
144
4.5
309
CONTENTFORMAT_END
171
     1
301
MARGIN
  1
CELLMARGIN_BEGIN
 40
1.5
 40
1.5
 40
1.5
 40
1.5
 40
4.5
 40
4.5
309
CELLMARGIN_END
 94
        6
 95
        1
302
GRIDFORMAT
  1
GRIDFORMAT_BEGIN
 90
        0
 91
        1
 62
     0
 92
       -2
340
14
 93
        0
 40
1.125
309
GRIDFORMAT_END
 95
        2
302
GRIDFORMAT
  1
GRIDFORMAT_BEGIN
 90
        0
 91
        1
 62
     0
 92
       -2
340
14
 93
        0
 40
1.125
309
GRIDFORMAT_END
 95
        4
302
GRIDFORMAT
  1
GRIDFORMAT_BEGIN
 90
        0
 91
        1
 62
     0
 92
       -2
340
14
 93
        0
 40
1.125
309
GRIDFORMAT_END
 95
        8
302
GRIDFORMAT
  1
GRIDFORMAT_BEGIN
 90
        0
 91
        1
 62
     0
 92
       -2
340
14
 93
        0
 40
1.125
309
GRIDFORMAT_END
 95
       16
302
GRIDFORMAT
  1
GRIDFORMAT_BEGIN
 90
        0
 91
        1
 62
     0
 92
       -2
340
14
 93
        0
 40
1.125
309
GRIDFORMAT_END
 95
       32
302
GRIDFORMAT
  1
GRIDFORMAT_BEGIN
 90
        0
 91
        1
 62
     0
 92
       -2
340
14
 93
        0
 40
1.125
309
GRIDFORMAT_END
309
TABLEFORMAT_END
  1
CELLSTYLE_BEGIN
 90
        2
 91
        1
300
_HEADER
309
CELLSTYLE_END
300
CELLSTYLE
  1
TABLEFORMAT_BEGIN
 90
        5
170
     1
 91
        0
 92
        0
 62
   257
 93
        1
300
CONTENTFORMAT
  1
CONTENTFORMAT_BEGIN
 90
        0
 91
        0
 92
      512
 93
        0
300

 40
0.0
140
1.0
 94
        2
 62
     0
340
11
144
4.5
309
CONTENTFORMAT_END
171
     1
301
MARGIN
  1
CELLMARGIN_BEGIN
 40
1.5
 40
1.5
 40
1.5
 40
1.5
 40
4.5
 40
4.5
309
CELLMARGIN_END
 94
        6
 95
        1
302
GRIDFORMAT
  1
GRIDFORMAT_BEGIN
 90
        0
 91
        1
 62
     0
 92
       -2
340
14
 93
        0
 40
1.125
309
GRIDFORMAT_END
 95
        2
302
GRIDFORMAT
  1
GRIDFORMAT_BEGIN
 90
        0
 91
        1
 62
     0
 92
       -2
340
14
 93
        0
 40
1.125
309
GRIDFORMAT_END
 95
        4
302
GRIDFORMAT
  1
GRIDFORMAT_BEGIN
 90
        0
 91
        1
 62
     0
 92
       -2
340
14
 93
        0
 40
1.125
309
GRIDFORMAT_END
 95
        8
302
GRIDFORMAT
  1
GRIDFORMAT_BEGIN
 90
        0
 91
        1
 62
     0
 92
       -2
340
14
 93
        0
 40
1.125
309
GRIDFORMAT_END
 95
       16
302
GRIDFORMAT
  1
GRIDFORMAT_BEGIN
 90
        0
 91
        1
 62
     0
 92
       -2
340
14
 93
        0
 40
1.125
309
GRIDFORMAT_END
 95
       32
302
GRIDFORMAT
  1
GRIDFORMAT_BEGIN
 90
        0
 91
        1
 62
     0
 92
       -2
340
14
 93
        0
 40
1.125
309
GRIDFORMAT_END
309
TABLEFORMAT_END
  1
CELLSTYLE_BEGIN
 90
        3
 91
        2
300
_DATA
309
CELLSTYLE_END
  0
XRECORD
  5
B700
102
{ACAD_REACTORS
330
162
102
}
330
162
100
AcDbXrecord
280
     1
102
ACAD_ROUNDTRIP_PRE2007_TABLESTYLE
 90
      512
 91
        0
  1

 92
      512
 93
        0
  2

 94
      512
 95
        0
  3

  0
XRECORD
  5
B713
102
{ACAD_REACTORS
330
B712
102
}
330
B712
100
AcDbXrecord
280
     1
102
RTVSPost2010Prop28
280
     1
102
RTVSPost2010PropOp28
 70
     1
102
RTVSPost2010Prop29
280
     1
102
RTVSPost2010PropOp29
 70
     1
102
RTVSPost2010Prop30
280
     0
102
RTVSPost2010PropOp30
 70
     1
102
RTVSPost2010Prop31
280
     0
102
RTVSPost2010PropOp31
 70
     1
102
RTVSPost2010Prop32
280
     0
102
RTVSPost2010PropOp32
 70
     1
102
RTVSPost2010Prop33
280
     0
102
RTVSPost2010PropOp33
 70
     1
102
RTVSPost2010Prop34
280
     0
102
RTVSPost2010PropOp34
 70
     1
102
RTVSPost2010Prop35
280
     0
102
RTVSPost2010PropOp35
 70
     1
102
RTVSPost2010Prop36
280
     0
102
RTVSPost2010PropOp36
 70
     1
102
RTVSPost2010Prop37
 90
       50
102
RTVSPost2010PropOp37
 70
     1
102
RTVSPost2010Prop38
140
0.0
102
RTVSPost2010PropOp38
 70
     1
102
RTVSPost2010Prop39
140
1.0
102
RTVSPost2010PropOp39
 70
     1
102
RTVSPost2010Prop40
 90
        0
102
RTVSPost2010PropOp40
 70
     1
102
RTVSPost2010Prop41ColorIndex
 90
       18
102
RTVSPost2010Prop41ColorRGB
 90
        0
102
RTVSPost2010PropOp41
 70
     1
102
RTVSPost2010Prop42
 90
       50
102
RTVSPost2010PropOp42
 70
     1
102
RTVSPost2010Prop43
 90
        3
102
RTVSPost2010PropOp43
 70
     1
102
RTVSPost2010Prop44ColorIndex
 90
        5
102
RTVSPost2010Prop44ColorRGB
 90
      255
102
RTVSPost2010PropOp44
 70
     1
102
RTVSPost2010Prop45
280
     0
102
RTVSPost2010PropOp45
 70
     1
102
RTVSPost2010Prop46
 90
       50
102
RTVSPost2010PropOp46
 70
     1
102
RTVSPost2010Prop47
 90
       50
102
RTVSPost2010PropOp47
 70
     1
102
RTVSPost2010Prop48
 90
       50
102
RTVSPost2010PropOp48
 70
     1
102
RTVSPost2010Prop49
280
     0
102
RTVSPost2010PropOp49
 70
     1
102
RTVSPost2010Prop50
 90
       50
102
RTVSPost2010PropOp50
 70
     1
102
RTVSPost2010Prop51ColorIndex
 90
      256
102
RTVSPost2010Prop51ColorRGB
 90
-16777216
102
RTVSPost2010PropOp51
 70
     0
102
RTVSPost2010Prop52
140
1.0
102
RTVSPost2010PropOp52
 70
     0
102
RTVSPost2010Prop53
 90
        2
102
RTVSPost2010PropOp53
 70
     1
102
RTVSPost2010Prop54
  1
strokes_ogs.tif
102
RTVSPost2010PropOp54
 70
     1
102
RTVSPost2010Prop55
280
     0
102
RTVSPost2010PropOp55
 70
     1
102
RTVSPost2010Prop56
140
1.0
102
RTVSPost2010PropOp56
 70
     1
102
RTVSPost2010Prop57
140
1.0
102
RTVSPost2010PropOp57
 70
     1
102
RTVSPropertyOp0
 70
     1
102
RTVSPropertyOp1
 70
     1
102
RTVSPropertyOp2
 70
     1
102
RTVSPropertyOp3
 70
     1
102
RTVSPropertyOp4
 70
     1
102
RTVSPropertyOp5
 70
     1
102
RTVSPropertyOp6
 70
     1
102
RTVSPropertyOp7
 70
     1
102
RTVSPropertyOp8
 70
     1
102
RTVSPropertyOp9
 70
     1
102
RTVSPropertyOp10
 70
     1
102
RTVSPropertyOp11
 70
     1
102
RTVSPropertyOp12
 70
     1
102
RTVSPropertyOp13
 70
     1
102
RTVSPropertyOp14
 70
     1
102
RTVSPropertyOp15
 70
     1
102
RTVSPropertyOp16
 70
     1
102
RTVSPropertyOp17
 70
     1
102
RTVSPropertyOp18
 70
     1
102
RTVSPropertyOp19
 70
     1
102
RTVSPropertyOp20
 70
     1
102
RTVSPropertyOp21
 70
     1
102
RTVSPropertyOp22
 70
     1
102
RTVSPropertyOp23
 70
     1
102
RTVSPropertyOp24
 70
     1
102
RTVSPropertyOp25
 70
     1
102
RTVSPropertyOp26
 70
     1
102
RTVSPropertyOp27
 70
     1
102
RTVSPropertyOp28
 70
     1
102
RTVSPropertyOp29
 70
     1
102
RTVSPropertyOp30
 70
     1
102
RTVSPropertyOp31
 70
     1
102
RTVSPropertyOp32
 70
     1
102
RTVSPropertyOp33
 70
     1
102
RTVSPropertyOp34
 70
     1
102
RTVSPropertyOp35
 70
     1
102
RTVSPropertyOp36
 70
     1
102
RTVSPropertyOp37
 70
     1
102
RTVSPropertyOp38
 70
     1
102
RTVSPropertyOp39
 70
     1
102
RTVSPropertyOp40
 70
     1
102
RTVSPropertyOp41
 70
     1
102
RTVSPropertyOp42
 70
     1
102
RTVSPropertyOp43
 70
     1
102
RTVSPropertyOp44
 70
     1
102
RTVSPropertyOp45
 70
     1
102
RTVSPropertyOp46
 70
     1
102
RTVSPropertyOp47
 70
     1
102
RTVSPropertyOp48
 70
     1
102
RTVSPropertyOp49
 70
     1
102
RTVSPropertyOp50
 70
     1
102
RTVSPropertyOp51
 70
     0
102
RTVSPropertyOp52
 70
     0
102
RTVSPropertyOp53
 70
     1
102
RTVSPropertyOp54
 70
     1
102
RTVSPropertyOp55
 70
     1
102
RTVSPropertyOp56
 70
     1
102
RTVSPropertyOp57
 70
     1
102
RTVSPropertyOp58
 70
     1
102
RTVSPropertyOp59
 70
     1
102
RTVSPropertyOp60
 70
     1
102
RTVSPropertyOp61
 70
     1
102
RTVSPropertyOp62
 70
     1
  0
XRECORD
  5
B711
102
{ACAD_REACTORS
330
B710
102
}
330
B710
100
AcDbXrecord
280
     1
102
RTVSPost2010Prop28
280
     0
102
RTVSPost2010PropOp28
 70
     1
102
RTVSPost2010Prop29
280
     1
102
RTVSPost2010PropOp29
 70
     1
102
RTVSPost2010Prop30
280
     1
102
RTVSPost2010PropOp30
 70
     1
102
RTVSPost2010Prop31
280
     0
102
RTVSPost2010PropOp31
 70
     1
102
RTVSPost2010Prop32
280
     0
102
RTVSPost2010PropOp32
 70
     1
102
RTVSPost2010Prop33
280
     0
102
RTVSPost2010PropOp33
 70
     1
102
RTVSPost2010Prop34
280
     0
102
RTVSPost2010PropOp34
 70
     1
102
RTVSPost2010Prop35
280
     0
102
RTVSPost2010PropOp35
 70
     1
102
RTVSPost2010Prop36
280
     0
102
RTVSPost2010PropOp36
 70
     1
102
RTVSPost2010Prop37
 90
       50
102
RTVSPost2010PropOp37
 70
     1
102
RTVSPost2010Prop38
140
0.0
102
RTVSPost2010PropOp38
 70
     1
102
RTVSPost2010Prop39
140
1.0
102
RTVSPost2010PropOp39
 70
     1
102
RTVSPost2010Prop40
 90
        0
102
RTVSPost2010PropOp40
 70
     1
102
RTVSPost2010Prop41ColorIndex
 90
       18
102
RTVSPost2010Prop41ColorRGB
 90
        0
102
RTVSPost2010PropOp41
 70
     1
102
RTVSPost2010Prop42
 90
       50
102
RTVSPost2010PropOp42
 70
     1
102
RTVSPost2010Prop43
 90
        3
102
RTVSPost2010PropOp43
 70
     1
102
RTVSPost2010Prop44ColorIndex
 90
        5
102
RTVSPost2010Prop44ColorRGB
 90
      255
102
RTVSPost2010PropOp44
 70
     1
102
RTVSPost2010Prop45
280
     0
102
RTVSPost2010PropOp45
 70
     1
102
RTVSPost2010Prop46
 90
       50
102
RTVSPost2010PropOp46
 70
     1
102
RTVSPost2010Prop47
 90
       50
102
RTVSPost2010PropOp47
 70
     1
102
RTVSPost2010Prop48
 90
       50
102
RTVSPost2010PropOp48
 70
     1
102
RTVSPost2010Prop49
280
     0
102
RTVSPost2010PropOp49
 70
     1
102
RTVSPost2010Prop50
 90
       50
102
RTVSPost2010PropOp50
 70
     1
102
RTVSPost2010Prop51ColorIndex
 90
      256
102
RTVSPost2010Prop51ColorRGB
 90
-16777216
102
RTVSPost2010PropOp51
 70
     0
102
RTVSPost2010Prop52
140
1.0
102
RTVSPost2010PropOp52
 70
     0
102
RTVSPost2010Prop53
 90
        2
102
RTVSPost2010PropOp53
 70
     1
102
RTVSPost2010Prop54
  1
strokes_ogs.tif
102
RTVSPost2010PropOp54
 70
     1
102
RTVSPost2010Prop55
280
     0
102
RTVSPost2010PropOp55
 70
     1
102
RTVSPost2010Prop56
140
1.0
102
RTVSPost2010PropOp56
 70
     1
102
RTVSPost2010Prop57
140
1.0
102
RTVSPost2010PropOp57
 70
     1
102
RTVSPropertyOp0
 70
     1
102
RTVSPropertyOp1
 70
     1
102
RTVSPropertyOp2
 70
     1
102
RTVSPropertyOp3
 70
     1
102
RTVSPropertyOp4
 70
     1
102
RTVSPropertyOp5
 70
     1
102
RTVSPropertyOp6
 70
     1
102
RTVSPropertyOp7
 70
     1
102
RTVSPropertyOp8
 70
     1
102
RTVSPropertyOp9
 70
     1
102
RTVSPropertyOp10
 70
     1
102
RTVSPropertyOp11
 70
     1
102
RTVSPropertyOp12
 70
     1
102
RTVSPropertyOp13
 70
     1
102
RTVSPropertyOp14
 70
     1
102
RTVSPropertyOp15
 70
     1
102
RTVSPropertyOp16
 70
     1
102
RTVSPropertyOp17
 70
     1
102
RTVSPropertyOp18
 70
     1
102
RTVSPropertyOp19
 70
     1
102
RTVSPropertyOp20
 70
     1
102
RTVSPropertyOp21
 70
     1
102
RTVSPropertyOp22
 70
     1
102
RTVSPropertyOp23
 70
     1
102
RTVSPropertyOp24
 70
     1
102
RTVSPropertyOp25
 70
     1
102
RTVSPropertyOp26
 70
     1
102
RTVSPropertyOp27
 70
     1
102
RTVSPropertyOp28
 70
     1
102
RTVSPropertyOp29
 70
     1
102
RTVSPropertyOp30
 70
     1
102
RTVSPropertyOp31
 70
     1
102
RTVSPropertyOp32
 70
     1
102
RTVSPropertyOp33
 70
     1
102
RTVSPropertyOp34
 70
     1
102
RTVSPropertyOp35
 70
     1
102
RTVSPropertyOp36
 70
     1
102
RTVSPropertyOp37
 70
     1
102
RTVSPropertyOp38
 70
     1
102
RTVSPropertyOp39
 70
     1
102
RTVSPropertyOp40
 70
     1
102
RTVSPropertyOp41
 70
     1
102
RTVSPropertyOp42
 70
     1
102
RTVSPropertyOp43
 70
     1
102
RTVSPropertyOp44
 70
     1
102
RTVSPropertyOp45
 70
     1
102
RTVSPropertyOp46
 70
     1
102
RTVSPropertyOp47
 70
     1
102
RTVSPropertyOp48
 70
     1
102
RTVSPropertyOp49
 70
     1
102
RTVSPropertyOp50
 70
     1
102
RTVSPropertyOp51
 70
     0
102
RTVSPropertyOp52
 70
     0
102
RTVSPropertyOp53
 70
     1
102
RTVSPropertyOp54
 70
     1
102
RTVSPropertyOp55
 70
     1
102
RTVSPropertyOp56
 70
     1
102
RTVSPropertyOp57
 70
     1
102
RTVSPropertyOp58
 70
     1
102
RTVSPropertyOp59
 70
     1
102
RTVSPropertyOp60
 70
     1
102
RTVSPropertyOp61
 70
     1
102
RTVSPropertyOp62
 70
     1
  0
XRECORD
  5
B71F
102
{ACAD_REACTORS
330
B71E
102
}
330
B71E
100
AcDbXrecord
280
     1
102
RTVSPost2010Prop28
280
     0
102
RTVSPost2010PropOp28
 70
     1
102
RTVSPost2010Prop29
280
     1
102
RTVSPost2010PropOp29
 70
     1
102
RTVSPost2010Prop30
280
     1
102
RTVSPost2010PropOp30
 70
     1
102
RTVSPost2010Prop31
280
     0
102
RTVSPost2010PropOp31
 70
     1
102
RTVSPost2010Prop32
280
     0
102
RTVSPost2010PropOp32
 70
     1
102
RTVSPost2010Prop33
280
     0
102
RTVSPost2010PropOp33
 70
     1
102
RTVSPost2010Prop34
280
     0
102
RTVSPost2010PropOp34
 70
     1
102
RTVSPost2010Prop35
280
     0
102
RTVSPost2010PropOp35
 70
     1
102
RTVSPost2010Prop36
280
     0
102
RTVSPost2010PropOp36
 70
     1
102
RTVSPost2010Prop37
 90
       50
102
RTVSPost2010PropOp37
 70
     1
102
RTVSPost2010Prop38
140
0.0
102
RTVSPost2010PropOp38
 70
     1
102
RTVSPost2010Prop39
140
1.0
102
RTVSPost2010PropOp39
 70
     1
102
RTVSPost2010Prop40
 90
        0
102
RTVSPost2010PropOp40
 70
     1
102
RTVSPost2010Prop41ColorIndex
 90
       18
102
RTVSPost2010Prop41ColorRGB
 90
        0
102
RTVSPost2010PropOp41
 70
     1
102
RTVSPost2010Prop42
 90
       50
102
RTVSPost2010PropOp42
 70
     1
102
RTVSPost2010Prop43
 90
        3
102
RTVSPost2010PropOp43
 70
     1
102
RTVSPost2010Prop44ColorIndex
 90
        5
102
RTVSPost2010Prop44ColorRGB
 90
      255
102
RTVSPost2010PropOp44
 70
     1
102
RTVSPost2010Prop45
280
     0
102
RTVSPost2010PropOp45
 70
     1
102
RTVSPost2010Prop46
 90
       50
102
RTVSPost2010PropOp46
 70
     1
102
RTVSPost2010Prop47
 90
       50
102
RTVSPost2010PropOp47
 70
     1
102
RTVSPost2010Prop48
 90
       50
102
RTVSPost2010PropOp48
 70
     1
102
RTVSPost2010Prop49
280
     0
102
RTVSPost2010PropOp49
 70
     1
102
RTVSPost2010Prop50
 90
       50
102
RTVSPost2010PropOp50
 70
     1
102
RTVSPost2010Prop51ColorIndex
 90
      256
102
RTVSPost2010Prop51ColorRGB
 90
-16777216
102
RTVSPost2010PropOp51
 70
     0
102
RTVSPost2010Prop52
140
1.0
102
RTVSPost2010PropOp52
 70
     0
102
RTVSPost2010Prop53
 90
        2
102
RTVSPost2010PropOp53
 70
     1
102
RTVSPost2010Prop54
  1
strokes_ogs.tif
102
RTVSPost2010PropOp54
 70
     1
102
RTVSPost2010Prop55
280
     0
102
RTVSPost2010PropOp55
 70
     1
102
RTVSPost2010Prop56
140
1.0
102
RTVSPost2010PropOp56
 70
     1
102
RTVSPost2010Prop57
140
1.0
102
RTVSPost2010PropOp57
 70
     1
102
RTVSPropertyOp0
 70
     1
102
RTVSPropertyOp1
 70
     1
102
RTVSPropertyOp2
 70
     1
102
RTVSPropertyOp3
 70
     1
102
RTVSPropertyOp4
 70
     1
102
RTVSPropertyOp5
 70
     1
102
RTVSPropertyOp6
 70
     1
102
RTVSPropertyOp7
 70
     1
102
RTVSPropertyOp8
 70
     1
102
RTVSPropertyOp9
 70
     1
102
RTVSPropertyOp10
 70
     1
102
RTVSPropertyOp11
 70
     1
102
RTVSPropertyOp12
 70
     1
102
RTVSPropertyOp13
 70
     1
102
RTVSPropertyOp14
 70
     1
102
RTVSPropertyOp15
 70
     1
102
RTVSPropertyOp16
 70
     1
102
RTVSPropertyOp17
 70
     1
102
RTVSPropertyOp18
 70
     1
102
RTVSPropertyOp19
 70
     1
102
RTVSPropertyOp20
 70
     1
102
RTVSPropertyOp21
 70
     1
102
RTVSPropertyOp22
 70
     1
102
RTVSPropertyOp23
 70
     1
102
RTVSPropertyOp24
 70
     1
102
RTVSPropertyOp25
 70
     1
102
RTVSPropertyOp26
 70
     1
102
RTVSPropertyOp27
 70
     1
102
RTVSPropertyOp28
 70
     1
102
RTVSPropertyOp29
 70
     1
102
RTVSPropertyOp30
 70
     1
102
RTVSPropertyOp31
 70
     1
102
RTVSPropertyOp32
 70
     1
102
RTVSPropertyOp33
 70
     1
102
RTVSPropertyOp34
 70
     1
102
RTVSPropertyOp35
 70
     1
102
RTVSPropertyOp36
 70
     1
102
RTVSPropertyOp37
 70
     1
102
RTVSPropertyOp38
 70
     1
102
RTVSPropertyOp39
 70
     1
102
RTVSPropertyOp40
 70
     1
102
RTVSPropertyOp41
 70
     1
102
RTVSPropertyOp42
 70
     1
102
RTVSPropertyOp43
 70
     1
102
RTVSPropertyOp44
 70
     1
102
RTVSPropertyOp45
 70
     1
102
RTVSPropertyOp46
 70
     1
102
RTVSPropertyOp47
 70
     1
102
RTVSPropertyOp48
 70
     1
102
RTVSPropertyOp49
 70
     1
102
RTVSPropertyOp50
 70
     1
102
RTVSPropertyOp51
 70
     0
102
RTVSPropertyOp52
 70
     0
102
RTVSPropertyOp53
 70
     1
102
RTVSPropertyOp54
 70
     1
102
RTVSPropertyOp55
 70
     1
102
RTVSPropertyOp56
 70
     1
102
RTVSPropertyOp57
 70
     1
102
RTVSPropertyOp58
 70
     1
102
RTVSPropertyOp59
 70
     1
102
RTVSPropertyOp60
 70
     1
102
RTVSPropertyOp61
 70
     1
102
RTVSPropertyOp62
 70
     1
  0
XRECORD
  5
B727
102
{ACAD_REACTORS
330
B726
102
}
330
B726
100
AcDbXrecord
280
     1
102
RTVSPost2010Prop28
280
     0
102
RTVSPost2010PropOp28
 70
     1
102
RTVSPost2010Prop29
280
     1
102
RTVSPost2010PropOp29
 70
     1
102
RTVSPost2010Prop30
280
     1
102
RTVSPost2010PropOp30
 70
     1
102
RTVSPost2010Prop31
280
     0
102
RTVSPost2010PropOp31
 70
     1
102
RTVSPost2010Prop32
280
     0
102
RTVSPost2010PropOp32
 70
     1
102
RTVSPost2010Prop33
280
     0
102
RTVSPost2010PropOp33
 70
     1
102
RTVSPost2010Prop34
280
     0
102
RTVSPost2010PropOp34
 70
     1
102
RTVSPost2010Prop35
280
     0
102
RTVSPost2010PropOp35
 70
     1
102
RTVSPost2010Prop36
280
     0
102
RTVSPost2010PropOp36
 70
     1
102
RTVSPost2010Prop37
 90
       50
102
RTVSPost2010PropOp37
 70
     1
102
RTVSPost2010Prop38
140
0.0
102
RTVSPost2010PropOp38
 70
     1
102
RTVSPost2010Prop39
140
1.0
102
RTVSPost2010PropOp39
 70
     1
102
RTVSPost2010Prop40
 90
        0
102
RTVSPost2010PropOp40
 70
     1
102
RTVSPost2010Prop41ColorIndex
 90
       18
102
RTVSPost2010Prop41ColorRGB
 90
        0
102
RTVSPost2010PropOp41
 70
     1
102
RTVSPost2010Prop42
 90
       50
102
RTVSPost2010PropOp42
 70
     1
102
RTVSPost2010Prop43
 90
        3
102
RTVSPost2010PropOp43
 70
     1
102
RTVSPost2010Prop44ColorIndex
 90
        5
102
RTVSPost2010Prop44ColorRGB
 90
      255
102
RTVSPost2010PropOp44
 70
     1
102
RTVSPost2010Prop45
280
     0
102
RTVSPost2010PropOp45
 70
     1
102
RTVSPost2010Prop46
 90
       50
102
RTVSPost2010PropOp46
 70
     1
102
RTVSPost2010Prop47
 90
       50
102
RTVSPost2010PropOp47
 70
     1
102
RTVSPost2010Prop48
 90
       50
102
RTVSPost2010PropOp48
 70
     1
102
RTVSPost2010Prop49
280
     0
102
RTVSPost2010PropOp49
 70
     1
102
RTVSPost2010Prop50
 90
       50
102
RTVSPost2010PropOp50
 70
     1
102
RTVSPost2010Prop51ColorIndex
 90
      256
102
RTVSPost2010Prop51ColorRGB
 90
-16777216
102
RTVSPost2010PropOp51
 70
     0
102
RTVSPost2010Prop52
140
1.0
102
RTVSPost2010PropOp52
 70
     0
102
RTVSPost2010Prop53
 90
        2
102
RTVSPost2010PropOp53
 70
     1
102
RTVSPost2010Prop54
  1
strokes_ogs.tif
102
RTVSPost2010PropOp54
 70
     1
102
RTVSPost2010Prop55
280
     0
102
RTVSPost2010PropOp55
 70
     1
102
RTVSPost2010Prop56
140
1.0
102
RTVSPost2010PropOp56
 70
     1
102
RTVSPost2010Prop57
140
1.0
102
RTVSPost2010PropOp57
 70
     1
102
RTVSPropertyOp0
 70
     1
102
RTVSPropertyOp1
 70
     1
102
RTVSPropertyOp2
 70
     1
102
RTVSPropertyOp3
 70
     1
102
RTVSPropertyOp4
 70
     1
102
RTVSPropertyOp5
 70
     1
102
RTVSPropertyOp6
 70
     1
102
RTVSPropertyOp7
 70
     1
102
RTVSPropertyOp8
 70
     1
102
RTVSPropertyOp9
 70
     1
102
RTVSPropertyOp10
 70
     1
102
RTVSPropertyOp11
 70
     1
102
RTVSPropertyOp12
 70
     1
102
RTVSPropertyOp13
 70
     1
102
RTVSPropertyOp14
 70
     1
102
RTVSPropertyOp15
 70
     1
102
RTVSPropertyOp16
 70
     1
102
RTVSPropertyOp17
 70
     1
102
RTVSPropertyOp18
 70
     1
102
RTVSPropertyOp19
 70
     1
102
RTVSPropertyOp20
 70
     1
102
RTVSPropertyOp21
 70
     1
102
RTVSPropertyOp22
 70
     1
102
RTVSPropertyOp23
 70
     1
102
RTVSPropertyOp24
 70
     1
102
RTVSPropertyOp25
 70
     1
102
RTVSPropertyOp26
 70
     1
102
RTVSPropertyOp27
 70
     1
102
RTVSPropertyOp28
 70
     1
102
RTVSPropertyOp29
 70
     1
102
RTVSPropertyOp30
 70
     1
102
RTVSPropertyOp31
 70
     1
102
RTVSPropertyOp32
 70
     1
102
RTVSPropertyOp33
 70
     1
102
RTVSPropertyOp34
 70
     1
102
RTVSPropertyOp35
 70
     1
102
RTVSPropertyOp36
 70
     1
102
RTVSPropertyOp37
 70
     1
102
RTVSPropertyOp38
 70
     1
102
RTVSPropertyOp39
 70
     1
102
RTVSPropertyOp40
 70
     1
102
RTVSPropertyOp41
 70
     1
102
RTVSPropertyOp42
 70
     1
102
RTVSPropertyOp43
 70
     1
102
RTVSPropertyOp44
 70
     1
102
RTVSPropertyOp45
 70
     1
102
RTVSPropertyOp46
 70
     1
102
RTVSPropertyOp47
 70
     1
102
RTVSPropertyOp48
 70
     1
102
RTVSPropertyOp49
 70
     1
102
RTVSPropertyOp50
 70
     1
102
RTVSPropertyOp51
 70
     0
102
RTVSPropertyOp52
 70
     0
102
RTVSPropertyOp53
 70
     1
102
RTVSPropertyOp54
 70
     1
102
RTVSPropertyOp55
 70
     1
102
RTVSPropertyOp56
 70
     1
102
RTVSPropertyOp57
 70
     1
102
RTVSPropertyOp58
 70
     1
102
RTVSPropertyOp59
 70
     1
102
RTVSPropertyOp60
 70
     1
102
RTVSPropertyOp61
 70
     1
102
RTVSPropertyOp62
 70
     1
  0
XRECORD
  5
B719
102
{ACAD_REACTORS
330
B718
102
}
330
B718
100
AcDbXrecord
280
     1
102
RTVSPost2010Prop28
280
     0
102
RTVSPost2010PropOp28
 70
     1
102
RTVSPost2010Prop29
280
     1
102
RTVSPost2010PropOp29
 70
     1
102
RTVSPost2010Prop30
280
     1
102
RTVSPost2010PropOp30
 70
     1
102
RTVSPost2010Prop31
280
     0
102
RTVSPost2010PropOp31
 70
     1
102
RTVSPost2010Prop32
280
     0
102
RTVSPost2010PropOp32
 70
     1
102
RTVSPost2010Prop33
280
     0
102
RTVSPost2010PropOp33
 70
     1
102
RTVSPost2010Prop34
280
     0
102
RTVSPost2010PropOp34
 70
     1
102
RTVSPost2010Prop35
280
     0
102
RTVSPost2010PropOp35
 70
     1
102
RTVSPost2010Prop36
280
     0
102
RTVSPost2010PropOp36
 70
     1
102
RTVSPost2010Prop37
 90
       50
102
RTVSPost2010PropOp37
 70
     1
102
RTVSPost2010Prop38
140
0.0
102
RTVSPost2010PropOp38
 70
     1
102
RTVSPost2010Prop39
140
1.0
102
RTVSPost2010PropOp39
 70
     1
102
RTVSPost2010Prop40
 90
        0
102
RTVSPost2010PropOp40
 70
     1
102
RTVSPost2010Prop41ColorIndex
 90
       18
102
RTVSPost2010Prop41ColorRGB
 90
        0
102
RTVSPost2010PropOp41
 70
     1
102
RTVSPost2010Prop42
 90
       50
102
RTVSPost2010PropOp42
 70
     1
102
RTVSPost2010Prop43
 90
        3
102
RTVSPost2010PropOp43
 70
     1
102
RTVSPost2010Prop44ColorIndex
 90
        5
102
RTVSPost2010Prop44ColorRGB
 90
      255
102
RTVSPost2010PropOp44
 70
     1
102
RTVSPost2010Prop45
280
     0
102
RTVSPost2010PropOp45
 70
     1
102
RTVSPost2010Prop46
 90
       50
102
RTVSPost2010PropOp46
 70
     1
102
RTVSPost2010Prop47
 90
       50
102
RTVSPost2010PropOp47
 70
     1
102
RTVSPost2010Prop48
 90
       50
102
RTVSPost2010PropOp48
 70
     1
102
RTVSPost2010Prop49
280
     0
102
RTVSPost2010PropOp49
 70
     1
102
RTVSPost2010Prop50
 90
       50
102
RTVSPost2010PropOp50
 70
     1
102
RTVSPost2010Prop51ColorIndex
 90
      256
102
RTVSPost2010Prop51ColorRGB
 90
-16777216
102
RTVSPost2010PropOp51
 70
     0
102
RTVSPost2010Prop52
140
1.0
102
RTVSPost2010PropOp52
 70
     0
102
RTVSPost2010Prop53
 90
        2
102
RTVSPost2010PropOp53
 70
     1
102
RTVSPost2010Prop54
  1
strokes_ogs.tif
102
RTVSPost2010PropOp54
 70
     1
102
RTVSPost2010Prop55
280
     0
102
RTVSPost2010PropOp55
 70
     1
102
RTVSPost2010Prop56
140
1.0
102
RTVSPost2010PropOp56
 70
     1
102
RTVSPost2010Prop57
140
1.0
102
RTVSPost2010PropOp57
 70
     1
102
RTVSPropertyOp0
 70
     1
102
RTVSPropertyOp1
 70
     1
102
RTVSPropertyOp2
 70
     1
102
RTVSPropertyOp3
 70
     1
102
RTVSPropertyOp4
 70
     1
102
RTVSPropertyOp5
 70
     1
102
RTVSPropertyOp6
 70
     1
102
RTVSPropertyOp7
 70
     1
102
RTVSPropertyOp8
 70
     1
102
RTVSPropertyOp9
 70
     1
102
RTVSPropertyOp10
 70
     1
102
RTVSPropertyOp11
 70
     1
102
RTVSPropertyOp12
 70
     1
102
RTVSPropertyOp13
 70
     1
102
RTVSPropertyOp14
 70
     1
102
RTVSPropertyOp15
 70
     1
102
RTVSPropertyOp16
 70
     1
102
RTVSPropertyOp17
 70
     1
102
RTVSPropertyOp18
 70
     1
102
RTVSPropertyOp19
 70
     1
102
RTVSPropertyOp20
 70
     1
102
RTVSPropertyOp21
 70
     1
102
RTVSPropertyOp22
 70
     1
102
RTVSPropertyOp23
 70
     1
102
RTVSPropertyOp24
 70
     1
102
RTVSPropertyOp25
 70
     1
102
RTVSPropertyOp26
 70
     1
102
RTVSPropertyOp27
 70
     1
102
RTVSPropertyOp28
 70
     1
102
RTVSPropertyOp29
 70
     1
102
RTVSPropertyOp30
 70
     1
102
RTVSPropertyOp31
 70
     1
102
RTVSPropertyOp32
 70
     1
102
RTVSPropertyOp33
 70
     1
102
RTVSPropertyOp34
 70
     1
102
RTVSPropertyOp35
 70
     1
102
RTVSPropertyOp36
 70
     1
102
RTVSPropertyOp37
 70
     1
102
RTVSPropertyOp38
 70
     1
102
RTVSPropertyOp39
 70
     1
102
RTVSPropertyOp40
 70
     1
102
RTVSPropertyOp41
 70
     1
102
RTVSPropertyOp42
 70
     1
102
RTVSPropertyOp43
 70
     1
102
RTVSPropertyOp44
 70
     1
102
RTVSPropertyOp45
 70
     1
102
RTVSPropertyOp46
 70
     1
102
RTVSPropertyOp47
 70
     1
102
RTVSPropertyOp48
 70
     1
102
RTVSPropertyOp49
 70
     1
102
RTVSPropertyOp50
 70
     1
102
RTVSPropertyOp51
 70
     0
102
RTVSPropertyOp52
 70
     0
102
RTVSPropertyOp53
 70
     1
102
RTVSPropertyOp54
 70
     1
102
RTVSPropertyOp55
 70
     1
102
RTVSPropertyOp56
 70
     1
102
RTVSPropertyOp57
 70
     1
102
RTVSPropertyOp58
 70
     1
102
RTVSPropertyOp59
 70
     1
102
RTVSPropertyOp60
 70
     1
102
RTVSPropertyOp61
 70
     1
102
RTVSPropertyOp62
 70
     1
  0
XRECORD
  5
B71D
102
{ACAD_REACTORS
330
B71C
102
}
330
B71C
100
AcDbXrecord
280
     1
102
RTVSPost2010Prop28
280
     0
102
RTVSPost2010PropOp28
 70
     1
102
RTVSPost2010Prop29
280
     1
102
RTVSPost2010PropOp29
 70
     1
102
RTVSPost2010Prop30
280
     1
102
RTVSPost2010PropOp30
 70
     1
102
RTVSPost2010Prop31
280
     0
102
RTVSPost2010PropOp31
 70
     1
102
RTVSPost2010Prop32
280
     0
102
RTVSPost2010PropOp32
 70
     1
102
RTVSPost2010Prop33
280
     0
102
RTVSPost2010PropOp33
 70
     1
102
RTVSPost2010Prop34
280
     0
102
RTVSPost2010PropOp34
 70
     1
102
RTVSPost2010Prop35
280
     0
102
RTVSPost2010PropOp35
 70
     1
102
RTVSPost2010Prop36
280
     0
102
RTVSPost2010PropOp36
 70
     1
102
RTVSPost2010Prop37
 90
       50
102
RTVSPost2010PropOp37
 70
     1
102
RTVSPost2010Prop38
140
0.0
102
RTVSPost2010PropOp38
 70
     1
102
RTVSPost2010Prop39
140
1.0
102
RTVSPost2010PropOp39
 70
     1
102
RTVSPost2010Prop40
 90
        0
102
RTVSPost2010PropOp40
 70
     1
102
RTVSPost2010Prop41ColorIndex
 90
       18
102
RTVSPost2010Prop41ColorRGB
 90
        0
102
RTVSPost2010PropOp41
 70
     1
102
RTVSPost2010Prop42
 90
       50
102
RTVSPost2010PropOp42
 70
     1
102
RTVSPost2010Prop43
 90
        3
102
RTVSPost2010PropOp43
 70
     1
102
RTVSPost2010Prop44ColorIndex
 90
        5
102
RTVSPost2010Prop44ColorRGB
 90
      255
102
RTVSPost2010PropOp44
 70
     1
102
RTVSPost2010Prop45
280
     0
102
RTVSPost2010PropOp45
 70
     1
102
RTVSPost2010Prop46
 90
       50
102
RTVSPost2010PropOp46
 70
     1
102
RTVSPost2010Prop47
 90
       50
102
RTVSPost2010PropOp47
 70
     1
102
RTVSPost2010Prop48
 90
       50
102
RTVSPost2010PropOp48
 70
     1
102
RTVSPost2010Prop49
280
     0
102
RTVSPost2010PropOp49
 70
     1
102
RTVSPost2010Prop50
 90
       50
102
RTVSPost2010PropOp50
 70
     1
102
RTVSPost2010Prop51ColorIndex
 90
      256
102
RTVSPost2010Prop51ColorRGB
 90
-16777216
102
RTVSPost2010PropOp51
 70
     0
102
RTVSPost2010Prop52
140
1.0
102
RTVSPost2010PropOp52
 70
     0
102
RTVSPost2010Prop53
 90
        2
102
RTVSPost2010PropOp53
 70
     1
102
RTVSPost2010Prop54
  1
strokes_ogs.tif
102
RTVSPost2010PropOp54
 70
     1
102
RTVSPost2010Prop55
280
     0
102
RTVSPost2010PropOp55
 70
     1
102
RTVSPost2010Prop56
140
1.0
102
RTVSPost2010PropOp56
 70
     1
102
RTVSPost2010Prop57
140
1.0
102
RTVSPost2010PropOp57
 70
     1
102
RTVSPropertyOp0
 70
     1
102
RTVSPropertyOp1
 70
     1
102
RTVSPropertyOp2
 70
     1
102
RTVSPropertyOp3
 70
     1
102
RTVSPropertyOp4
 70
     1
102
RTVSPropertyOp5
 70
     1
102
RTVSPropertyOp6
 70
     1
102
RTVSPropertyOp7
 70
     1
102
RTVSPropertyOp8
 70
     1
102
RTVSPropertyOp9
 70
     1
102
RTVSPropertyOp10
 70
     1
102
RTVSPropertyOp11
 70
     1
102
RTVSPropertyOp12
 70
     1
102
RTVSPropertyOp13
 70
     1
102
RTVSPropertyOp14
 70
     1
102
RTVSPropertyOp15
 70
     1
102
RTVSPropertyOp16
 70
     1
102
RTVSPropertyOp17
 70
     1
102
RTVSPropertyOp18
 70
     1
102
RTVSPropertyOp19
 70
     1
102
RTVSPropertyOp20
 70
     1
102
RTVSPropertyOp21
 70
     1
102
RTVSPropertyOp22
 70
     1
102
RTVSPropertyOp23
 70
     1
102
RTVSPropertyOp24
 70
     1
102
RTVSPropertyOp25
 70
     1
102
RTVSPropertyOp26
 70
     1
102
RTVSPropertyOp27
 70
     1
102
RTVSPropertyOp28
 70
     1
102
RTVSPropertyOp29
 70
     1
102
RTVSPropertyOp30
 70
     1
102
RTVSPropertyOp31
 70
     1
102
RTVSPropertyOp32
 70
     1
102
RTVSPropertyOp33
 70
     1
102
RTVSPropertyOp34
 70
     1
102
RTVSPropertyOp35
 70
     1
102
RTVSPropertyOp36
 70
     1
102
RTVSPropertyOp37
 70
     1
102
RTVSPropertyOp38
 70
     1
102
RTVSPropertyOp39
 70
     1
102
RTVSPropertyOp40
 70
     1
102
RTVSPropertyOp41
 70
     1
102
RTVSPropertyOp42
 70
     1
102
RTVSPropertyOp43
 70
     1
102
RTVSPropertyOp44
 70
     1
102
RTVSPropertyOp45
 70
     1
102
RTVSPropertyOp46
 70
     1
102
RTVSPropertyOp47
 70
     1
102
RTVSPropertyOp48
 70
     1
102
RTVSPropertyOp49
 70
     1
102
RTVSPropertyOp50
 70
     1
102
RTVSPropertyOp51
 70
     0
102
RTVSPropertyOp52
 70
     0
102
RTVSPropertyOp53
 70
     1
102
RTVSPropertyOp54
 70
     1
102
RTVSPropertyOp55
 70
     1
102
RTVSPropertyOp56
 70
     1
102
RTVSPropertyOp57
 70
     1
102
RTVSPropertyOp58
 70
     1
102
RTVSPropertyOp59
 70
     1
102
RTVSPropertyOp60
 70
     1
102
RTVSPropertyOp61
 70
     1
102
RTVSPropertyOp62
 70
     1
  0
XRECORD
  5
B72F
102
{ACAD_REACTORS
330
B72E
102
}
330
B72E
100
AcDbXrecord
280
     1
102
RTVSPost2010Prop28
280
     0
102
RTVSPost2010PropOp28
 70
     1
102
RTVSPost2010Prop29
280
     1
102
RTVSPost2010PropOp29
 70
     1
102
RTVSPost2010Prop30
280
     1
102
RTVSPost2010PropOp30
 70
     1
102
RTVSPost2010Prop31
280
     0
102
RTVSPost2010PropOp31
 70
     1
102
RTVSPost2010Prop32
280
     0
102
RTVSPost2010PropOp32
 70
     1
102
RTVSPost2010Prop33
280
     0
102
RTVSPost2010PropOp33
 70
     1
102
RTVSPost2010Prop34
280
     0
102
RTVSPost2010PropOp34
 70
     1
102
RTVSPost2010Prop35
280
     0
102
RTVSPost2010PropOp35
 70
     1
102
RTVSPost2010Prop36
280
     0
102
RTVSPost2010PropOp36
 70
     1
102
RTVSPost2010Prop37
 90
       50
102
RTVSPost2010PropOp37
 70
     1
102
RTVSPost2010Prop38
140
0.0
102
RTVSPost2010PropOp38
 70
     1
102
RTVSPost2010Prop39
140
1.0
102
RTVSPost2010PropOp39
 70
     1
102
RTVSPost2010Prop40
 90
        0
102
RTVSPost2010PropOp40
 70
     1
102
RTVSPost2010Prop41ColorIndex
 90
       18
102
RTVSPost2010Prop41ColorRGB
 90
        0
102
RTVSPost2010PropOp41
 70
     1
102
RTVSPost2010Prop42
 90
       50
102
RTVSPost2010PropOp42
 70
     1
102
RTVSPost2010Prop43
 90
        3
102
RTVSPost2010PropOp43
 70
     1
102
RTVSPost2010Prop44ColorIndex
 90
        5
102
RTVSPost2010Prop44ColorRGB
 90
      255
102
RTVSPost2010PropOp44
 70
     1
102
RTVSPost2010Prop45
280
     0
102
RTVSPost2010PropOp45
 70
     1
102
RTVSPost2010Prop46
 90
       50
102
RTVSPost2010PropOp46
 70
     1
102
RTVSPost2010Prop47
 90
       50
102
RTVSPost2010PropOp47
 70
     1
102
RTVSPost2010Prop48
 90
       50
102
RTVSPost2010PropOp48
 70
     1
102
RTVSPost2010Prop49
280
     0
102
RTVSPost2010PropOp49
 70
     1
102
RTVSPost2010Prop50
 90
       50
102
RTVSPost2010PropOp50
 70
     1
102
RTVSPost2010Prop51ColorIndex
 90
      256
102
RTVSPost2010Prop51ColorRGB
 90
-16777216
102
RTVSPost2010PropOp51
 70
     0
102
RTVSPost2010Prop52
140
1.0
102
RTVSPost2010PropOp52
 70
     0
102
RTVSPost2010Prop53
 90
        2
102
RTVSPost2010PropOp53
 70
     1
102
RTVSPost2010Prop54
  1
strokes_ogs.tif
102
RTVSPost2010PropOp54
 70
     1
102
RTVSPost2010Prop55
280
     0
102
RTVSPost2010PropOp55
 70
     1
102
RTVSPost2010Prop56
140
1.0
102
RTVSPost2010PropOp56
 70
     1
102
RTVSPost2010Prop57
140
1.0
102
RTVSPost2010PropOp57
 70
     1
102
RTVSPropertyOp0
 70
     0
102
RTVSPropertyOp1
 70
     0
102
RTVSPropertyOp2
 70
     0
102
RTVSPropertyOp3
 70
     0
102
RTVSPropertyOp4
 70
     0
102
RTVSPropertyOp5
 70
     0
102
RTVSPropertyOp6
 70
     0
102
RTVSPropertyOp7
 70
     0
102
RTVSPropertyOp8
 70
     0
102
RTVSPropertyOp9
 70
     0
102
RTVSPropertyOp10
 70
     0
102
RTVSPropertyOp11
 70
     0
102
RTVSPropertyOp12
 70
     0
102
RTVSPropertyOp13
 70
     0
102
RTVSPropertyOp14
 70
     2
102
RTVSPropertyOp15
 70
     0
102
RTVSPropertyOp16
 70
     0
102
RTVSPropertyOp17
 70
     0
102
RTVSPropertyOp18
 70
     0
102
RTVSPropertyOp19
 70
     0
102
RTVSPropertyOp20
 70
     0
102
RTVSPropertyOp21
 70
     0
102
RTVSPropertyOp22
 70
     0
102
RTVSPropertyOp23
 70
     0
102
RTVSPropertyOp24
 70
     0
102
RTVSPropertyOp25
 70
     0
102
RTVSPropertyOp26
 70
     0
102
RTVSPropertyOp27
 70
     0
102
RTVSPropertyOp28
 70
     1
102
RTVSPropertyOp29
 70
     1
102
RTVSPropertyOp30
 70
     1
102
RTVSPropertyOp31
 70
     1
102
RTVSPropertyOp32
 70
     1
102
RTVSPropertyOp33
 70
     1
102
RTVSPropertyOp34
 70
     1
102
RTVSPropertyOp35
 70
     1
102
RTVSPropertyOp36
 70
     1
102
RTVSPropertyOp37
 70
     1
102
RTVSPropertyOp38
 70
     1
102
RTVSPropertyOp39
 70
     1
102
RTVSPropertyOp40
 70
     1
102
RTVSPropertyOp41
 70
     1
102
RTVSPropertyOp42
 70
     1
102
RTVSPropertyOp43
 70
     1
102
RTVSPropertyOp44
 70
     1
102
RTVSPropertyOp45
 70
     1
102
RTVSPropertyOp46
 70
     1
102
RTVSPropertyOp47
 70
     1
102
RTVSPropertyOp48
 70
     1
102
RTVSPropertyOp49
 70
     1
102
RTVSPropertyOp50
 70
     1
102
RTVSPropertyOp51
 70
     0
102
RTVSPropertyOp52
 70
     0
102
RTVSPropertyOp53
 70
     1
102
RTVSPropertyOp54
 70
     1
102
RTVSPropertyOp55
 70
     1
102
RTVSPropertyOp56
 70
     1
102
RTVSPropertyOp57
 70
     1
102
RTVSPropertyOp58
 70
     1
102
RTVSPropertyOp59
 70
     1
102
RTVSPropertyOp60
 70
     1
102
RTVSPropertyOp61
 70
     1
102
RTVSPropertyOp62
 70
     1
  0
XRECORD
  5
B725
102
{ACAD_REACTORS
330
B724
102
}
330
B724
100
AcDbXrecord
280
     1
102
RTVSPost2010Prop28
280
     0
102
RTVSPost2010PropOp28
 70
     1
102
RTVSPost2010Prop29
280
     1
102
RTVSPost2010PropOp29
 70
     1
102
RTVSPost2010Prop30
280
     1
102
RTVSPost2010PropOp30
 70
     1
102
RTVSPost2010Prop31
280
     0
102
RTVSPost2010PropOp31
 70
     1
102
RTVSPost2010Prop32
280
     0
102
RTVSPost2010PropOp32
 70
     1
102
RTVSPost2010Prop33
280
     0
102
RTVSPost2010PropOp33
 70
     1
102
RTVSPost2010Prop34
280
     0
102
RTVSPost2010PropOp34
 70
     1
102
RTVSPost2010Prop35
280
     0
102
RTVSPost2010PropOp35
 70
     1
102
RTVSPost2010Prop36
280
     0
102
RTVSPost2010PropOp36
 70
     1
102
RTVSPost2010Prop37
 90
       50
102
RTVSPost2010PropOp37
 70
     1
102
RTVSPost2010Prop38
140
0.0
102
RTVSPost2010PropOp38
 70
     1
102
RTVSPost2010Prop39
140
1.0
102
RTVSPost2010PropOp39
 70
     1
102
RTVSPost2010Prop40
 90
        0
102
RTVSPost2010PropOp40
 70
     1
102
RTVSPost2010Prop41ColorIndex
 90
       18
102
RTVSPost2010Prop41ColorRGB
 90
        0
102
RTVSPost2010PropOp41
 70
     1
102
RTVSPost2010Prop42
 90
       50
102
RTVSPost2010PropOp42
 70
     1
102
RTVSPost2010Prop43
 90
        3
102
RTVSPost2010PropOp43
 70
     1
102
RTVSPost2010Prop44ColorIndex
 90
        5
102
RTVSPost2010Prop44ColorRGB
 90
      255
102
RTVSPost2010PropOp44
 70
     1
102
RTVSPost2010Prop45
280
     0
102
RTVSPost2010PropOp45
 70
     1
102
RTVSPost2010Prop46
 90
       50
102
RTVSPost2010PropOp46
 70
     1
102
RTVSPost2010Prop47
 90
       50
102
RTVSPost2010PropOp47
 70
     1
102
RTVSPost2010Prop48
 90
       50
102
RTVSPost2010PropOp48
 70
     1
102
RTVSPost2010Prop49
280
     0
102
RTVSPost2010PropOp49
 70
     1
102
RTVSPost2010Prop50
 90
       50
102
RTVSPost2010PropOp50
 70
     1
102
RTVSPost2010Prop51ColorIndex
 90
      256
102
RTVSPost2010Prop51ColorRGB
 90
-16777216
102
RTVSPost2010PropOp51
 70
     0
102
RTVSPost2010Prop52
140
1.0
102
RTVSPost2010PropOp52
 70
     0
102
RTVSPost2010Prop53
 90
        2
102
RTVSPost2010PropOp53
 70
     1
102
RTVSPost2010Prop54
  1
strokes_ogs.tif
102
RTVSPost2010PropOp54
 70
     1
102
RTVSPost2010Prop55
280
     0
102
RTVSPost2010PropOp55
 70
     1
102
RTVSPost2010Prop56
140
1.0
102
RTVSPost2010PropOp56
 70
     1
102
RTVSPost2010Prop57
140
1.0
102
RTVSPost2010PropOp57
 70
     1
102
RTVSPropertyOp0
 70
     1
102
RTVSPropertyOp1
 70
     1
102
RTVSPropertyOp2
 70
     1
102
RTVSPropertyOp3
 70
     1
102
RTVSPropertyOp4
 70
     1
102
RTVSPropertyOp5
 70
     1
102
RTVSPropertyOp6
 70
     1
102
RTVSPropertyOp7
 70
     1
102
RTVSPropertyOp8
 70
     1
102
RTVSPropertyOp9
 70
     1
102
RTVSPropertyOp10
 70
     1
102
RTVSPropertyOp11
 70
     1
102
RTVSPropertyOp12
 70
     1
102
RTVSPropertyOp13
 70
     1
102
RTVSPropertyOp14
 70
     1
102
RTVSPropertyOp15
 70
     1
102
RTVSPropertyOp16
 70
     1
102
RTVSPropertyOp17
 70
     1
102
RTVSPropertyOp18
 70
     1
102
RTVSPropertyOp19
 70
     1
102
RTVSPropertyOp20
 70
     1
102
RTVSPropertyOp21
 70
     1
102
RTVSPropertyOp22
 70
     1
102
RTVSPropertyOp23
 70
     1
102
RTVSPropertyOp24
 70
     1
102
RTVSPropertyOp25
 70
     1
102
RTVSPropertyOp26
 70
     1
102
RTVSPropertyOp27
 70
     1
102
RTVSPropertyOp28
 70
     1
102
RTVSPropertyOp29
 70
     1
102
RTVSPropertyOp30
 70
     1
102
RTVSPropertyOp31
 70
     1
102
RTVSPropertyOp32
 70
     1
102
RTVSPropertyOp33
 70
     1
102
RTVSPropertyOp34
 70
     1
102
RTVSPropertyOp35
 70
     1
102
RTVSPropertyOp36
 70
     1
102
RTVSPropertyOp37
 70
     1
102
RTVSPropertyOp38
 70
     1
102
RTVSPropertyOp39
 70
     1
102
RTVSPropertyOp40
 70
     1
102
RTVSPropertyOp41
 70
     1
102
RTVSPropertyOp42
 70
     1
102
RTVSPropertyOp43
 70
     1
102
RTVSPropertyOp44
 70
     1
102
RTVSPropertyOp45
 70
     1
102
RTVSPropertyOp46
 70
     1
102
RTVSPropertyOp47
 70
     1
102
RTVSPropertyOp48
 70
     1
102
RTVSPropertyOp49
 70
     1
102
RTVSPropertyOp50
 70
     1
102
RTVSPropertyOp51
 70
     0
102
RTVSPropertyOp52
 70
     0
102
RTVSPropertyOp53
 70
     1
102
RTVSPropertyOp54
 70
     1
102
RTVSPropertyOp55
 70
     1
102
RTVSPropertyOp56
 70
     1
102
RTVSPropertyOp57
 70
     1
102
RTVSPropertyOp58
 70
     1
102
RTVSPropertyOp59
 70
     1
102
RTVSPropertyOp60
 70
     1
102
RTVSPropertyOp61
 70
     1
102
RTVSPropertyOp62
 70
     1
  0
XRECORD
  5
B709
102
{ACAD_REACTORS
330
B708
102
}
330
B708
100
AcDbXrecord
280
     1
102
RTVSPost2010Prop28
280
     0
102
RTVSPost2010PropOp28
 70
     1
102
RTVSPost2010Prop29
280
     1
102
RTVSPost2010PropOp29
 70
     1
102
RTVSPost2010Prop30
280
     1
102
RTVSPost2010PropOp30
 70
     1
102
RTVSPost2010Prop31
280
     0
102
RTVSPost2010PropOp31
 70
     1
102
RTVSPost2010Prop32
280
     0
102
RTVSPost2010PropOp32
 70
     1
102
RTVSPost2010Prop33
280
     0
102
RTVSPost2010PropOp33
 70
     1
102
RTVSPost2010Prop34
280
     0
102
RTVSPost2010PropOp34
 70
     1
102
RTVSPost2010Prop35
280
     0
102
RTVSPost2010PropOp35
 70
     1
102
RTVSPost2010Prop36
280
     0
102
RTVSPost2010PropOp36
 70
     1
102
RTVSPost2010Prop37
 90
       50
102
RTVSPost2010PropOp37
 70
     1
102
RTVSPost2010Prop38
140
0.0
102
RTVSPost2010PropOp38
 70
     1
102
RTVSPost2010Prop39
140
1.0
102
RTVSPost2010PropOp39
 70
     1
102
RTVSPost2010Prop40
 90
        0
102
RTVSPost2010PropOp40
 70
     1
102
RTVSPost2010Prop41ColorIndex
 90
       18
102
RTVSPost2010Prop41ColorRGB
 90
        0
102
RTVSPost2010PropOp41
 70
     1
102
RTVSPost2010Prop42
 90
       50
102
RTVSPost2010PropOp42
 70
     1
102
RTVSPost2010Prop43
 90
        3
102
RTVSPost2010PropOp43
 70
     1
102
RTVSPost2010Prop44ColorIndex
 90
        5
102
RTVSPost2010Prop44ColorRGB
 90
      255
102
RTVSPost2010PropOp44
 70
     1
102
RTVSPost2010Prop45
280
     0
102
RTVSPost2010PropOp45
 70
     1
102
RTVSPost2010Prop46
 90
       50
102
RTVSPost2010PropOp46
 70
     1
102
RTVSPost2010Prop47
 90
       50
102
RTVSPost2010PropOp47
 70
     1
102
RTVSPost2010Prop48
 90
       50
102
RTVSPost2010PropOp48
 70
     1
102
RTVSPost2010Prop49
280
     0
102
RTVSPost2010PropOp49
 70
     1
102
RTVSPost2010Prop50
 90
       50
102
RTVSPost2010PropOp50
 70
     1
102
RTVSPost2010Prop51ColorIndex
 90
      256
102
RTVSPost2010Prop51ColorRGB
 90
-16777216
102
RTVSPost2010PropOp51
 70
     0
102
RTVSPost2010Prop52
140
1.0
102
RTVSPost2010PropOp52
 70
     0
102
RTVSPost2010Prop53
 90
        2
102
RTVSPost2010PropOp53
 70
     1
102
RTVSPost2010Prop54
  1
strokes_ogs.tif
102
RTVSPost2010PropOp54
 70
     1
102
RTVSPost2010Prop55
280
     0
102
RTVSPost2010PropOp55
 70
     1
102
RTVSPost2010Prop56
140
1.0
102
RTVSPost2010PropOp56
 70
     1
102
RTVSPost2010Prop57
140
1.0
102
RTVSPost2010PropOp57
 70
     1
102
RTVSPropertyOp0
 70
     1
102
RTVSPropertyOp1
 70
     1
102
RTVSPropertyOp2
 70
     1
102
RTVSPropertyOp3
 70
     1
102
RTVSPropertyOp4
 70
     1
102
RTVSPropertyOp5
 70
     1
102
RTVSPropertyOp6
 70
     1
102
RTVSPropertyOp7
 70
     1
102
RTVSPropertyOp8
 70
     1
102
RTVSPropertyOp9
 70
     1
102
RTVSPropertyOp10
 70
     1
102
RTVSPropertyOp11
 70
     1
102
RTVSPropertyOp12
 70
     1
102
RTVSPropertyOp13
 70
     1
102
RTVSPropertyOp14
 70
     1
102
RTVSPropertyOp15
 70
     1
102
RTVSPropertyOp16
 70
     1
102
RTVSPropertyOp17
 70
     1
102
RTVSPropertyOp18
 70
     1
102
RTVSPropertyOp19
 70
     1
102
RTVSPropertyOp20
 70
     1
102
RTVSPropertyOp21
 70
     1
102
RTVSPropertyOp22
 70
     1
102
RTVSPropertyOp23
 70
     1
102
RTVSPropertyOp24
 70
     1
102
RTVSPropertyOp25
 70
     1
102
RTVSPropertyOp26
 70
     1
102
RTVSPropertyOp27
 70
     1
102
RTVSPropertyOp28
 70
     1
102
RTVSPropertyOp29
 70
     1
102
RTVSPropertyOp30
 70
     1
102
RTVSPropertyOp31
 70
     1
102
RTVSPropertyOp32
 70
     1
102
RTVSPropertyOp33
 70
     1
102
RTVSPropertyOp34
 70
     1
102
RTVSPropertyOp35
 70
     1
102
RTVSPropertyOp36
 70
     1
102
RTVSPropertyOp37
 70
     1
102
RTVSPropertyOp38
 70
     1
102
RTVSPropertyOp39
 70
     1
102
RTVSPropertyOp40
 70
     1
102
RTVSPropertyOp41
 70
     1
102
RTVSPropertyOp42
 70
     1
102
RTVSPropertyOp43
 70
     1
102
RTVSPropertyOp44
 70
     1
102
RTVSPropertyOp45
 70
     1
102
RTVSPropertyOp46
 70
     1
102
RTVSPropertyOp47
 70
     1
102
RTVSPropertyOp48
 70
     1
102
RTVSPropertyOp49
 70
     1
102
RTVSPropertyOp50
 70
     1
102
RTVSPropertyOp51
 70
     0
102
RTVSPropertyOp52
 70
     0
102
RTVSPropertyOp53
 70
     1
102
RTVSPropertyOp54
 70
     1
102
RTVSPropertyOp55
 70
     1
102
RTVSPropertyOp56
 70
     1
102
RTVSPropertyOp57
 70
     1
102
RTVSPropertyOp58
 70
     1
102
RTVSPropertyOp59
 70
     1
102
RTVSPropertyOp60
 70
     1
102
RTVSPropertyOp61
 70
     1
102
RTVSPropertyOp62
 70
     1
  0
XRECORD
  5
B70B
102
{ACAD_REACTORS
330
B70A
102
}
330
B70A
100
AcDbXrecord
280
     1
102
RTVSPost2010Prop28
280
     0
102
RTVSPost2010PropOp28
 70
     1
102
RTVSPost2010Prop29
280
     1
102
RTVSPost2010PropOp29
 70
     1
102
RTVSPost2010Prop30
280
     1
102
RTVSPost2010PropOp30
 70
     1
102
RTVSPost2010Prop31
280
     0
102
RTVSPost2010PropOp31
 70
     1
102
RTVSPost2010Prop32
280
     0
102
RTVSPost2010PropOp32
 70
     1
102
RTVSPost2010Prop33
280
     0
102
RTVSPost2010PropOp33
 70
     1
102
RTVSPost2010Prop34
280
     0
102
RTVSPost2010PropOp34
 70
     1
102
RTVSPost2010Prop35
280
     0
102
RTVSPost2010PropOp35
 70
     1
102
RTVSPost2010Prop36
280
     0
102
RTVSPost2010PropOp36
 70
     1
102
RTVSPost2010Prop37
 90
       50
102
RTVSPost2010PropOp37
 70
     1
102
RTVSPost2010Prop38
140
0.0
102
RTVSPost2010PropOp38
 70
     1
102
RTVSPost2010Prop39
140
1.0
102
RTVSPost2010PropOp39
 70
     1
102
RTVSPost2010Prop40
 90
        0
102
RTVSPost2010PropOp40
 70
     1
102
RTVSPost2010Prop41ColorIndex
 90
       18
102
RTVSPost2010Prop41ColorRGB
 90
        0
102
RTVSPost2010PropOp41
 70
     1
102
RTVSPost2010Prop42
 90
       50
102
RTVSPost2010PropOp42
 70
     1
102
RTVSPost2010Prop43
 90
        3
102
RTVSPost2010PropOp43
 70
     1
102
RTVSPost2010Prop44ColorIndex
 90
        5
102
RTVSPost2010Prop44ColorRGB
 90
      255
102
RTVSPost2010PropOp44
 70
     1
102
RTVSPost2010Prop45
280
     0
102
RTVSPost2010PropOp45
 70
     1
102
RTVSPost2010Prop46
 90
       50
102
RTVSPost2010PropOp46
 70
     1
102
RTVSPost2010Prop47
 90
       50
102
RTVSPost2010PropOp47
 70
     1
102
RTVSPost2010Prop48
 90
       50
102
RTVSPost2010PropOp48
 70
     1
102
RTVSPost2010Prop49
280
     0
102
RTVSPost2010PropOp49
 70
     1
102
RTVSPost2010Prop50
 90
       50
102
RTVSPost2010PropOp50
 70
     1
102
RTVSPost2010Prop51ColorIndex
 90
      256
102
RTVSPost2010Prop51ColorRGB
 90
-16777216
102
RTVSPost2010PropOp51
 70
     0
102
RTVSPost2010Prop52
140
1.0
102
RTVSPost2010PropOp52
 70
     0
102
RTVSPost2010Prop53
 90
        2
102
RTVSPost2010PropOp53
 70
     1
102
RTVSPost2010Prop54
  1
strokes_ogs.tif
102
RTVSPost2010PropOp54
 70
     1
102
RTVSPost2010Prop55
280
     0
102
RTVSPost2010PropOp55
 70
     1
102
RTVSPost2010Prop56
140
1.0
102
RTVSPost2010PropOp56
 70
     1
102
RTVSPost2010Prop57
140
1.0
102
RTVSPost2010PropOp57
 70
     1
102
RTVSPropertyOp0
 70
     1
102
RTVSPropertyOp1
 70
     1
102
RTVSPropertyOp2
 70
     1
102
RTVSPropertyOp3
 70
     1
102
RTVSPropertyOp4
 70
     1
102
RTVSPropertyOp5
 70
     1
102
RTVSPropertyOp6
 70
     1
102
RTVSPropertyOp7
 70
     1
102
RTVSPropertyOp8
 70
     1
102
RTVSPropertyOp9
 70
     1
102
RTVSPropertyOp10
 70
     1
102
RTVSPropertyOp11
 70
     1
102
RTVSPropertyOp12
 70
     1
102
RTVSPropertyOp13
 70
     1
102
RTVSPropertyOp14
 70
     1
102
RTVSPropertyOp15
 70
     1
102
RTVSPropertyOp16
 70
     1
102
RTVSPropertyOp17
 70
     1
102
RTVSPropertyOp18
 70
     1
102
RTVSPropertyOp19
 70
     1
102
RTVSPropertyOp20
 70
     1
102
RTVSPropertyOp21
 70
     1
102
RTVSPropertyOp22
 70
     1
102
RTVSPropertyOp23
 70
     1
102
RTVSPropertyOp24
 70
     1
102
RTVSPropertyOp25
 70
     1
102
RTVSPropertyOp26
 70
     1
102
RTVSPropertyOp27
 70
     1
102
RTVSPropertyOp28
 70
     1
102
RTVSPropertyOp29
 70
     1
102
RTVSPropertyOp30
 70
     1
102
RTVSPropertyOp31
 70
     1
102
RTVSPropertyOp32
 70
     1
102
RTVSPropertyOp33
 70
     1
102
RTVSPropertyOp34
 70
     1
102
RTVSPropertyOp35
 70
     1
102
RTVSPropertyOp36
 70
     1
102
RTVSPropertyOp37
 70
     1
102
RTVSPropertyOp38
 70
     1
102
RTVSPropertyOp39
 70
     1
102
RTVSPropertyOp40
 70
     1
102
RTVSPropertyOp41
 70
     1
102
RTVSPropertyOp42
 70
     1
102
RTVSPropertyOp43
 70
     1
102
RTVSPropertyOp44
 70
     1
102
RTVSPropertyOp45
 70
     1
102
RTVSPropertyOp46
 70
     1
102
RTVSPropertyOp47
 70
     1
102
RTVSPropertyOp48
 70
     1
102
RTVSPropertyOp49
 70
     1
102
RTVSPropertyOp50
 70
     1
102
RTVSPropertyOp51
 70
     0
102
RTVSPropertyOp52
 70
     0
102
RTVSPropertyOp53
 70
     1
102
RTVSPropertyOp54
 70
     1
102
RTVSPropertyOp55
 70
     1
102
RTVSPropertyOp56
 70
     1
102
RTVSPropertyOp57
 70
     1
102
RTVSPropertyOp58
 70
     1
102
RTVSPropertyOp59
 70
     1
102
RTVSPropertyOp60
 70
     1
102
RTVSPropertyOp61
 70
     1
102
RTVSPropertyOp62
 70
     1
  0
XRECORD
  5
B70D
102
{ACAD_REACTORS
330
B70C
102
}
330
B70C
100
AcDbXrecord
280
     1
102
RTVSPost2010Prop28
280
     0
102
RTVSPost2010PropOp28
 70
     1
102
RTVSPost2010Prop29
280
     1
102
RTVSPost2010PropOp29
 70
     1
102
RTVSPost2010Prop30
280
     1
102
RTVSPost2010PropOp30
 70
     1
102
RTVSPost2010Prop31
280
     0
102
RTVSPost2010PropOp31
 70
     1
102
RTVSPost2010Prop32
280
     0
102
RTVSPost2010PropOp32
 70
     1
102
RTVSPost2010Prop33
280
     0
102
RTVSPost2010PropOp33
 70
     1
102
RTVSPost2010Prop34
280
     0
102
RTVSPost2010PropOp34
 70
     1
102
RTVSPost2010Prop35
280
     0
102
RTVSPost2010PropOp35
 70
     1
102
RTVSPost2010Prop36
280
     0
102
RTVSPost2010PropOp36
 70
     1
102
RTVSPost2010Prop37
 90
       50
102
RTVSPost2010PropOp37
 70
     1
102
RTVSPost2010Prop38
140
0.0
102
RTVSPost2010PropOp38
 70
     1
102
RTVSPost2010Prop39
140
1.0
102
RTVSPost2010PropOp39
 70
     1
102
RTVSPost2010Prop40
 90
        0
102
RTVSPost2010PropOp40
 70
     1
102
RTVSPost2010Prop41ColorIndex
 90
       18
102
RTVSPost2010Prop41ColorRGB
 90
        0
102
RTVSPost2010PropOp41
 70
     1
102
RTVSPost2010Prop42
 90
       50
102
RTVSPost2010PropOp42
 70
     1
102
RTVSPost2010Prop43
 90
        3
102
RTVSPost2010PropOp43
 70
     1
102
RTVSPost2010Prop44ColorIndex
 90
        5
102
RTVSPost2010Prop44ColorRGB
 90
      255
102
RTVSPost2010PropOp44
 70
     1
102
RTVSPost2010Prop45
280
     0
102
RTVSPost2010PropOp45
 70
     1
102
RTVSPost2010Prop46
 90
       50
102
RTVSPost2010PropOp46
 70
     1
102
RTVSPost2010Prop47
 90
       50
102
RTVSPost2010PropOp47
 70
     1
102
RTVSPost2010Prop48
 90
       50
102
RTVSPost2010PropOp48
 70
     1
102
RTVSPost2010Prop49
280
     0
102
RTVSPost2010PropOp49
 70
     1
102
RTVSPost2010Prop50
 90
       50
102
RTVSPost2010PropOp50
 70
     1
102
RTVSPost2010Prop51ColorIndex
 90
      256
102
RTVSPost2010Prop51ColorRGB
 90
-16777216
102
RTVSPost2010PropOp51
 70
     0
102
RTVSPost2010Prop52
140
1.0
102
RTVSPost2010PropOp52
 70
     0
102
RTVSPost2010Prop53
 90
        2
102
RTVSPost2010PropOp53
 70
     1
102
RTVSPost2010Prop54
  1
strokes_ogs.tif
102
RTVSPost2010PropOp54
 70
     1
102
RTVSPost2010Prop55
280
     0
102
RTVSPost2010PropOp55
 70
     1
102
RTVSPost2010Prop56
140
1.0
102
RTVSPost2010PropOp56
 70
     1
102
RTVSPost2010Prop57
140
1.0
102
RTVSPost2010PropOp57
 70
     1
102
RTVSPropertyOp0
 70
     1
102
RTVSPropertyOp1
 70
     1
102
RTVSPropertyOp2
 70
     1
102
RTVSPropertyOp3
 70
     1
102
RTVSPropertyOp4
 70
     1
102
RTVSPropertyOp5
 70
     1
102
RTVSPropertyOp6
 70
     1
102
RTVSPropertyOp7
 70
     1
102
RTVSPropertyOp8
 70
     1
102
RTVSPropertyOp9
 70
     1
102
RTVSPropertyOp10
 70
     1
102
RTVSPropertyOp11
 70
     1
102
RTVSPropertyOp12
 70
     1
102
RTVSPropertyOp13
 70
     1
102
RTVSPropertyOp14
 70
     1
102
RTVSPropertyOp15
 70
     1
102
RTVSPropertyOp16
 70
     1
102
RTVSPropertyOp17
 70
     1
102
RTVSPropertyOp18
 70
     1
102
RTVSPropertyOp19
 70
     1
102
RTVSPropertyOp20
 70
     1
102
RTVSPropertyOp21
 70
     1
102
RTVSPropertyOp22
 70
     1
102
RTVSPropertyOp23
 70
     1
102
RTVSPropertyOp24
 70
     1
102
RTVSPropertyOp25
 70
     1
102
RTVSPropertyOp26
 70
     1
102
RTVSPropertyOp27
 70
     1
102
RTVSPropertyOp28
 70
     1
102
RTVSPropertyOp29
 70
     1
102
RTVSPropertyOp30
 70
     1
102
RTVSPropertyOp31
 70
     1
102
RTVSPropertyOp32
 70
     1
102
RTVSPropertyOp33
 70
     1
102
RTVSPropertyOp34
 70
     1
102
RTVSPropertyOp35
 70
     1
102
RTVSPropertyOp36
 70
     1
102
RTVSPropertyOp37
 70
     1
102
RTVSPropertyOp38
 70
     1
102
RTVSPropertyOp39
 70
     1
102
RTVSPropertyOp40
 70
     1
102
RTVSPropertyOp41
 70
     1
102
RTVSPropertyOp42
 70
     1
102
RTVSPropertyOp43
 70
     1
102
RTVSPropertyOp44
 70
     1
102
RTVSPropertyOp45
 70
     1
102
RTVSPropertyOp46
 70
     1
102
RTVSPropertyOp47
 70
     1
102
RTVSPropertyOp48
 70
     1
102
RTVSPropertyOp49
 70
     1
102
RTVSPropertyOp50
 70
     1
102
RTVSPropertyOp51
 70
     0
102
RTVSPropertyOp52
 70
     0
102
RTVSPropertyOp53
 70
     1
102
RTVSPropertyOp54
 70
     1
102
RTVSPropertyOp55
 70
     1
102
RTVSPropertyOp56
 70
     1
102
RTVSPropertyOp57
 70
     1
102
RTVSPropertyOp58
 70
     1
102
RTVSPropertyOp59
 70
     1
102
RTVSPropertyOp60
 70
     1
102
RTVSPropertyOp61
 70
     1
102
RTVSPropertyOp62
 70
     1
  0
XRECORD
  5
B70F
102
{ACAD_REACTORS
330
B70E
102
}
330
B70E
100
AcDbXrecord
280
     1
102
RTVSPost2010Prop28
280
     0
102
RTVSPost2010PropOp28
 70
     1
102
RTVSPost2010Prop29
280
     1
102
RTVSPost2010PropOp29
 70
     1
102
RTVSPost2010Prop30
280
     1
102
RTVSPost2010PropOp30
 70
     1
102
RTVSPost2010Prop31
280
     0
102
RTVSPost2010PropOp31
 70
     1
102
RTVSPost2010Prop32
280
     0
102
RTVSPost2010PropOp32
 70
     1
102
RTVSPost2010Prop33
280
     0
102
RTVSPost2010PropOp33
 70
     1
102
RTVSPost2010Prop34
280
     0
102
RTVSPost2010PropOp34
 70
     1
102
RTVSPost2010Prop35
280
     0
102
RTVSPost2010PropOp35
 70
     1
102
RTVSPost2010Prop36
280
     0
102
RTVSPost2010PropOp36
 70
     1
102
RTVSPost2010Prop37
 90
       50
102
RTVSPost2010PropOp37
 70
     1
102
RTVSPost2010Prop38
140
0.0
102
RTVSPost2010PropOp38
 70
     1
102
RTVSPost2010Prop39
140
1.0
102
RTVSPost2010PropOp39
 70
     1
102
RTVSPost2010Prop40
 90
        0
102
RTVSPost2010PropOp40
 70
     1
102
RTVSPost2010Prop41ColorIndex
 90
       18
102
RTVSPost2010Prop41ColorRGB
 90
        0
102
RTVSPost2010PropOp41
 70
     1
102
RTVSPost2010Prop42
 90
       50
102
RTVSPost2010PropOp42
 70
     1
102
RTVSPost2010Prop43
 90
        3
102
RTVSPost2010PropOp43
 70
     1
102
RTVSPost2010Prop44ColorIndex
 90
        5
102
RTVSPost2010Prop44ColorRGB
 90
      255
102
RTVSPost2010PropOp44
 70
     1
102
RTVSPost2010Prop45
280
     0
102
RTVSPost2010PropOp45
 70
     1
102
RTVSPost2010Prop46
 90
       50
102
RTVSPost2010PropOp46
 70
     1
102
RTVSPost2010Prop47
 90
       50
102
RTVSPost2010PropOp47
 70
     1
102
RTVSPost2010Prop48
 90
       50
102
RTVSPost2010PropOp48
 70
     1
102
RTVSPost2010Prop49
280
     0
102
RTVSPost2010PropOp49
 70
     1
102
RTVSPost2010Prop50
 90
       50
102
RTVSPost2010PropOp50
 70
     1
102
RTVSPost2010Prop51ColorIndex
 90
      256
102
RTVSPost2010Prop51ColorRGB
 90
-16777216
102
RTVSPost2010PropOp51
 70
     0
102
RTVSPost2010Prop52
140
1.0
102
RTVSPost2010PropOp52
 70
     0
102
RTVSPost2010Prop53
 90
        2
102
RTVSPost2010PropOp53
 70
     1
102
RTVSPost2010Prop54
  1
strokes_ogs.tif
102
RTVSPost2010PropOp54
 70
     1
102
RTVSPost2010Prop55
280
     0
102
RTVSPost2010PropOp55
 70
     1
102
RTVSPost2010Prop56
140
1.0
102
RTVSPost2010PropOp56
 70
     1
102
RTVSPost2010Prop57
140
1.0
102
RTVSPost2010PropOp57
 70
     1
102
RTVSPropertyOp0
 70
     1
102
RTVSPropertyOp1
 70
     1
102
RTVSPropertyOp2
 70
     1
102
RTVSPropertyOp3
 70
     1
102
RTVSPropertyOp4
 70
     1
102
RTVSPropertyOp5
 70
     1
102
RTVSPropertyOp6
 70
     1
102
RTVSPropertyOp7
 70
     1
102
RTVSPropertyOp8
 70
     1
102
RTVSPropertyOp9
 70
     1
102
RTVSPropertyOp10
 70
     1
102
RTVSPropertyOp11
 70
     1
102
RTVSPropertyOp12
 70
     1
102
RTVSPropertyOp13
 70
     1
102
RTVSPropertyOp14
 70
     1
102
RTVSPropertyOp15
 70
     1
102
RTVSPropertyOp16
 70
     1
102
RTVSPropertyOp17
 70
     1
102
RTVSPropertyOp18
 70
     1
102
RTVSPropertyOp19
 70
     1
102
RTVSPropertyOp20
 70
     1
102
RTVSPropertyOp21
 70
     1
102
RTVSPropertyOp22
 70
     1
102
RTVSPropertyOp23
 70
     1
102
RTVSPropertyOp24
 70
     1
102
RTVSPropertyOp25
 70
     1
102
RTVSPropertyOp26
 70
     1
102
RTVSPropertyOp27
 70
     1
102
RTVSPropertyOp28
 70
     1
102
RTVSPropertyOp29
 70
     1
102
RTVSPropertyOp30
 70
     1
102
RTVSPropertyOp31
 70
     1
102
RTVSPropertyOp32
 70
     1
102
RTVSPropertyOp33
 70
     1
102
RTVSPropertyOp34
 70
     1
102
RTVSPropertyOp35
 70
     1
102
RTVSPropertyOp36
 70
     1
102
RTVSPropertyOp37
 70
     1
102
RTVSPropertyOp38
 70
     1
102
RTVSPropertyOp39
 70
     1
102
RTVSPropertyOp40
 70
     1
102
RTVSPropertyOp41
 70
     1
102
RTVSPropertyOp42
 70
     1
102
RTVSPropertyOp43
 70
     1
102
RTVSPropertyOp44
 70
     1
102
RTVSPropertyOp45
 70
     1
102
RTVSPropertyOp46
 70
     1
102
RTVSPropertyOp47
 70
     1
102
RTVSPropertyOp48
 70
     1
102
RTVSPropertyOp49
 70
     1
102
RTVSPropertyOp50
 70
     1
102
RTVSPropertyOp51
 70
     0
102
RTVSPropertyOp52
 70
     0
102
RTVSPropertyOp53
 70
     1
102
RTVSPropertyOp54
 70
     1
102
RTVSPropertyOp55
 70
     1
102
RTVSPropertyOp56
 70
     1
102
RTVSPropertyOp57
 70
     1
102
RTVSPropertyOp58
 70
     1
102
RTVSPropertyOp59
 70
     1
102
RTVSPropertyOp60
 70
     1
102
RTVSPropertyOp61
 70
     1
102
RTVSPropertyOp62
 70
     1
  0
XRECORD
  5
B717
102
{ACAD_REACTORS
330
B716
102
}
330
B716
100
AcDbXrecord
280
     1
102
RTVSPost2010Prop28
280
     0
102
RTVSPost2010PropOp28
 70
     1
102
RTVSPost2010Prop29
280
     1
102
RTVSPost2010PropOp29
 70
     1
102
RTVSPost2010Prop30
280
     1
102
RTVSPost2010PropOp30
 70
     1
102
RTVSPost2010Prop31
280
     0
102
RTVSPost2010PropOp31
 70
     1
102
RTVSPost2010Prop32
280
     0
102
RTVSPost2010PropOp32
 70
     1
102
RTVSPost2010Prop33
280
     0
102
RTVSPost2010PropOp33
 70
     1
102
RTVSPost2010Prop34
280
     0
102
RTVSPost2010PropOp34
 70
     1
102
RTVSPost2010Prop35
280
     0
102
RTVSPost2010PropOp35
 70
     1
102
RTVSPost2010Prop36
280
     0
102
RTVSPost2010PropOp36
 70
     1
102
RTVSPost2010Prop37
 90
       50
102
RTVSPost2010PropOp37
 70
     1
102
RTVSPost2010Prop38
140
0.0
102
RTVSPost2010PropOp38
 70
     1
102
RTVSPost2010Prop39
140
1.0
102
RTVSPost2010PropOp39
 70
     1
102
RTVSPost2010Prop40
 90
        0
102
RTVSPost2010PropOp40
 70
     1
102
RTVSPost2010Prop41ColorIndex
 90
       18
102
RTVSPost2010Prop41ColorRGB
 90
        0
102
RTVSPost2010PropOp41
 70
     1
102
RTVSPost2010Prop42
 90
       50
102
RTVSPost2010PropOp42
 70
     1
102
RTVSPost2010Prop43
 90
        3
102
RTVSPost2010PropOp43
 70
     1
102
RTVSPost2010Prop44ColorIndex
 90
        5
102
RTVSPost2010Prop44ColorRGB
 90
      255
102
RTVSPost2010PropOp44
 70
     1
102
RTVSPost2010Prop45
280
     0
102
RTVSPost2010PropOp45
 70
     1
102
RTVSPost2010Prop46
 90
       50
102
RTVSPost2010PropOp46
 70
     1
102
RTVSPost2010Prop47
 90
       50
102
RTVSPost2010PropOp47
 70
     1
102
RTVSPost2010Prop48
 90
       50
102
RTVSPost2010PropOp48
 70
     1
102
RTVSPost2010Prop49
280
     0
102
RTVSPost2010PropOp49
 70
     1
102
RTVSPost2010Prop50
 90
       50
102
RTVSPost2010PropOp50
 70
     1
102
RTVSPost2010Prop51ColorIndex
 90
      256
102
RTVSPost2010Prop51ColorRGB
 90
-16777216
102
RTVSPost2010PropOp51
 70
     0
102
RTVSPost2010Prop52
140
1.0
102
RTVSPost2010PropOp52
 70
     0
102
RTVSPost2010Prop53
 90
        2
102
RTVSPost2010PropOp53
 70
     1
102
RTVSPost2010Prop54
  1
strokes_ogs.tif
102
RTVSPost2010PropOp54
 70
     1
102
RTVSPost2010Prop55
280
     0
102
RTVSPost2010PropOp55
 70
     1
102
RTVSPost2010Prop56
140
1.0
102
RTVSPost2010PropOp56
 70
     1
102
RTVSPost2010Prop57
140
1.0
102
RTVSPost2010PropOp57
 70
     1
102
RTVSPropertyOp0
 70
     1
102
RTVSPropertyOp1
 70
     1
102
RTVSPropertyOp2
 70
     1
102
RTVSPropertyOp3
 70
     1
102
RTVSPropertyOp4
 70
     1
102
RTVSPropertyOp5
 70
     1
102
RTVSPropertyOp6
 70
     1
102
RTVSPropertyOp7
 70
     1
102
RTVSPropertyOp8
 70
     1
102
RTVSPropertyOp9
 70
     1
102
RTVSPropertyOp10
 70
     1
102
RTVSPropertyOp11
 70
     1
102
RTVSPropertyOp12
 70
     1
102
RTVSPropertyOp13
 70
     1
102
RTVSPropertyOp14
 70
     1
102
RTVSPropertyOp15
 70
     1
102
RTVSPropertyOp16
 70
     1
102
RTVSPropertyOp17
 70
     1
102
RTVSPropertyOp18
 70
     1
102
RTVSPropertyOp19
 70
     1
102
RTVSPropertyOp20
 70
     1
102
RTVSPropertyOp21
 70
     1
102
RTVSPropertyOp22
 70
     1
102
RTVSPropertyOp23
 70
     1
102
RTVSPropertyOp24
 70
     1
102
RTVSPropertyOp25
 70
     1
102
RTVSPropertyOp26
 70
     1
102
RTVSPropertyOp27
 70
     1
102
RTVSPropertyOp28
 70
     1
102
RTVSPropertyOp29
 70
     1
102
RTVSPropertyOp30
 70
     1
102
RTVSPropertyOp31
 70
     1
102
RTVSPropertyOp32
 70
     1
102
RTVSPropertyOp33
 70
     1
102
RTVSPropertyOp34
 70
     1
102
RTVSPropertyOp35
 70
     1
102
RTVSPropertyOp36
 70
     1
102
RTVSPropertyOp37
 70
     1
102
RTVSPropertyOp38
 70
     1
102
RTVSPropertyOp39
 70
     1
102
RTVSPropertyOp40
 70
     1
102
RTVSPropertyOp41
 70
     1
102
RTVSPropertyOp42
 70
     1
102
RTVSPropertyOp43
 70
     1
102
RTVSPropertyOp44
 70
     1
102
RTVSPropertyOp45
 70
     1
102
RTVSPropertyOp46
 70
     1
102
RTVSPropertyOp47
 70
     1
102
RTVSPropertyOp48
 70
     1
102
RTVSPropertyOp49
 70
     1
102
RTVSPropertyOp50
 70
     1
102
RTVSPropertyOp51
 70
     0
102
RTVSPropertyOp52
 70
     0
102
RTVSPropertyOp53
 70
     1
102
RTVSPropertyOp54
 70
     1
102
RTVSPropertyOp55
 70
     1
102
RTVSPropertyOp56
 70
     1
102
RTVSPropertyOp57
 70
     1
102
RTVSPropertyOp58
 70
     1
102
RTVSPropertyOp59
 70
     1
102
RTVSPropertyOp60
 70
     1
102
RTVSPropertyOp61
 70
     1
102
RTVSPropertyOp62
 70
     1
  0
XRECORD
  5
B72B
102
{ACAD_REACTORS
330
B72A
102
}
330
B72A
100
AcDbXrecord
280
     1
102
RTVSPost2010Prop28
280
     0
102
RTVSPost2010PropOp28
 70
     1
102
RTVSPost2010Prop29
280
     1
102
RTVSPost2010PropOp29
 70
     1
102
RTVSPost2010Prop30
280
     1
102
RTVSPost2010PropOp30
 70
     1
102
RTVSPost2010Prop31
280
     0
102
RTVSPost2010PropOp31
 70
     1
102
RTVSPost2010Prop32
280
     0
102
RTVSPost2010PropOp32
 70
     1
102
RTVSPost2010Prop33
280
     0
102
RTVSPost2010PropOp33
 70
     1
102
RTVSPost2010Prop34
280
     0
102
RTVSPost2010PropOp34
 70
     1
102
RTVSPost2010Prop35
280
     0
102
RTVSPost2010PropOp35
 70
     1
102
RTVSPost2010Prop36
280
     0
102
RTVSPost2010PropOp36
 70
     1
102
RTVSPost2010Prop37
 90
       50
102
RTVSPost2010PropOp37
 70
     1
102
RTVSPost2010Prop38
140
0.0
102
RTVSPost2010PropOp38
 70
     1
102
RTVSPost2010Prop39
140
1.0
102
RTVSPost2010PropOp39
 70
     1
102
RTVSPost2010Prop40
 90
        0
102
RTVSPost2010PropOp40
 70
     1
102
RTVSPost2010Prop41ColorIndex
 90
       18
102
RTVSPost2010Prop41ColorRGB
 90
        0
102
RTVSPost2010PropOp41
 70
     1
102
RTVSPost2010Prop42
 90
       50
102
RTVSPost2010PropOp42
 70
     1
102
RTVSPost2010Prop43
 90
        3
102
RTVSPost2010PropOp43
 70
     1
102
RTVSPost2010Prop44ColorIndex
 90
        5
102
RTVSPost2010Prop44ColorRGB
 90
      255
102
RTVSPost2010PropOp44
 70
     1
102
RTVSPost2010Prop45
280
     0
102
RTVSPost2010PropOp45
 70
     1
102
RTVSPost2010Prop46
 90
       50
102
RTVSPost2010PropOp46
 70
     1
102
RTVSPost2010Prop47
 90
       50
102
RTVSPost2010PropOp47
 70
     1
102
RTVSPost2010Prop48
 90
       50
102
RTVSPost2010PropOp48
 70
     1
102
RTVSPost2010Prop49
280
     0
102
RTVSPost2010PropOp49
 70
     1
102
RTVSPost2010Prop50
 90
       50
102
RTVSPost2010PropOp50
 70
     1
102
RTVSPost2010Prop51ColorIndex
 90
      256
102
RTVSPost2010Prop51ColorRGB
 90
-16777216
102
RTVSPost2010PropOp51
 70
     0
102
RTVSPost2010Prop52
140
1.0
102
RTVSPost2010PropOp52
 70
     0
102
RTVSPost2010Prop53
 90
        2
102
RTVSPost2010PropOp53
 70
     1
102
RTVSPost2010Prop54
  1
strokes_ogs.tif
102
RTVSPost2010PropOp54
 70
     1
102
RTVSPost2010Prop55
280
     0
102
RTVSPost2010PropOp55
 70
     1
102
RTVSPost2010Prop56
140
1.0
102
RTVSPost2010PropOp56
 70
     1
102
RTVSPost2010Prop57
140
1.0
102
RTVSPost2010PropOp57
 70
     1
102
RTVSPropertyOp0
 70
     0
102
RTVSPropertyOp1
 70
     0
102
RTVSPropertyOp2
 70
     0
102
RTVSPropertyOp3
 70
     0
102
RTVSPropertyOp4
 70
     0
102
RTVSPropertyOp5
 70
     0
102
RTVSPropertyOp6
 70
     0
102
RTVSPropertyOp7
 70
     0
102
RTVSPropertyOp8
 70
     0
102
RTVSPropertyOp9
 70
     0
102
RTVSPropertyOp10
 70
     0
102
RTVSPropertyOp11
 70
     0
102
RTVSPropertyOp12
 70
     0
102
RTVSPropertyOp13
 70
     0
102
RTVSPropertyOp14
 70
     2
102
RTVSPropertyOp15
 70
     0
102
RTVSPropertyOp16
 70
     0
102
RTVSPropertyOp17
 70
     0
102
RTVSPropertyOp18
 70
     0
102
RTVSPropertyOp19
 70
     0
102
RTVSPropertyOp20
 70
     0
102
RTVSPropertyOp21
 70
     0
102
RTVSPropertyOp22
 70
     0
102
RTVSPropertyOp23
 70
     0
102
RTVSPropertyOp24
 70
     0
102
RTVSPropertyOp25
 70
     0
102
RTVSPropertyOp26
 70
     0
102
RTVSPropertyOp27
 70
     0
102
RTVSPropertyOp28
 70
     1
102
RTVSPropertyOp29
 70
     1
102
RTVSPropertyOp30
 70
     1
102
RTVSPropertyOp31
 70
     1
102
RTVSPropertyOp32
 70
     1
102
RTVSPropertyOp33
 70
     1
102
RTVSPropertyOp34
 70
     1
102
RTVSPropertyOp35
 70
     1
102
RTVSPropertyOp36
 70
     1
102
RTVSPropertyOp37
 70
     1
102
RTVSPropertyOp38
 70
     1
102
RTVSPropertyOp39
 70
     1
102
RTVSPropertyOp40
 70
     1
102
RTVSPropertyOp41
 70
     1
102
RTVSPropertyOp42
 70
     1
102
RTVSPropertyOp43
 70
     1
102
RTVSPropertyOp44
 70
     1
102
RTVSPropertyOp45
 70
     1
102
RTVSPropertyOp46
 70
     1
102
RTVSPropertyOp47
 70
     1
102
RTVSPropertyOp48
 70
     1
102
RTVSPropertyOp49
 70
     1
102
RTVSPropertyOp50
 70
     1
102
RTVSPropertyOp51
 70
     0
102
RTVSPropertyOp52
 70
     0
102
RTVSPropertyOp53
 70
     1
102
RTVSPropertyOp54
 70
     1
102
RTVSPropertyOp55
 70
     1
102
RTVSPropertyOp56
 70
     1
102
RTVSPropertyOp57
 70
     1
102
RTVSPropertyOp58
 70
     1
102
RTVSPropertyOp59
 70
     1
102
RTVSPropertyOp60
 70
     1
102
RTVSPropertyOp61
 70
     1
102
RTVSPropertyOp62
 70
     1
  0
XRECORD
  5
B723
102
{ACAD_REACTORS
330
B722
102
}
330
B722
100
AcDbXrecord
280
     1
102
RTVSPost2010Prop28
280
     0
102
RTVSPost2010PropOp28
 70
     1
102
RTVSPost2010Prop29
280
     1
102
RTVSPost2010PropOp29
 70
     1
102
RTVSPost2010Prop30
280
     1
102
RTVSPost2010PropOp30
 70
     1
102
RTVSPost2010Prop31
280
     0
102
RTVSPost2010PropOp31
 70
     1
102
RTVSPost2010Prop32
280
     0
102
RTVSPost2010PropOp32
 70
     1
102
RTVSPost2010Prop33
280
     0
102
RTVSPost2010PropOp33
 70
     1
102
RTVSPost2010Prop34
280
     0
102
RTVSPost2010PropOp34
 70
     1
102
RTVSPost2010Prop35
280
     0
102
RTVSPost2010PropOp35
 70
     1
102
RTVSPost2010Prop36
280
     0
102
RTVSPost2010PropOp36
 70
     1
102
RTVSPost2010Prop37
 90
       50
102
RTVSPost2010PropOp37
 70
     1
102
RTVSPost2010Prop38
140
0.0
102
RTVSPost2010PropOp38
 70
     1
102
RTVSPost2010Prop39
140
1.0
102
RTVSPost2010PropOp39
 70
     1
102
RTVSPost2010Prop40
 90
        0
102
RTVSPost2010PropOp40
 70
     1
102
RTVSPost2010Prop41ColorIndex
 90
       18
102
RTVSPost2010Prop41ColorRGB
 90
        0
102
RTVSPost2010PropOp41
 70
     1
102
RTVSPost2010Prop42
 90
       50
102
RTVSPost2010PropOp42
 70
     1
102
RTVSPost2010Prop43
 90
        3
102
RTVSPost2010PropOp43
 70
     1
102
RTVSPost2010Prop44ColorIndex
 90
        5
102
RTVSPost2010Prop44ColorRGB
 90
      255
102
RTVSPost2010PropOp44
 70
     1
102
RTVSPost2010Prop45
280
     0
102
RTVSPost2010PropOp45
 70
     1
102
RTVSPost2010Prop46
 90
       50
102
RTVSPost2010PropOp46
 70
     1
102
RTVSPost2010Prop47
 90
       50
102
RTVSPost2010PropOp47
 70
     1
102
RTVSPost2010Prop48
 90
       50
102
RTVSPost2010PropOp48
 70
     1
102
RTVSPost2010Prop49
280
     0
102
RTVSPost2010PropOp49
 70
     1
102
RTVSPost2010Prop50
 90
       50
102
RTVSPost2010PropOp50
 70
     1
102
RTVSPost2010Prop51ColorIndex
 90
      256
102
RTVSPost2010Prop51ColorRGB
 90
-16777216
102
RTVSPost2010PropOp51
 70
     0
102
RTVSPost2010Prop52
140
1.0
102
RTVSPost2010PropOp52
 70
     0
102
RTVSPost2010Prop53
 90
        2
102
RTVSPost2010PropOp53
 70
     1
102
RTVSPost2010Prop54
  1
strokes_ogs.tif
102
RTVSPost2010PropOp54
 70
     1
102
RTVSPost2010Prop55
280
     0
102
RTVSPost2010PropOp55
 70
     1
102
RTVSPost2010Prop56
140
1.0
102
RTVSPost2010PropOp56
 70
     1
102
RTVSPost2010Prop57
140
1.0
102
RTVSPost2010PropOp57
 70
     1
102
RTVSPropertyOp0
 70
     1
102
RTVSPropertyOp1
 70
     1
102
RTVSPropertyOp2
 70
     1
102
RTVSPropertyOp3
 70
     1
102
RTVSPropertyOp4
 70
     1
102
RTVSPropertyOp5
 70
     1
102
RTVSPropertyOp6
 70
     1
102
RTVSPropertyOp7
 70
     1
102
RTVSPropertyOp8
 70
     1
102
RTVSPropertyOp9
 70
     1
102
RTVSPropertyOp10
 70
     1
102
RTVSPropertyOp11
 70
     1
102
RTVSPropertyOp12
 70
     1
102
RTVSPropertyOp13
 70
     1
102
RTVSPropertyOp14
 70
     1
102
RTVSPropertyOp15
 70
     1
102
RTVSPropertyOp16
 70
     1
102
RTVSPropertyOp17
 70
     1
102
RTVSPropertyOp18
 70
     1
102
RTVSPropertyOp19
 70
     1
102
RTVSPropertyOp20
 70
     1
102
RTVSPropertyOp21
 70
     1
102
RTVSPropertyOp22
 70
     1
102
RTVSPropertyOp23
 70
     1
102
RTVSPropertyOp24
 70
     1
102
RTVSPropertyOp25
 70
     1
102
RTVSPropertyOp26
 70
     1
102
RTVSPropertyOp27
 70
     1
102
RTVSPropertyOp28
 70
     1
102
RTVSPropertyOp29
 70
     1
102
RTVSPropertyOp30
 70
     1
102
RTVSPropertyOp31
 70
     1
102
RTVSPropertyOp32
 70
     1
102
RTVSPropertyOp33
 70
     1
102
RTVSPropertyOp34
 70
     1
102
RTVSPropertyOp35
 70
     1
102
RTVSPropertyOp36
 70
     1
102
RTVSPropertyOp37
 70
     1
102
RTVSPropertyOp38
 70
     1
102
RTVSPropertyOp39
 70
     1
102
RTVSPropertyOp40
 70
     1
102
RTVSPropertyOp41
 70
     1
102
RTVSPropertyOp42
 70
     1
102
RTVSPropertyOp43
 70
     1
102
RTVSPropertyOp44
 70
     1
102
RTVSPropertyOp45
 70
     1
102
RTVSPropertyOp46
 70
     1
102
RTVSPropertyOp47
 70
     1
102
RTVSPropertyOp48
 70
     1
102
RTVSPropertyOp49
 70
     1
102
RTVSPropertyOp50
 70
     1
102
RTVSPropertyOp51
 70
     0
102
RTVSPropertyOp52
 70
     0
102
RTVSPropertyOp53
 70
     1
102
RTVSPropertyOp54
 70
     1
102
RTVSPropertyOp55
 70
     1
102
RTVSPropertyOp56
 70
     1
102
RTVSPropertyOp57
 70
     1
102
RTVSPropertyOp58
 70
     1
102
RTVSPropertyOp59
 70
     1
102
RTVSPropertyOp60
 70
     1
102
RTVSPropertyOp61
 70
     1
102
RTVSPropertyOp62
 70
     1
  0
XRECORD
  5
B72D
102
{ACAD_REACTORS
330
B72C
102
}
330
B72C
100
AcDbXrecord
280
     1
102
RTVSPost2010Prop28
280
     0
102
RTVSPost2010PropOp28
 70
     1
102
RTVSPost2010Prop29
280
     1
102
RTVSPost2010PropOp29
 70
     1
102
RTVSPost2010Prop30
280
     1
102
RTVSPost2010PropOp30
 70
     1
102
RTVSPost2010Prop31
280
     0
102
RTVSPost2010PropOp31
 70
     1
102
RTVSPost2010Prop32
280
     0
102
RTVSPost2010PropOp32
 70
     1
102
RTVSPost2010Prop33
280
     0
102
RTVSPost2010PropOp33
 70
     1
102
RTVSPost2010Prop34
280
     0
102
RTVSPost2010PropOp34
 70
     1
102
RTVSPost2010Prop35
280
     0
102
RTVSPost2010PropOp35
 70
     1
102
RTVSPost2010Prop36
280
     0
102
RTVSPost2010PropOp36
 70
     1
102
RTVSPost2010Prop37
 90
       50
102
RTVSPost2010PropOp37
 70
     1
102
RTVSPost2010Prop38
140
0.0
102
RTVSPost2010PropOp38
 70
     1
102
RTVSPost2010Prop39
140
1.0
102
RTVSPost2010PropOp39
 70
     1
102
RTVSPost2010Prop40
 90
        0
102
RTVSPost2010PropOp40
 70
     1
102
RTVSPost2010Prop41ColorIndex
 90
       18
102
RTVSPost2010Prop41ColorRGB
 90
        0
102
RTVSPost2010PropOp41
 70
     1
102
RTVSPost2010Prop42
 90
       50
102
RTVSPost2010PropOp42
 70
     1
102
RTVSPost2010Prop43
 90
        3
102
RTVSPost2010PropOp43
 70
     1
102
RTVSPost2010Prop44ColorIndex
 90
        5
102
RTVSPost2010Prop44ColorRGB
 90
      255
102
RTVSPost2010PropOp44
 70
     1
102
RTVSPost2010Prop45
280
     0
102
RTVSPost2010PropOp45
 70
     1
102
RTVSPost2010Prop46
 90
       50
102
RTVSPost2010PropOp46
 70
     1
102
RTVSPost2010Prop47
 90
       50
102
RTVSPost2010PropOp47
 70
     1
102
RTVSPost2010Prop48
 90
       50
102
RTVSPost2010PropOp48
 70
     1
102
RTVSPost2010Prop49
280
     0
102
RTVSPost2010PropOp49
 70
     1
102
RTVSPost2010Prop50
 90
       50
102
RTVSPost2010PropOp50
 70
     1
102
RTVSPost2010Prop51ColorIndex
 90
      256
102
RTVSPost2010Prop51ColorRGB
 90
-16777216
102
RTVSPost2010PropOp51
 70
     0
102
RTVSPost2010Prop52
140
1.0
102
RTVSPost2010PropOp52
 70
     0
102
RTVSPost2010Prop53
 90
        2
102
RTVSPost2010PropOp53
 70
     1
102
RTVSPost2010Prop54
  1
strokes_ogs.tif
102
RTVSPost2010PropOp54
 70
     1
102
RTVSPost2010Prop55
280
     0
102
RTVSPost2010PropOp55
 70
     1
102
RTVSPost2010Prop56
140
1.0
102
RTVSPost2010PropOp56
 70
     1
102
RTVSPost2010Prop57
140
1.0
102
RTVSPost2010PropOp57
 70
     1
102
RTVSPropertyOp0
 70
     0
102
RTVSPropertyOp1
 70
     0
102
RTVSPropertyOp2
 70
     0
102
RTVSPropertyOp3
 70
     0
102
RTVSPropertyOp4
 70
     0
102
RTVSPropertyOp5
 70
     0
102
RTVSPropertyOp6
 70
     0
102
RTVSPropertyOp7
 70
     0
102
RTVSPropertyOp8
 70
     0
102
RTVSPropertyOp9
 70
     0
102
RTVSPropertyOp10
 70
     0
102
RTVSPropertyOp11
 70
     0
102
RTVSPropertyOp12
 70
     0
102
RTVSPropertyOp13
 70
     0
102
RTVSPropertyOp14
 70
     2
102
RTVSPropertyOp15
 70
     0
102
RTVSPropertyOp16
 70
     0
102
RTVSPropertyOp17
 70
     0
102
RTVSPropertyOp18
 70
     0
102
RTVSPropertyOp19
 70
     0
102
RTVSPropertyOp20
 70
     0
102
RTVSPropertyOp21
 70
     0
102
RTVSPropertyOp22
 70
     0
102
RTVSPropertyOp23
 70
     0
102
RTVSPropertyOp24
 70
     0
102
RTVSPropertyOp25
 70
     0
102
RTVSPropertyOp26
 70
     0
102
RTVSPropertyOp27
 70
     0
102
RTVSPropertyOp28
 70
     1
102
RTVSPropertyOp29
 70
     1
102
RTVSPropertyOp30
 70
     1
102
RTVSPropertyOp31
 70
     1
102
RTVSPropertyOp32
 70
     1
102
RTVSPropertyOp33
 70
     1
102
RTVSPropertyOp34
 70
     1
102
RTVSPropertyOp35
 70
     1
102
RTVSPropertyOp36
 70
     1
102
RTVSPropertyOp37
 70
     1
102
RTVSPropertyOp38
 70
     1
102
RTVSPropertyOp39
 70
     1
102
RTVSPropertyOp40
 70
     1
102
RTVSPropertyOp41
 70
     1
102
RTVSPropertyOp42
 70
     1
102
RTVSPropertyOp43
 70
     1
102
RTVSPropertyOp44
 70
     1
102
RTVSPropertyOp45
 70
     1
102
RTVSPropertyOp46
 70
     1
102
RTVSPropertyOp47
 70
     1
102
RTVSPropertyOp48
 70
     1
102
RTVSPropertyOp49
 70
     1
102
RTVSPropertyOp50
 70
     1
102
RTVSPropertyOp51
 70
     0
102
RTVSPropertyOp52
 70
     0
102
RTVSPropertyOp53
 70
     1
102
RTVSPropertyOp54
 70
     1
102
RTVSPropertyOp55
 70
     1
102
RTVSPropertyOp56
 70
     1
102
RTVSPropertyOp57
 70
     1
102
RTVSPropertyOp58
 70
     1
102
RTVSPropertyOp59
 70
     1
102
RTVSPropertyOp60
 70
     1
102
RTVSPropertyOp61
 70
     1
102
RTVSPropertyOp62
 70
     1
  0
XRECORD
  5
B71B
102
{ACAD_REACTORS
330
B71A
102
}
330
B71A
100
AcDbXrecord
280
     1
102
RTVSPost2010Prop28
280
     0
102
RTVSPost2010PropOp28
 70
     1
102
RTVSPost2010Prop29
280
     1
102
RTVSPost2010PropOp29
 70
     1
102
RTVSPost2010Prop30
280
     1
102
RTVSPost2010PropOp30
 70
     1
102
RTVSPost2010Prop31
280
     0
102
RTVSPost2010PropOp31
 70
     1
102
RTVSPost2010Prop32
280
     0
102
RTVSPost2010PropOp32
 70
     1
102
RTVSPost2010Prop33
280
     0
102
RTVSPost2010PropOp33
 70
     1
102
RTVSPost2010Prop34
280
     0
102
RTVSPost2010PropOp34
 70
     1
102
RTVSPost2010Prop35
280
     0
102
RTVSPost2010PropOp35
 70
     1
102
RTVSPost2010Prop36
280
     0
102
RTVSPost2010PropOp36
 70
     1
102
RTVSPost2010Prop37
 90
       50
102
RTVSPost2010PropOp37
 70
     1
102
RTVSPost2010Prop38
140
0.0
102
RTVSPost2010PropOp38
 70
     1
102
RTVSPost2010Prop39
140
1.0
102
RTVSPost2010PropOp39
 70
     1
102
RTVSPost2010Prop40
 90
        0
102
RTVSPost2010PropOp40
 70
     1
102
RTVSPost2010Prop41ColorIndex
 90
       18
102
RTVSPost2010Prop41ColorRGB
 90
        0
102
RTVSPost2010PropOp41
 70
     1
102
RTVSPost2010Prop42
 90
       50
102
RTVSPost2010PropOp42
 70
     1
102
RTVSPost2010Prop43
 90
        3
102
RTVSPost2010PropOp43
 70
     1
102
RTVSPost2010Prop44ColorIndex
 90
        5
102
RTVSPost2010Prop44ColorRGB
 90
      255
102
RTVSPost2010PropOp44
 70
     1
102
RTVSPost2010Prop45
280
     0
102
RTVSPost2010PropOp45
 70
     1
102
RTVSPost2010Prop46
 90
       50
102
RTVSPost2010PropOp46
 70
     1
102
RTVSPost2010Prop47
 90
       50
102
RTVSPost2010PropOp47
 70
     1
102
RTVSPost2010Prop48
 90
       50
102
RTVSPost2010PropOp48
 70
     1
102
RTVSPost2010Prop49
280
     0
102
RTVSPost2010PropOp49
 70
     1
102
RTVSPost2010Prop50
 90
       50
102
RTVSPost2010PropOp50
 70
     1
102
RTVSPost2010Prop51ColorIndex
 90
      256
102
RTVSPost2010Prop51ColorRGB
 90
-16777216
102
RTVSPost2010PropOp51
 70
     0
102
RTVSPost2010Prop52
140
1.0
102
RTVSPost2010PropOp52
 70
     0
102
RTVSPost2010Prop53
 90
        2
102
RTVSPost2010PropOp53
 70
     1
102
RTVSPost2010Prop54
  1
strokes_ogs.tif
102
RTVSPost2010PropOp54
 70
     1
102
RTVSPost2010Prop55
280
     0
102
RTVSPost2010PropOp55
 70
     1
102
RTVSPost2010Prop56
140
1.0
102
RTVSPost2010PropOp56
 70
     1
102
RTVSPost2010Prop57
140
1.0
102
RTVSPost2010PropOp57
 70
     1
102
RTVSPropertyOp0
 70
     1
102
RTVSPropertyOp1
 70
     1
102
RTVSPropertyOp2
 70
     1
102
RTVSPropertyOp3
 70
     1
102
RTVSPropertyOp4
 70
     1
102
RTVSPropertyOp5
 70
     1
102
RTVSPropertyOp6
 70
     1
102
RTVSPropertyOp7
 70
     1
102
RTVSPropertyOp8
 70
     1
102
RTVSPropertyOp9
 70
     1
102
RTVSPropertyOp10
 70
     1
102
RTVSPropertyOp11
 70
     1
102
RTVSPropertyOp12
 70
     1
102
RTVSPropertyOp13
 70
     1
102
RTVSPropertyOp14
 70
     1
102
RTVSPropertyOp15
 70
     1
102
RTVSPropertyOp16
 70
     1
102
RTVSPropertyOp17
 70
     1
102
RTVSPropertyOp18
 70
     1
102
RTVSPropertyOp19
 70
     1
102
RTVSPropertyOp20
 70
     1
102
RTVSPropertyOp21
 70
     1
102
RTVSPropertyOp22
 70
     1
102
RTVSPropertyOp23
 70
     1
102
RTVSPropertyOp24
 70
     1
102
RTVSPropertyOp25
 70
     1
102
RTVSPropertyOp26
 70
     1
102
RTVSPropertyOp27
 70
     1
102
RTVSPropertyOp28
 70
     1
102
RTVSPropertyOp29
 70
     1
102
RTVSPropertyOp30
 70
     1
102
RTVSPropertyOp31
 70
     1
102
RTVSPropertyOp32
 70
     1
102
RTVSPropertyOp33
 70
     1
102
RTVSPropertyOp34
 70
     1
102
RTVSPropertyOp35
 70
     1
102
RTVSPropertyOp36
 70
     1
102
RTVSPropertyOp37
 70
     1
102
RTVSPropertyOp38
 70
     1
102
RTVSPropertyOp39
 70
     1
102
RTVSPropertyOp40
 70
     1
102
RTVSPropertyOp41
 70
     1
102
RTVSPropertyOp42
 70
     1
102
RTVSPropertyOp43
 70
     1
102
RTVSPropertyOp44
 70
     1
102
RTVSPropertyOp45
 70
     1
102
RTVSPropertyOp46
 70
     1
102
RTVSPropertyOp47
 70
     1
102
RTVSPropertyOp48
 70
     1
102
RTVSPropertyOp49
 70
     1
102
RTVSPropertyOp50
 70
     1
102
RTVSPropertyOp51
 70
     0
102
RTVSPropertyOp52
 70
     0
102
RTVSPropertyOp53
 70
     1
102
RTVSPropertyOp54
 70
     1
102
RTVSPropertyOp55
 70
     1
102
RTVSPropertyOp56
 70
     1
102
RTVSPropertyOp57
 70
     1
102
RTVSPropertyOp58
 70
     1
102
RTVSPropertyOp59
 70
     1
102
RTVSPropertyOp60
 70
     1
102
RTVSPropertyOp61
 70
     1
102
RTVSPropertyOp62
 70
     1
  0
XRECORD
  5
B739
102
{ACAD_REACTORS
330
B738
102
}
330
B738
100
AcDbXrecord
280
     1
102
RTVSPost2010Prop28
280
     0
102
RTVSPost2010PropOp28
 70
     1
102
RTVSPost2010Prop29
280
     1
102
RTVSPost2010PropOp29
 70
     1
102
RTVSPost2010Prop30
280
     1
102
RTVSPost2010PropOp30
 70
     1
102
RTVSPost2010Prop31
280
     0
102
RTVSPost2010PropOp31
 70
     1
102
RTVSPost2010Prop32
280
     0
102
RTVSPost2010PropOp32
 70
     1
102
RTVSPost2010Prop33
280
     0
102
RTVSPost2010PropOp33
 70
     1
102
RTVSPost2010Prop34
280
     0
102
RTVSPost2010PropOp34
 70
     1
102
RTVSPost2010Prop35
280
     0
102
RTVSPost2010PropOp35
 70
     1
102
RTVSPost2010Prop36
280
     0
102
RTVSPost2010PropOp36
 70
     1
102
RTVSPost2010Prop37
 90
       50
102
RTVSPost2010PropOp37
 70
     1
102
RTVSPost2010Prop38
140
0.0
102
RTVSPost2010PropOp38
 70
     1
102
RTVSPost2010Prop39
140
1.0
102
RTVSPost2010PropOp39
 70
     1
102
RTVSPost2010Prop40
 90
        0
102
RTVSPost2010PropOp40
 70
     1
102
RTVSPost2010Prop41ColorIndex
 90
       18
102
RTVSPost2010Prop41ColorRGB
 90
        0
102
RTVSPost2010PropOp41
 70
     1
102
RTVSPost2010Prop42
 90
       50
102
RTVSPost2010PropOp42
 70
     1
102
RTVSPost2010Prop43
 90
        3
102
RTVSPost2010PropOp43
 70
     1
102
RTVSPost2010Prop44ColorIndex
 90
        5
102
RTVSPost2010Prop44ColorRGB
 90
      255
102
RTVSPost2010PropOp44
 70
     1
102
RTVSPost2010Prop45
280
     0
102
RTVSPost2010PropOp45
 70
     1
102
RTVSPost2010Prop46
 90
       50
102
RTVSPost2010PropOp46
 70
     1
102
RTVSPost2010Prop47
 90
       50
102
RTVSPost2010PropOp47
 70
     1
102
RTVSPost2010Prop48
 90
       50
102
RTVSPost2010PropOp48
 70
     1
102
RTVSPost2010Prop49
280
     0
102
RTVSPost2010PropOp49
 70
     1
102
RTVSPost2010Prop50
 90
       50
102
RTVSPost2010PropOp50
 70
     1
102
RTVSPost2010Prop51ColorIndex
 90
      256
102
RTVSPost2010Prop51ColorRGB
 90
-16777216
102
RTVSPost2010PropOp51
 70
     0
102
RTVSPost2010Prop52
140
1.0
102
RTVSPost2010PropOp52
 70
     0
102
RTVSPost2010Prop53
 90
        2
102
RTVSPost2010PropOp53
 70
     1
102
RTVSPost2010Prop54
  1
strokes_ogs.tif
102
RTVSPost2010PropOp54
 70
     1
102
RTVSPost2010Prop55
280
     0
102
RTVSPost2010PropOp55
 70
     1
102
RTVSPost2010Prop56
140
1.0
102
RTVSPost2010PropOp56
 70
     1
102
RTVSPost2010Prop57
140
1.0
102
RTVSPost2010PropOp57
 70
     1
102
RTVSPropertyOp0
 70
     1
102
RTVSPropertyOp1
 70
     1
102
RTVSPropertyOp2
 70
     1
102
RTVSPropertyOp3
 70
     1
102
RTVSPropertyOp4
 70
     1
102
RTVSPropertyOp5
 70
     1
102
RTVSPropertyOp6
 70
     1
102
RTVSPropertyOp7
 70
     1
102
RTVSPropertyOp8
 70
     1
102
RTVSPropertyOp9
 70
     1
102
RTVSPropertyOp10
 70
     1
102
RTVSPropertyOp11
 70
     1
102
RTVSPropertyOp12
 70
     1
102
RTVSPropertyOp13
 70
     1
102
RTVSPropertyOp14
 70
     1
102
RTVSPropertyOp15
 70
     1
102
RTVSPropertyOp16
 70
     1
102
RTVSPropertyOp17
 70
     1
102
RTVSPropertyOp18
 70
     1
102
RTVSPropertyOp19
 70
     1
102
RTVSPropertyOp20
 70
     1
102
RTVSPropertyOp21
 70
     1
102
RTVSPropertyOp22
 70
     1
102
RTVSPropertyOp23
 70
     1
102
RTVSPropertyOp24
 70
     1
102
RTVSPropertyOp25
 70
     1
102
RTVSPropertyOp26
 70
     1
102
RTVSPropertyOp27
 70
     1
102
RTVSPropertyOp28
 70
     1
102
RTVSPropertyOp29
 70
     1
102
RTVSPropertyOp30
 70
     1
102
RTVSPropertyOp31
 70
     1
102
RTVSPropertyOp32
 70
     1
102
RTVSPropertyOp33
 70
     1
102
RTVSPropertyOp34
 70
     1
102
RTVSPropertyOp35
 70
     1
102
RTVSPropertyOp36
 70
     1
102
RTVSPropertyOp37
 70
     1
102
RTVSPropertyOp38
 70
     1
102
RTVSPropertyOp39
 70
     1
102
RTVSPropertyOp40
 70
     1
102
RTVSPropertyOp41
 70
     1
102
RTVSPropertyOp42
 70
     1
102
RTVSPropertyOp43
 70
     1
102
RTVSPropertyOp44
 70
     1
102
RTVSPropertyOp45
 70
     1
102
RTVSPropertyOp46
 70
     1
102
RTVSPropertyOp47
 70
     1
102
RTVSPropertyOp48
 70
     1
102
RTVSPropertyOp49
 70
     1
102
RTVSPropertyOp50
 70
     1
102
RTVSPropertyOp51
 70
     0
102
RTVSPropertyOp52
 70
     0
102
RTVSPropertyOp53
 70
     1
102
RTVSPropertyOp54
 70
     1
102
RTVSPropertyOp55
 70
     1
102
RTVSPropertyOp56
 70
     1
102
RTVSPropertyOp57
 70
     1
102
RTVSPropertyOp58
 70
     1
102
RTVSPropertyOp59
 70
     1
102
RTVSPropertyOp60
 70
     1
102
RTVSPropertyOp61
 70
     1
102
RTVSPropertyOp62
 70
     1
  0
XRECORD
  5
B737
102
{ACAD_REACTORS
330
B736
102
}
330
B736
100
AcDbXrecord
280
     1
102
RTVSPost2010Prop28
280
     0
102
RTVSPost2010PropOp28
 70
     1
102
RTVSPost2010Prop29
280
     1
102
RTVSPost2010PropOp29
 70
     1
102
RTVSPost2010Prop30
280
     1
102
RTVSPost2010PropOp30
 70
     1
102
RTVSPost2010Prop31
280
     0
102
RTVSPost2010PropOp31
 70
     1
102
RTVSPost2010Prop32
280
     0
102
RTVSPost2010PropOp32
 70
     1
102
RTVSPost2010Prop33
280
     0
102
RTVSPost2010PropOp33
 70
     1
102
RTVSPost2010Prop34
280
     0
102
RTVSPost2010PropOp34
 70
     1
102
RTVSPost2010Prop35
280
     0
102
RTVSPost2010PropOp35
 70
     1
102
RTVSPost2010Prop36
280
     0
102
RTVSPost2010PropOp36
 70
     1
102
RTVSPost2010Prop37
 90
       50
102
RTVSPost2010PropOp37
 70
     1
102
RTVSPost2010Prop38
140
0.0
102
RTVSPost2010PropOp38
 70
     1
102
RTVSPost2010Prop39
140
1.0
102
RTVSPost2010PropOp39
 70
     1
102
RTVSPost2010Prop40
 90
        0
102
RTVSPost2010PropOp40
 70
     1
102
RTVSPost2010Prop41ColorIndex
 90
       18
102
RTVSPost2010Prop41ColorRGB
 90
        0
102
RTVSPost2010PropOp41
 70
     1
102
RTVSPost2010Prop42
 90
       50
102
RTVSPost2010PropOp42
 70
     1
102
RTVSPost2010Prop43
 90
        3
102
RTVSPost2010PropOp43
 70
     1
102
RTVSPost2010Prop44ColorIndex
 90
        5
102
RTVSPost2010Prop44ColorRGB
 90
      255
102
RTVSPost2010PropOp44
 70
     1
102
RTVSPost2010Prop45
280
     0
102
RTVSPost2010PropOp45
 70
     1
102
RTVSPost2010Prop46
 90
       50
102
RTVSPost2010PropOp46
 70
     1
102
RTVSPost2010Prop47
 90
       50
102
RTVSPost2010PropOp47
 70
     1
102
RTVSPost2010Prop48
 90
       50
102
RTVSPost2010PropOp48
 70
     1
102
RTVSPost2010Prop49
280
     0
102
RTVSPost2010PropOp49
 70
     1
102
RTVSPost2010Prop50
 90
       50
102
RTVSPost2010PropOp50
 70
     1
102
RTVSPost2010Prop51ColorIndex
 90
      256
102
RTVSPost2010Prop51ColorRGB
 90
-16777216
102
RTVSPost2010PropOp51
 70
     0
102
RTVSPost2010Prop52
140
1.0
102
RTVSPost2010PropOp52
 70
     0
102
RTVSPost2010Prop53
 90
        2
102
RTVSPost2010PropOp53
 70
     1
102
RTVSPost2010Prop54
  1
strokes_ogs.tif
102
RTVSPost2010PropOp54
 70
     1
102
RTVSPost2010Prop55
280
     0
102
RTVSPost2010PropOp55
 70
     1
102
RTVSPost2010Prop56
140
1.0
102
RTVSPost2010PropOp56
 70
     1
102
RTVSPost2010Prop57
140
1.0
102
RTVSPost2010PropOp57
 70
     1
102
RTVSPropertyOp0
 70
     1
102
RTVSPropertyOp1
 70
     1
102
RTVSPropertyOp2
 70
     1
102
RTVSPropertyOp3
 70
     1
102
RTVSPropertyOp4
 70
     1
102
RTVSPropertyOp5
 70
     1
102
RTVSPropertyOp6
 70
     1
102
RTVSPropertyOp7
 70
     1
102
RTVSPropertyOp8
 70
     1
102
RTVSPropertyOp9
 70
     1
102
RTVSPropertyOp10
 70
     1
102
RTVSPropertyOp11
 70
     1
102
RTVSPropertyOp12
 70
     1
102
RTVSPropertyOp13
 70
     1
102
RTVSPropertyOp14
 70
     1
102
RTVSPropertyOp15
 70
     1
102
RTVSPropertyOp16
 70
     1
102
RTVSPropertyOp17
 70
     1
102
RTVSPropertyOp18
 70
     1
102
RTVSPropertyOp19
 70
     1
102
RTVSPropertyOp20
 70
     1
102
RTVSPropertyOp21
 70
     1
102
RTVSPropertyOp22
 70
     1
102
RTVSPropertyOp23
 70
     1
102
RTVSPropertyOp24
 70
     1
102
RTVSPropertyOp25
 70
     1
102
RTVSPropertyOp26
 70
     1
102
RTVSPropertyOp27
 70
     1
102
RTVSPropertyOp28
 70
     1
102
RTVSPropertyOp29
 70
     1
102
RTVSPropertyOp30
 70
     1
102
RTVSPropertyOp31
 70
     1
102
RTVSPropertyOp32
 70
     1
102
RTVSPropertyOp33
 70
     1
102
RTVSPropertyOp34
 70
     1
102
RTVSPropertyOp35
 70
     1
102
RTVSPropertyOp36
 70
     1
102
RTVSPropertyOp37
 70
     1
102
RTVSPropertyOp38
 70
     1
102
RTVSPropertyOp39
 70
     1
102
RTVSPropertyOp40
 70
     1
102
RTVSPropertyOp41
 70
     1
102
RTVSPropertyOp42
 70
     1
102
RTVSPropertyOp43
 70
     1
102
RTVSPropertyOp44
 70
     1
102
RTVSPropertyOp45
 70
     1
102
RTVSPropertyOp46
 70
     1
102
RTVSPropertyOp47
 70
     1
102
RTVSPropertyOp48
 70
     1
102
RTVSPropertyOp49
 70
     1
102
RTVSPropertyOp50
 70
     1
102
RTVSPropertyOp51
 70
     0
102
RTVSPropertyOp52
 70
     0
102
RTVSPropertyOp53
 70
     1
102
RTVSPropertyOp54
 70
     1
102
RTVSPropertyOp55
 70
     1
102
RTVSPropertyOp56
 70
     1
102
RTVSPropertyOp57
 70
     1
102
RTVSPropertyOp58
 70
     1
102
RTVSPropertyOp59
 70
     1
102
RTVSPropertyOp60
 70
     1
102
RTVSPropertyOp61
 70
     1
102
RTVSPropertyOp62
 70
     1
  0
XRECORD
  5
B731
102
{ACAD_REACTORS
330
B730
102
}
330
B730
100
AcDbXrecord
280
     1
102
RTVSPost2010Prop28
280
     0
102
RTVSPost2010PropOp28
 70
     1
102
RTVSPost2010Prop29
280
     1
102
RTVSPost2010PropOp29
 70
     1
102
RTVSPost2010Prop30
280
     1
102
RTVSPost2010PropOp30
 70
     1
102
RTVSPost2010Prop31
280
     0
102
RTVSPost2010PropOp31
 70
     1
102
RTVSPost2010Prop32
280
     0
102
RTVSPost2010PropOp32
 70
     1
102
RTVSPost2010Prop33
280
     0
102
RTVSPost2010PropOp33
 70
     1
102
RTVSPost2010Prop34
280
     0
102
RTVSPost2010PropOp34
 70
     1
102
RTVSPost2010Prop35
280
     0
102
RTVSPost2010PropOp35
 70
     1
102
RTVSPost2010Prop36
280
     0
102
RTVSPost2010PropOp36
 70
     1
102
RTVSPost2010Prop37
 90
       50
102
RTVSPost2010PropOp37
 70
     1
102
RTVSPost2010Prop38
140
0.0
102
RTVSPost2010PropOp38
 70
     1
102
RTVSPost2010Prop39
140
1.0
102
RTVSPost2010PropOp39
 70
     1
102
RTVSPost2010Prop40
 90
        0
102
RTVSPost2010PropOp40
 70
     1
102
RTVSPost2010Prop41ColorIndex
 90
       18
102
RTVSPost2010Prop41ColorRGB
 90
        0
102
RTVSPost2010PropOp41
 70
     1
102
RTVSPost2010Prop42
 90
       50
102
RTVSPost2010PropOp42
 70
     1
102
RTVSPost2010Prop43
 90
        3
102
RTVSPost2010PropOp43
 70
     1
102
RTVSPost2010Prop44ColorIndex
 90
        5
102
RTVSPost2010Prop44ColorRGB
 90
      255
102
RTVSPost2010PropOp44
 70
     1
102
RTVSPost2010Prop45
280
     0
102
RTVSPost2010PropOp45
 70
     1
102
RTVSPost2010Prop46
 90
       50
102
RTVSPost2010PropOp46
 70
     1
102
RTVSPost2010Prop47
 90
       50
102
RTVSPost2010PropOp47
 70
     1
102
RTVSPost2010Prop48
 90
       50
102
RTVSPost2010PropOp48
 70
     1
102
RTVSPost2010Prop49
280
     0
102
RTVSPost2010PropOp49
 70
     1
102
RTVSPost2010Prop50
 90
       50
102
RTVSPost2010PropOp50
 70
     1
102
RTVSPost2010Prop51ColorIndex
 90
      256
102
RTVSPost2010Prop51ColorRGB
 90
-16777216
102
RTVSPost2010PropOp51
 70
     0
102
RTVSPost2010Prop52
140
1.0
102
RTVSPost2010PropOp52
 70
     0
102
RTVSPost2010Prop53
 90
        2
102
RTVSPost2010PropOp53
 70
     1
102
RTVSPost2010Prop54
  1
strokes_ogs.tif
102
RTVSPost2010PropOp54
 70
     1
102
RTVSPost2010Prop55
280
     0
102
RTVSPost2010PropOp55
 70
     1
102
RTVSPost2010Prop56
140
1.0
102
RTVSPost2010PropOp56
 70
     1
102
RTVSPost2010Prop57
140
1.0
102
RTVSPost2010PropOp57
 70
     1
102
RTVSPropertyOp0
 70
     1
102
RTVSPropertyOp1
 70
     1
102
RTVSPropertyOp2
 70
     1
102
RTVSPropertyOp3
 70
     1
102
RTVSPropertyOp4
 70
     1
102
RTVSPropertyOp5
 70
     1
102
RTVSPropertyOp6
 70
     1
102
RTVSPropertyOp7
 70
     1
102
RTVSPropertyOp8
 70
     1
102
RTVSPropertyOp9
 70
     1
102
RTVSPropertyOp10
 70
     1
102
RTVSPropertyOp11
 70
     1
102
RTVSPropertyOp12
 70
     1
102
RTVSPropertyOp13
 70
     1
102
RTVSPropertyOp14
 70
     1
102
RTVSPropertyOp15
 70
     1
102
RTVSPropertyOp16
 70
     1
102
RTVSPropertyOp17
 70
     1
102
RTVSPropertyOp18
 70
     1
102
RTVSPropertyOp19
 70
     1
102
RTVSPropertyOp20
 70
     1
102
RTVSPropertyOp21
 70
     1
102
RTVSPropertyOp22
 70
     1
102
RTVSPropertyOp23
 70
     1
102
RTVSPropertyOp24
 70
     1
102
RTVSPropertyOp25
 70
     1
102
RTVSPropertyOp26
 70
     1
102
RTVSPropertyOp27
 70
     1
102
RTVSPropertyOp28
 70
     1
102
RTVSPropertyOp29
 70
     1
102
RTVSPropertyOp30
 70
     1
102
RTVSPropertyOp31
 70
     1
102
RTVSPropertyOp32
 70
     1
102
RTVSPropertyOp33
 70
     1
102
RTVSPropertyOp34
 70
     1
102
RTVSPropertyOp35
 70
     1
102
RTVSPropertyOp36
 70
     1
102
RTVSPropertyOp37
 70
     1
102
RTVSPropertyOp38
 70
     1
102
RTVSPropertyOp39
 70
     1
102
RTVSPropertyOp40
 70
     1
102
RTVSPropertyOp41
 70
     1
102
RTVSPropertyOp42
 70
     1
102
RTVSPropertyOp43
 70
     1
102
RTVSPropertyOp44
 70
     1
102
RTVSPropertyOp45
 70
     1
102
RTVSPropertyOp46
 70
     1
102
RTVSPropertyOp47
 70
     1
102
RTVSPropertyOp48
 70
     1
102
RTVSPropertyOp49
 70
     1
102
RTVSPropertyOp50
 70
     1
102
RTVSPropertyOp51
 70
     0
102
RTVSPropertyOp52
 70
     0
102
RTVSPropertyOp53
 70
     1
102
RTVSPropertyOp54
 70
     1
102
RTVSPropertyOp55
 70
     1
102
RTVSPropertyOp56
 70
     1
102
RTVSPropertyOp57
 70
     1
102
RTVSPropertyOp58
 70
     1
102
RTVSPropertyOp59
 70
     1
102
RTVSPropertyOp60
 70
     1
102
RTVSPropertyOp61
 70
     1
102
RTVSPropertyOp62
 70
     1
  0
XRECORD
  5
B733
102
{ACAD_REACTORS
330
B732
102
}
330
B732
100
AcDbXrecord
280
     1
102
RTVSPost2010Prop28
280
     0
102
RTVSPost2010PropOp28
 70
     1
102
RTVSPost2010Prop29
280
     1
102
RTVSPost2010PropOp29
 70
     1
102
RTVSPost2010Prop30
280
     1
102
RTVSPost2010PropOp30
 70
     1
102
RTVSPost2010Prop31
280
     0
102
RTVSPost2010PropOp31
 70
     1
102
RTVSPost2010Prop32
280
     0
102
RTVSPost2010PropOp32
 70
     1
102
RTVSPost2010Prop33
280
     0
102
RTVSPost2010PropOp33
 70
     1
102
RTVSPost2010Prop34
280
     0
102
RTVSPost2010PropOp34
 70
     1
102
RTVSPost2010Prop35
280
     0
102
RTVSPost2010PropOp35
 70
     1
102
RTVSPost2010Prop36
280
     0
102
RTVSPost2010PropOp36
 70
     1
102
RTVSPost2010Prop37
 90
       50
102
RTVSPost2010PropOp37
 70
     1
102
RTVSPost2010Prop38
140
0.0
102
RTVSPost2010PropOp38
 70
     1
102
RTVSPost2010Prop39
140
1.0
102
RTVSPost2010PropOp39
 70
     1
102
RTVSPost2010Prop40
 90
        0
102
RTVSPost2010PropOp40
 70
     1
102
RTVSPost2010Prop41ColorIndex
 90
       18
102
RTVSPost2010Prop41ColorRGB
 90
        0
102
RTVSPost2010PropOp41
 70
     1
102
RTVSPost2010Prop42
 90
       50
102
RTVSPost2010PropOp42
 70
     1
102
RTVSPost2010Prop43
 90
        3
102
RTVSPost2010PropOp43
 70
     1
102
RTVSPost2010Prop44ColorIndex
 90
        5
102
RTVSPost2010Prop44ColorRGB
 90
      255
102
RTVSPost2010PropOp44
 70
     1
102
RTVSPost2010Prop45
280
     0
102
RTVSPost2010PropOp45
 70
     1
102
RTVSPost2010Prop46
 90
       50
102
RTVSPost2010PropOp46
 70
     1
102
RTVSPost2010Prop47
 90
       50
102
RTVSPost2010PropOp47
 70
     1
102
RTVSPost2010Prop48
 90
       50
102
RTVSPost2010PropOp48
 70
     1
102
RTVSPost2010Prop49
280
     0
102
RTVSPost2010PropOp49
 70
     1
102
RTVSPost2010Prop50
 90
       50
102
RTVSPost2010PropOp50
 70
     1
102
RTVSPost2010Prop51ColorIndex
 90
      256
102
RTVSPost2010Prop51ColorRGB
 90
-16777216
102
RTVSPost2010PropOp51
 70
     0
102
RTVSPost2010Prop52
140
1.0
102
RTVSPost2010PropOp52
 70
     0
102
RTVSPost2010Prop53
 90
        2
102
RTVSPost2010PropOp53
 70
     1
102
RTVSPost2010Prop54
  1
strokes_ogs.tif
102
RTVSPost2010PropOp54
 70
     1
102
RTVSPost2010Prop55
280
     0
102
RTVSPost2010PropOp55
 70
     1
102
RTVSPost2010Prop56
140
1.0
102
RTVSPost2010PropOp56
 70
     1
102
RTVSPost2010Prop57
140
1.0
102
RTVSPost2010PropOp57
 70
     1
102
RTVSPropertyOp0
 70
     1
102
RTVSPropertyOp1
 70
     1
102
RTVSPropertyOp2
 70
     1
102
RTVSPropertyOp3
 70
     1
102
RTVSPropertyOp4
 70
     1
102
RTVSPropertyOp5
 70
     1
102
RTVSPropertyOp6
 70
     1
102
RTVSPropertyOp7
 70
     1
102
RTVSPropertyOp8
 70
     1
102
RTVSPropertyOp9
 70
     1
102
RTVSPropertyOp10
 70
     1
102
RTVSPropertyOp11
 70
     1
102
RTVSPropertyOp12
 70
     1
102
RTVSPropertyOp13
 70
     1
102
RTVSPropertyOp14
 70
     1
102
RTVSPropertyOp15
 70
     1
102
RTVSPropertyOp16
 70
     1
102
RTVSPropertyOp17
 70
     1
102
RTVSPropertyOp18
 70
     1
102
RTVSPropertyOp19
 70
     1
102
RTVSPropertyOp20
 70
     1
102
RTVSPropertyOp21
 70
     1
102
RTVSPropertyOp22
 70
     1
102
RTVSPropertyOp23
 70
     1
102
RTVSPropertyOp24
 70
     1
102
RTVSPropertyOp25
 70
     1
102
RTVSPropertyOp26
 70
     1
102
RTVSPropertyOp27
 70
     1
102
RTVSPropertyOp28
 70
     1
102
RTVSPropertyOp29
 70
     1
102
RTVSPropertyOp30
 70
     1
102
RTVSPropertyOp31
 70
     1
102
RTVSPropertyOp32
 70
     1
102
RTVSPropertyOp33
 70
     1
102
RTVSPropertyOp34
 70
     1
102
RTVSPropertyOp35
 70
     1
102
RTVSPropertyOp36
 70
     1
102
RTVSPropertyOp37
 70
     1
102
RTVSPropertyOp38
 70
     1
102
RTVSPropertyOp39
 70
     1
102
RTVSPropertyOp40
 70
     1
102
RTVSPropertyOp41
 70
     1
102
RTVSPropertyOp42
 70
     1
102
RTVSPropertyOp43
 70
     1
102
RTVSPropertyOp44
 70
     1
102
RTVSPropertyOp45
 70
     1
102
RTVSPropertyOp46
 70
     1
102
RTVSPropertyOp47
 70
     1
102
RTVSPropertyOp48
 70
     1
102
RTVSPropertyOp49
 70
     1
102
RTVSPropertyOp50
 70
     1
102
RTVSPropertyOp51
 70
     0
102
RTVSPropertyOp52
 70
     0
102
RTVSPropertyOp53
 70
     1
102
RTVSPropertyOp54
 70
     1
102
RTVSPropertyOp55
 70
     1
102
RTVSPropertyOp56
 70
     1
102
RTVSPropertyOp57
 70
     1
102
RTVSPropertyOp58
 70
     1
102
RTVSPropertyOp59
 70
     1
102
RTVSPropertyOp60
 70
     1
102
RTVSPropertyOp61
 70
     1
102
RTVSPropertyOp62
 70
     1
  0
XRECORD
  5
B721
102
{ACAD_REACTORS
330
B720
102
}
330
B720
100
AcDbXrecord
280
     1
102
RTVSPost2010Prop28
280
     0
102
RTVSPost2010PropOp28
 70
     1
102
RTVSPost2010Prop29
280
     1
102
RTVSPost2010PropOp29
 70
     1
102
RTVSPost2010Prop30
280
     1
102
RTVSPost2010PropOp30
 70
     1
102
RTVSPost2010Prop31
280
     0
102
RTVSPost2010PropOp31
 70
     1
102
RTVSPost2010Prop32
280
     0
102
RTVSPost2010PropOp32
 70
     1
102
RTVSPost2010Prop33
280
     0
102
RTVSPost2010PropOp33
 70
     1
102
RTVSPost2010Prop34
280
     0
102
RTVSPost2010PropOp34
 70
     1
102
RTVSPost2010Prop35
280
     0
102
RTVSPost2010PropOp35
 70
     1
102
RTVSPost2010Prop36
280
     0
102
RTVSPost2010PropOp36
 70
     1
102
RTVSPost2010Prop37
 90
       50
102
RTVSPost2010PropOp37
 70
     1
102
RTVSPost2010Prop38
140
0.0
102
RTVSPost2010PropOp38
 70
     1
102
RTVSPost2010Prop39
140
1.0
102
RTVSPost2010PropOp39
 70
     1
102
RTVSPost2010Prop40
 90
        0
102
RTVSPost2010PropOp40
 70
     1
102
RTVSPost2010Prop41ColorIndex
 90
       18
102
RTVSPost2010Prop41ColorRGB
 90
        0
102
RTVSPost2010PropOp41
 70
     1
102
RTVSPost2010Prop42
 90
       50
102
RTVSPost2010PropOp42
 70
     1
102
RTVSPost2010Prop43
 90
        3
102
RTVSPost2010PropOp43
 70
     1
102
RTVSPost2010Prop44ColorIndex
 90
        5
102
RTVSPost2010Prop44ColorRGB
 90
      255
102
RTVSPost2010PropOp44
 70
     1
102
RTVSPost2010Prop45
280
     0
102
RTVSPost2010PropOp45
 70
     1
102
RTVSPost2010Prop46
 90
       50
102
RTVSPost2010PropOp46
 70
     1
102
RTVSPost2010Prop47
 90
       50
102
RTVSPost2010PropOp47
 70
     1
102
RTVSPost2010Prop48
 90
       50
102
RTVSPost2010PropOp48
 70
     1
102
RTVSPost2010Prop49
280
     0
102
RTVSPost2010PropOp49
 70
     1
102
RTVSPost2010Prop50
 90
       50
102
RTVSPost2010PropOp50
 70
     1
102
RTVSPost2010Prop51ColorIndex
 90
      256
102
RTVSPost2010Prop51ColorRGB
 90
-16777216
102
RTVSPost2010PropOp51
 70
     0
102
RTVSPost2010Prop52
140
1.0
102
RTVSPost2010PropOp52
 70
     0
102
RTVSPost2010Prop53
 90
        2
102
RTVSPost2010PropOp53
 70
     1
102
RTVSPost2010Prop54
  1
strokes_ogs.tif
102
RTVSPost2010PropOp54
 70
     1
102
RTVSPost2010Prop55
280
     0
102
RTVSPost2010PropOp55
 70
     1
102
RTVSPost2010Prop56
140
1.0
102
RTVSPost2010PropOp56
 70
     1
102
RTVSPost2010Prop57
140
1.0
102
RTVSPost2010PropOp57
 70
     1
102
RTVSPropertyOp0
 70
     1
102
RTVSPropertyOp1
 70
     1
102
RTVSPropertyOp2
 70
     1
102
RTVSPropertyOp3
 70
     1
102
RTVSPropertyOp4
 70
     1
102
RTVSPropertyOp5
 70
     1
102
RTVSPropertyOp6
 70
     1
102
RTVSPropertyOp7
 70
     1
102
RTVSPropertyOp8
 70
     1
102
RTVSPropertyOp9
 70
     1
102
RTVSPropertyOp10
 70
     1
102
RTVSPropertyOp11
 70
     1
102
RTVSPropertyOp12
 70
     1
102
RTVSPropertyOp13
 70
     1
102
RTVSPropertyOp14
 70
     1
102
RTVSPropertyOp15
 70
     1
102
RTVSPropertyOp16
 70
     1
102
RTVSPropertyOp17
 70
     1
102
RTVSPropertyOp18
 70
     1
102
RTVSPropertyOp19
 70
     1
102
RTVSPropertyOp20
 70
     1
102
RTVSPropertyOp21
 70
     1
102
RTVSPropertyOp22
 70
     1
102
RTVSPropertyOp23
 70
     1
102
RTVSPropertyOp24
 70
     1
102
RTVSPropertyOp25
 70
     1
102
RTVSPropertyOp26
 70
     1
102
RTVSPropertyOp27
 70
     1
102
RTVSPropertyOp28
 70
     1
102
RTVSPropertyOp29
 70
     1
102
RTVSPropertyOp30
 70
     1
102
RTVSPropertyOp31
 70
     1
102
RTVSPropertyOp32
 70
     1
102
RTVSPropertyOp33
 70
     1
102
RTVSPropertyOp34
 70
     1
102
RTVSPropertyOp35
 70
     1
102
RTVSPropertyOp36
 70
     1
102
RTVSPropertyOp37
 70
     1
102
RTVSPropertyOp38
 70
     1
102
RTVSPropertyOp39
 70
     1
102
RTVSPropertyOp40
 70
     1
102
RTVSPropertyOp41
 70
     1
102
RTVSPropertyOp42
 70
     1
102
RTVSPropertyOp43
 70
     1
102
RTVSPropertyOp44
 70
     1
102
RTVSPropertyOp45
 70
     1
102
RTVSPropertyOp46
 70
     1
102
RTVSPropertyOp47
 70
     1
102
RTVSPropertyOp48
 70
     1
102
RTVSPropertyOp49
 70
     1
102
RTVSPropertyOp50
 70
     1
102
RTVSPropertyOp51
 70
     0
102
RTVSPropertyOp52
 70
     0
102
RTVSPropertyOp53
 70
     1
102
RTVSPropertyOp54
 70
     1
102
RTVSPropertyOp55
 70
     1
102
RTVSPropertyOp56
 70
     1
102
RTVSPropertyOp57
 70
     1
102
RTVSPropertyOp58
 70
     1
102
RTVSPropertyOp59
 70
     1
102
RTVSPropertyOp60
 70
     1
102
RTVSPropertyOp61
 70
     1
102
RTVSPropertyOp62
 70
     1
  0
XRECORD
  5
B715
102
{ACAD_REACTORS
330
B714
102
}
330
B714
100
AcDbXrecord
280
     1
102
RTVSPost2010Prop28
280
     0
102
RTVSPost2010PropOp28
 70
     1
102
RTVSPost2010Prop29
280
     1
102
RTVSPost2010PropOp29
 70
     1
102
RTVSPost2010Prop30
280
     1
102
RTVSPost2010PropOp30
 70
     1
102
RTVSPost2010Prop31
280
     0
102
RTVSPost2010PropOp31
 70
     1
102
RTVSPost2010Prop32
280
     0
102
RTVSPost2010PropOp32
 70
     1
102
RTVSPost2010Prop33
280
     0
102
RTVSPost2010PropOp33
 70
     1
102
RTVSPost2010Prop34
280
     0
102
RTVSPost2010PropOp34
 70
     1
102
RTVSPost2010Prop35
280
     0
102
RTVSPost2010PropOp35
 70
     1
102
RTVSPost2010Prop36
280
     0
102
RTVSPost2010PropOp36
 70
     1
102
RTVSPost2010Prop37
 90
       50
102
RTVSPost2010PropOp37
 70
     1
102
RTVSPost2010Prop38
140
0.0
102
RTVSPost2010PropOp38
 70
     1
102
RTVSPost2010Prop39
140
1.0
102
RTVSPost2010PropOp39
 70
     1
102
RTVSPost2010Prop40
 90
        0
102
RTVSPost2010PropOp40
 70
     1
102
RTVSPost2010Prop41ColorIndex
 90
       18
102
RTVSPost2010Prop41ColorRGB
 90
        0
102
RTVSPost2010PropOp41
 70
     1
102
RTVSPost2010Prop42
 90
       50
102
RTVSPost2010PropOp42
 70
     1
102
RTVSPost2010Prop43
 90
        3
102
RTVSPost2010PropOp43
 70
     1
102
RTVSPost2010Prop44ColorIndex
 90
        5
102
RTVSPost2010Prop44ColorRGB
 90
      255
102
RTVSPost2010PropOp44
 70
     1
102
RTVSPost2010Prop45
280
     0
102
RTVSPost2010PropOp45
 70
     1
102
RTVSPost2010Prop46
 90
       50
102
RTVSPost2010PropOp46
 70
     1
102
RTVSPost2010Prop47
 90
       50
102
RTVSPost2010PropOp47
 70
     1
102
RTVSPost2010Prop48
 90
       50
102
RTVSPost2010PropOp48
 70
     1
102
RTVSPost2010Prop49
280
     0
102
RTVSPost2010PropOp49
 70
     1
102
RTVSPost2010Prop50
 90
       50
102
RTVSPost2010PropOp50
 70
     1
102
RTVSPost2010Prop51ColorIndex
 90
      256
102
RTVSPost2010Prop51ColorRGB
 90
-16777216
102
RTVSPost2010PropOp51
 70
     0
102
RTVSPost2010Prop52
140
1.0
102
RTVSPost2010PropOp52
 70
     0
102
RTVSPost2010Prop53
 90
        2
102
RTVSPost2010PropOp53
 70
     1
102
RTVSPost2010Prop54
  1
strokes_ogs.tif
102
RTVSPost2010PropOp54
 70
     1
102
RTVSPost2010Prop55
280
     0
102
RTVSPost2010PropOp55
 70
     1
102
RTVSPost2010Prop56
140
1.0
102
RTVSPost2010PropOp56
 70
     1
102
RTVSPost2010Prop57
140
1.0
102
RTVSPost2010PropOp57
 70
     1
102
RTVSPropertyOp0
 70
     1
102
RTVSPropertyOp1
 70
     1
102
RTVSPropertyOp2
 70
     1
102
RTVSPropertyOp3
 70
     1
102
RTVSPropertyOp4
 70
     1
102
RTVSPropertyOp5
 70
     1
102
RTVSPropertyOp6
 70
     1
102
RTVSPropertyOp7
 70
     1
102
RTVSPropertyOp8
 70
     1
102
RTVSPropertyOp9
 70
     1
102
RTVSPropertyOp10
 70
     1
102
RTVSPropertyOp11
 70
     1
102
RTVSPropertyOp12
 70
     1
102
RTVSPropertyOp13
 70
     1
102
RTVSPropertyOp14
 70
     1
102
RTVSPropertyOp15
 70
     1
102
RTVSPropertyOp16
 70
     1
102
RTVSPropertyOp17
 70
     1
102
RTVSPropertyOp18
 70
     1
102
RTVSPropertyOp19
 70
     1
102
RTVSPropertyOp20
 70
     1
102
RTVSPropertyOp21
 70
     1
102
RTVSPropertyOp22
 70
     1
102
RTVSPropertyOp23
 70
     1
102
RTVSPropertyOp24
 70
     1
102
RTVSPropertyOp25
 70
     1
102
RTVSPropertyOp26
 70
     1
102
RTVSPropertyOp27
 70
     1
102
RTVSPropertyOp28
 70
     1
102
RTVSPropertyOp29
 70
     1
102
RTVSPropertyOp30
 70
     1
102
RTVSPropertyOp31
 70
     1
102
RTVSPropertyOp32
 70
     1
102
RTVSPropertyOp33
 70
     1
102
RTVSPropertyOp34
 70
     1
102
RTVSPropertyOp35
 70
     1
102
RTVSPropertyOp36
 70
     1
102
RTVSPropertyOp37
 70
     1
102
RTVSPropertyOp38
 70
     1
102
RTVSPropertyOp39
 70
     1
102
RTVSPropertyOp40
 70
     1
102
RTVSPropertyOp41
 70
     1
102
RTVSPropertyOp42
 70
     1
102
RTVSPropertyOp43
 70
     1
102
RTVSPropertyOp44
 70
     1
102
RTVSPropertyOp45
 70
     1
102
RTVSPropertyOp46
 70
     1
102
RTVSPropertyOp47
 70
     1
102
RTVSPropertyOp48
 70
     1
102
RTVSPropertyOp49
 70
     1
102
RTVSPropertyOp50
 70
     1
102
RTVSPropertyOp51
 70
     0
102
RTVSPropertyOp52
 70
     0
102
RTVSPropertyOp53
 70
     1
102
RTVSPropertyOp54
 70
     1
102
RTVSPropertyOp55
 70
     1
102
RTVSPropertyOp56
 70
     1
102
RTVSPropertyOp57
 70
     1
102
RTVSPropertyOp58
 70
     1
102
RTVSPropertyOp59
 70
     1
102
RTVSPropertyOp60
 70
     1
102
RTVSPropertyOp61
 70
     1
102
RTVSPropertyOp62
 70
     1
  0
XRECORD
  5
B735
102
{ACAD_REACTORS
330
B734
102
}
330
B734
100
AcDbXrecord
280
     1
102
RTVSPost2010Prop28
280
     0
102
RTVSPost2010PropOp28
 70
     1
102
RTVSPost2010Prop29
280
     1
102
RTVSPost2010PropOp29
 70
     1
102
RTVSPost2010Prop30
280
     1
102
RTVSPost2010PropOp30
 70
     1
102
RTVSPost2010Prop31
280
     0
102
RTVSPost2010PropOp31
 70
     1
102
RTVSPost2010Prop32
280
     0
102
RTVSPost2010PropOp32
 70
     1
102
RTVSPost2010Prop33
280
     0
102
RTVSPost2010PropOp33
 70
     1
102
RTVSPost2010Prop34
280
     0
102
RTVSPost2010PropOp34
 70
     1
102
RTVSPost2010Prop35
280
     0
102
RTVSPost2010PropOp35
 70
     1
102
RTVSPost2010Prop36
280
     0
102
RTVSPost2010PropOp36
 70
     1
102
RTVSPost2010Prop37
 90
       50
102
RTVSPost2010PropOp37
 70
     1
102
RTVSPost2010Prop38
140
0.0
102
RTVSPost2010PropOp38
 70
     1
102
RTVSPost2010Prop39
140
1.0
102
RTVSPost2010PropOp39
 70
     1
102
RTVSPost2010Prop40
 90
        0
102
RTVSPost2010PropOp40
 70
     1
102
RTVSPost2010Prop41ColorIndex
 90
       18
102
RTVSPost2010Prop41ColorRGB
 90
        0
102
RTVSPost2010PropOp41
 70
     1
102
RTVSPost2010Prop42
 90
       50
102
RTVSPost2010PropOp42
 70
     1
102
RTVSPost2010Prop43
 90
        3
102
RTVSPost2010PropOp43
 70
     1
102
RTVSPost2010Prop44ColorIndex
 90
        5
102
RTVSPost2010Prop44ColorRGB
 90
      255
102
RTVSPost2010PropOp44
 70
     1
102
RTVSPost2010Prop45
280
     0
102
RTVSPost2010PropOp45
 70
     1
102
RTVSPost2010Prop46
 90
       50
102
RTVSPost2010PropOp46
 70
     1
102
RTVSPost2010Prop47
 90
       50
102
RTVSPost2010PropOp47
 70
     1
102
RTVSPost2010Prop48
 90
       50
102
RTVSPost2010PropOp48
 70
     1
102
RTVSPost2010Prop49
280
     0
102
RTVSPost2010PropOp49
 70
     1
102
RTVSPost2010Prop50
 90
       50
102
RTVSPost2010PropOp50
 70
     1
102
RTVSPost2010Prop51ColorIndex
 90
      256
102
RTVSPost2010Prop51ColorRGB
 90
-16777216
102
RTVSPost2010PropOp51
 70
     0
102
RTVSPost2010Prop52
140
1.0
102
RTVSPost2010PropOp52
 70
     0
102
RTVSPost2010Prop53
 90
        2
102
RTVSPost2010PropOp53
 70
     1
102
RTVSPost2010Prop54
  1
strokes_ogs.tif
102
RTVSPost2010PropOp54
 70
     1
102
RTVSPost2010Prop55
280
     0
102
RTVSPost2010PropOp55
 70
     1
102
RTVSPost2010Prop56
140
1.0
102
RTVSPost2010PropOp56
 70
     1
102
RTVSPost2010Prop57
140
1.0
102
RTVSPost2010PropOp57
 70
     1
102
RTVSPropertyOp0
 70
     1
102
RTVSPropertyOp1
 70
     1
102
RTVSPropertyOp2
 70
     1
102
RTVSPropertyOp3
 70
     1
102
RTVSPropertyOp4
 70
     1
102
RTVSPropertyOp5
 70
     1
102
RTVSPropertyOp6
 70
     1
102
RTVSPropertyOp7
 70
     1
102
RTVSPropertyOp8
 70
     1
102
RTVSPropertyOp9
 70
     1
102
RTVSPropertyOp10
 70
     1
102
RTVSPropertyOp11
 70
     1
102
RTVSPropertyOp12
 70
     1
102
RTVSPropertyOp13
 70
     1
102
RTVSPropertyOp14
 70
     1
102
RTVSPropertyOp15
 70
     1
102
RTVSPropertyOp16
 70
     1
102
RTVSPropertyOp17
 70
     1
102
RTVSPropertyOp18
 70
     1
102
RTVSPropertyOp19
 70
     1
102
RTVSPropertyOp20
 70
     1
102
RTVSPropertyOp21
 70
     1
102
RTVSPropertyOp22
 70
     1
102
RTVSPropertyOp23
 70
     1
102
RTVSPropertyOp24
 70
     1
102
RTVSPropertyOp25
 70
     1
102
RTVSPropertyOp26
 70
     1
102
RTVSPropertyOp27
 70
     1
102
RTVSPropertyOp28
 70
     1
102
RTVSPropertyOp29
 70
     1
102
RTVSPropertyOp30
 70
     1
102
RTVSPropertyOp31
 70
     1
102
RTVSPropertyOp32
 70
     1
102
RTVSPropertyOp33
 70
     1
102
RTVSPropertyOp34
 70
     1
102
RTVSPropertyOp35
 70
     1
102
RTVSPropertyOp36
 70
     1
102
RTVSPropertyOp37
 70
     1
102
RTVSPropertyOp38
 70
     1
102
RTVSPropertyOp39
 70
     1
102
RTVSPropertyOp40
 70
     1
102
RTVSPropertyOp41
 70
     1
102
RTVSPropertyOp42
 70
     1
102
RTVSPropertyOp43
 70
     1
102
RTVSPropertyOp44
 70
     1
102
RTVSPropertyOp45
 70
     1
102
RTVSPropertyOp46
 70
     1
102
RTVSPropertyOp47
 70
     1
102
RTVSPropertyOp48
 70
     1
102
RTVSPropertyOp49
 70
     1
102
RTVSPropertyOp50
 70
     1
102
RTVSPropertyOp51
 70
     0
102
RTVSPropertyOp52
 70
     0
102
RTVSPropertyOp53
 70
     1
102
RTVSPropertyOp54
 70
     1
102
RTVSPropertyOp55
 70
     1
102
RTVSPropertyOp56
 70
     1
102
RTVSPropertyOp57
 70
     1
102
RTVSPropertyOp58
 70
     1
102
RTVSPropertyOp59
 70
     1
102
RTVSPropertyOp60
 70
     1
102
RTVSPropertyOp61
 70
     1
102
RTVSPropertyOp62
 70
     1
  0
ENDSEC
  0
EOF
