  0
SECTION
  2
HEADER
  9
$ACADVER
  1
AC1015
  9
$ACADMAINTVER
 70
    18
  9
$DWGCODEPAGE
  3
ANSI_1252
  9
$INSBASE
 10
0.0
 20
0.0
 30
0.0
  9
$EXTMIN
 10
-238.1277458813597
 20
-319.9810635237734
 30
-0.0015258207003583
  9
$EXTMAX
 10
314.3975838627639
 20
346.6102760178156
 30
0.0000000349246037
  9
$LIMMIN
 10
0.0
 20
0.0
  9
$LIMMAX
 10
420.0
 20
297.0
  9
$ORTHOMODE
 70
     0
  9
$REGENMODE
 70
     1
  9
$FILLMODE
 70
     1
  9
$QTEXTMODE
 70
     0
  9
$MIRRTEXT
 70
     0
  9
$LTSCALE
 40
1.0
  9
$ATTMODE
 70
     1
  9
$TEXTSIZE
 40
2.5
  9
$TRACEWID
 40
1.0
  9
$TEXTSTYLE
  7
Standard
  9
$CLAYER
  8
0
  9
$CELTYPE
  6
ByLayer
  9
$CECOLOR
 62
   256
  9
$CELTSCALE
 40
1.0
  9
$DISPSILH
 70
     0
  9
$DIMSCALE
 40
1.0
  9
$DIMASZ
 40
2.5
  9
$DIMEXO
 40
0.625
  9
$DIMDLI
 40
3.75
  9
$DIMRND
 40
0.0
  9
$DIMDLE
 40
0.0
  9
$DIMEXE
 40
1.25
  9
$DIMTP
 40
0.0
  9
$DIMTM
 40
0.0
  9
$DIMTXT
 40
2.5
  9
$DIMCEN
 40
2.5
  9
$DIMTSZ
 40
0.0
  9
$DIMTOL
 70
     0
  9
$DIMLIM
 70
     0
  9
$DIMTIH
 70
     0
  9
$DIMTOH
 70
     0
  9
$DIMSE1
 70
     0
  9
$DIMSE2
 70
     0
  9
$DIMTAD
 70
     1
  9
$DIMZIN
 70
     8
  9
$DIMBLK
  1

  9
$DIMASO
 70
     1
  9
$DIMSHO
 70
     1
  9
$DIMPOST
  1

  9
$DIMAPOST
  1

  9
$DIMALT
 70
     0
  9
$DIMALTD
 70
     3
  9
$DIMALTF
 40
0.03937007874016
  9
$DIMLFAC
 40
1.0
  9
$DIMTOFL
 70
     1
  9
$DIMTVP
 40
0.0
  9
$DIMTIX
 70
     0
  9
$DIMSOXD
 70
     0
  9
$DIMSAH
 70
     0
  9
$DIMBLK1
  1

  9
$DIMBLK2
  1

  9
$DIMSTYLE
  2
ISO-25
  9
$DIMCLRD
 70
     0
  9
$DIMCLRE
 70
     0
  9
$DIMCLRT
 70
     0
  9
$DIMTFAC
 40
1.0
  9
$DIMGAP
 40
0.625
  9
$DIMJUST
 70
     0
  9
$DIMSD1
 70
     0
  9
$DIMSD2
 70
     0
  9
$DIMTOLJ
 70
     0
  9
$DIMTZIN
 70
     8
  9
$DIMALTZ
 70
     0
  9
$DIMALTTZ
 70
     0
  9
$DIMUPT
 70
     0
  9
$DIMDEC
 70
     2
  9
$DIMTDEC
 70
     2
  9
$DIMALTU
 70
     2
  9
$DIMALTTD
 70
     3
  9
$DIMTXSTY
  7
Standard
  9
$DIMAUNIT
 70
     0
  9
$DIMADEC
 70
     0
  9
$DIMALTRND
 40
0.0
  9
$DIMAZIN
 70
     0
  9
$DIMDSEP
 70
    44
  9
$DIMATFIT
 70
     3
  9
$DIMFRAC
 70
     0
  9
$DIMLDRBLK
  1

  9
$DIMLUNIT
 70
     2
  9
$DIMLWD
 70
    -2
  9
$DIMLWE
 70
    -2
  9
$DIMTMOVE
 70
     0
  9
$LUNITS
 70
     2
  9
$LUPREC
 70
     4
  9
$SKETCHINC
 40
1.0
  9
$FILLETRAD
 40
0.0
  9
$AUNITS
 70
     0
  9
$AUPREC
 70
     0
  9
$MENU
  1
.
  9
$ELEVATION
 40
0.0
  9
$PELEVATION
 40
0.0
  9
$THICKNESS
 40
0.0
  9
$LIMCHECK
 70
     0
  9
$CHAMFERA
 40
0.0
  9
$CHAMFERB
 40
0.0
  9
$CHAMFERC
 40
0.0
  9
$CHAMFERD
 40
0.0
  9
$SKPOLY
 70
     0
  9
$TDCREATE
 40
2460398.356956019
  9
$TDUCREATE
 40
2460398.065289352
  9
$TDUPDATE
 40
2460398.376006945
  9
$TDUUPDATE
 40
2460398.084340278
  9
$TDINDWG
 40
0.0079513889
  9
$TDUSRTIMER
 40
0.0079513889
  9
$USRTIMER
 70
     1
  9
$ANGBASE
 50
0.0
  9
$ANGDIR
 70
     0
  9
$PDMODE
 70
     0
  9
$PDSIZE
 40
0.0
  9
$PLINEWID
 40
0.0
  9
$SPLFRAME
 70
     0
  9
$SPLINETYPE
 70
     6
  9
$SPLINESEGS
 70
     8
  9
$HANDSEED
  5
B9A0
  9
$SURFTAB1
 70
     6
  9
$SURFTAB2
 70
     6
  9
$SURFTYPE
 70
     6
  9
$SURFU
 70
     6
  9
$SURFV
 70
     6
  9
$UCSBASE
  2

  9
$UCSNAME
  2

  9
$UCSORG
 10
0.0
 20
0.0
 30
0.0
  9
$UCSXDIR
 10
1.0
 20
0.0
 30
0.0
  9
$UCSYDIR
 10
0.0
 20
1.0
 30
0.0
  9
$UCSORTHOREF
  2

  9
$UCSORTHOVIEW
 70
     0
  9
$UCSORGTOP
 10
0.0
 20
0.0
 30
0.0
  9
$UCSORGBOTTOM
 10
0.0
 20
0.0
 30
0.0
  9
$UCSORGLEFT
 10
0.0
 20
0.0
 30
0.0
  9
$UCSORGRIGHT
 10
0.0
 20
0.0
 30
0.0
  9
$UCSORGFRONT
 10
0.0
 20
0.0
 30
0.0
  9
$UCSORGBACK
 10
0.0
 20
0.0
 30
0.0
  9
$PUCSBASE
  2

  9
$PUCSNAME
  2

  9
$PUCSORG
 10
0.0
 20
0.0
 30
0.0
  9
$PUCSXDIR
 10
1.0
 20
0.0
 30
0.0
  9
$PUCSYDIR
 10
0.0
 20
1.0
 30
0.0
  9
$PUCSORTHOREF
  2

  9
$PUCSORTHOVIEW
 70
     0
  9
$PUCSORGTOP
 10
0.0
 20
0.0
 30
0.0
  9
$PUCSORGBOTTOM
 10
0.0
 20
0.0
 30
0.0
  9
$PUCSORGLEFT
 10
0.0
 20
0.0
 30
0.0
  9
$PUCSORGRIGHT
 10
0.0
 20
0.0
 30
0.0
  9
$PUCSORGFRONT
 10
0.0
 20
0.0
 30
0.0
  9
$PUCSORGBACK
 10
0.0
 20
0.0
 30
0.0
  9
$USERI1
 70
     0
  9
$USERI2
 70
     0
  9
$USERI3
 70
     0
  9
$USERI4
 70
     0
  9
$USERI5
 70
     0
  9
$USERR1
 40
0.0
  9
$USERR2
 40
0.0
  9
$USERR3
 40
0.0
  9
$USERR4
 40
0.0
  9
$USERR5
 40
0.0
  9
$WORLDVIEW
 70
     1
  9
$SHADEDGE
 70
     3
  9
$SHADEDIF
 70
    70
  9
$TILEMODE
 70
     1
  9
$MAXACTVP
 70
    48
  9
$PINSBASE
 10
0.0
 20
0.0
 30
0.0
  9
$PLIMCHECK
 70
     0
  9
$PEXTMIN
 10
0.0
 20
0.0
 30
0.0
  9
$PEXTMAX
 10
0.0
 20
0.0
 30
0.0
  9
$PLIMMIN
 10
0.0
 20
0.0
  9
$PLIMMAX
 10
12.0
 20
9.0
  9
$UNITMODE
 70
     0
  9
$VISRETAIN
 70
     1
  9
$PLINEGEN
 70
     0
  9
$PSLTSCALE
 70
     1
  9
$TREEDEPTH
 70
  3020
  9
$CMLSTYLE
  2
Standard
  9
$CMLJUST
 70
     0
  9
$CMLSCALE
 40
20.0
  9
$PROXYGRAPHICS
 70
     1
  9
$MEASUREMENT
 70
     1
  9
$CELWEIGHT
370
    -1
  9
$ENDCAPS
280
     0
  9
$JOINSTYLE
280
     0
  9
$LWDISPLAY
290
     0
  9
$INSUNITS
 70
     4
  9
$HYPERLINKBASE
  1

  9
$STYLESHEET
  1

  9
$XEDIT
290
     1
  9
$CEPSNTYPE
380
     0
  9
$PSTYLEMODE
290
     1
  9
$FINGERPRINTGUID
  2
{6C1266EE-7BC1-BF4A-B059-A6E7702B10CE}
  9
$VERSIONGUID
  2
{9CACDFEE-C233-1F4C-9E21-A63DDAA26540}
  9
$EXTNAMES
290
     1
  9
$PSVPSCALE
 40
0.0
  9
$OLESTARTUP
290
     0
  0
ENDSEC
  0
SECTION
  2
CLASSES
  0
CLASS
  1
ACDBDICTIONARYWDFLT
  2
AcDbDictionaryWithDefault
  3
ObjectDBX Classes
 90
        0
280
     0
281
     0
  0
CLASS
  1
ACDBPLACEHOLDER
  2
AcDbPlaceHolder
  3
ObjectDBX Classes
 90
        0
280
     0
281
     0
  0
CLASS
  1
LAYOUT
  2
AcDbLayout
  3
ObjectDBX Classes
 90
        0
280
     0
281
     0
  0
CLASS
  1
DICTIONARYVAR
  2
AcDbDictionaryVar
  3
ObjectDBX Classes
 90
        0
280
     0
281
     0
  0
CLASS
  1
TABLESTYLE
  2
AcDbTableStyle
  3
ObjectDBX Classes
 90
     4095
280
     0
281
     0
  0
CLASS
  1
MATERIAL
  2
AcDbMaterial
  3
ObjectDBX Classes
 90
     1153
280
     0
281
     0
  0
CLASS
  1
VISUALSTYLE
  2
AcDbVisualStyle
  3
ObjectDBX Classes
 90
     4095
280
     0
281
     0
  0
CLASS
  1
SCALE
  2
AcDbScale
  3
ObjectDBX Classes
 90
     1153
280
     0
281
     0
  0
CLASS
  1
MLEADERSTYLE
  2
AcDbMLeaderStyle
  3
ACDB_MLEADERSTYLE_CLASS
 90
     4095
280
     0
281
     0
  0
CLASS
  1
CELLSTYLEMAP
  2
AcDbCellStyleMap
  3
ObjectDBX Classes
 90
     1152
280
     0
281
     0
  0
CLASS
  1
EXACXREFPANELOBJECT
  2
ExAcXREFPanelObject
  3
EXAC_ESW
 90
    33793
280
     0
281
     0
  0
CLASS
  1
NPOCOLLECTION
  2
AcDbImpNonPersistentObjectsCollection
  3
ObjectDBX Classes
 90
    33921
280
     0
281
     0
  0
CLASS
  1
LAYER_INDEX
  2
AcDbLayerIndex
  3
ObjectDBX Classes
 90
    32768
280
     0
281
     0
  0
CLASS
  1
SPATIAL_INDEX
  2
AcDbSpatialIndex
  3
ObjectDBX Classes
 90
    32768
280
     0
281
     0
  0
CLASS
  1
IDBUFFER
  2
AcDbIdBuffer
  3
ObjectDBX Classes
 90
    32768
280
     0
281
     0
  0
CLASS
  1
ACDBSECTIONVIEWSTYLE
  2
AcDbSectionViewStyle
  3
ObjectDBX Classes
 90
     1025
280
     0
281
     0
  0
CLASS
  1
ACDBDETAILVIEWSTYLE
  2
AcDbDetailViewStyle
  3
ObjectDBX Classes
 90
     1025
280
     0
281
     0
  0
CLASS
  1
XRECORD
  2
AcDbXrecord
  3
ObjectDBX Classes
 90
        0
280
     0
281
     0
  0
ENDSEC
  0
SECTION
  2
TABLES
  0
TABLE
  2
VPORT
  5
8
102
{ACAD_XDICTIONARY
360
B8AE
102
}
330
0
100
AcDbSymbolTable
 70
     1
  0
VPORT
  5
EA
330
8
100
AcDbSymbolTableRecord
100
AcDbViewportTableRecord
  2
*Active
 70
     0
 10
0.0
 20
0.0
 11
1.0
 21
1.0
 12
38.1349189907021
 22
13.31460624702112
 13
0.0
 23
0.0
 14
10.0
 24
10.0
 15
10.0
 25
10.0
 16
0.0
 26
0.0
 36
1.0
 17
0.0
 27
0.0
 37
0.0
 40
708.8594808848945
 41
0.9846153846153846
 42
50.0
 43
0.0
 44
0.0
 50
0.0
 51
0.0
 71
     0
 72
  1000
 73
     1
 74
     3
 75
     0
 76
     1
 77
     0
 78
     0
281
     0
 65
     1
110
0.0
120
0.0
130
0.0
111
1.0
121
0.0
131
0.0
112
0.0
122
1.0
132
0.0
 79
     0
146
0.0
1001
ACAD_NAV_VCDISPLAY
1070
     3
  0
ENDTAB
  0
TABLE
  2
LTYPE
  5
5
330
0
100
AcDbSymbolTable
 70
     1
  0
LTYPE
  5
14
330
5
100
AcDbSymbolTableRecord
100
AcDbLinetypeTableRecord
  2
ByBlock
 70
     0
  3

 72
    65
 73
     0
 40
0.0
  0
LTYPE
  5
15
330
5
100
AcDbSymbolTableRecord
100
AcDbLinetypeTableRecord
  2
ByLayer
 70
     0
  3

 72
    65
 73
     0
 40
0.0
  0
LTYPE
  5
16
330
5
100
AcDbSymbolTableRecord
100
AcDbLinetypeTableRecord
  2
Continuous
 70
     0
  3
Solid line
 72
    65
 73
     0
 40
0.0
  0
ENDTAB
  0
TABLE
  2
LAYER
  5
2
102
{ACAD_XDICTIONARY
360
1FF
102
}
330
0
100
AcDbSymbolTable
 70
     1
  0
LAYER
  5
10
102
{ACAD_XDICTIONARY
360
13C
102
}
330
2
100
AcDbSymbolTableRecord
100
AcDbLayerTableRecord
  2
0
 70
     0
 62
     7
  6
Continuous
370
    -3
390
F
  0
ENDTAB
  0
TABLE
  2
STYLE
  5
3
330
0
100
AcDbSymbolTable
 70
     1
  0
STYLE
  5
11
330
3
100
AcDbSymbolTableRecord
100
AcDbTextStyleTableRecord
  2
Standard
 70
     0
 40
0.0
 41
1.0
 50
0.0
 71
     0
 42
2.5
  3
arial.ttf
  4

1001
ACAD
1000
Arial
1071
       34
  0
ENDTAB
  0
TABLE
  2
VIEW
  5
6
330
0
100
AcDbSymbolTable
 70
     0
  0
ENDTAB
  0
TABLE
  2
UCS
  5
7
330
0
100
AcDbSymbolTable
 70
     0
  0
ENDTAB
  0
TABLE
  2
APPID
  5
9
330
0
100
AcDbSymbolTable
 70
     8
  0
APPID
  5
12
330
9
100
AcDbSymbolTableRecord
100
AcDbRegAppTableRecord
  2
ACAD
 70
     0
  0
APPID
  5
9E
330
9
100
AcDbSymbolTableRecord
100
AcDbRegAppTableRecord
  2
ACAD_PSEXT
 70
     0
  0
APPID
  5
133
330
9
100
AcDbSymbolTableRecord
100
AcDbRegAppTableRecord
  2
AcadAnnoPO
 70
     0
  0
APPID
  5
134
330
9
100
AcDbSymbolTableRecord
100
AcDbRegAppTableRecord
  2
AcadAnnotative
 70
     0
  0
APPID
  5
135
330
9
100
AcDbSymbolTableRecord
100
AcDbRegAppTableRecord
  2
ACAD_DSTYLE_DIMJAG
 70
     0
  0
APPID
  5
136
330
9
100
AcDbSymbolTableRecord
100
AcDbRegAppTableRecord
  2
ACAD_DSTYLE_DIMTALN
 70
     0
  0
APPID
  5
165
330
9
100
AcDbSymbolTableRecord
100
AcDbRegAppTableRecord
  2
ACAD_MLEADERVER
 70
     0
  0
APPID
  5
217
330
9
100
AcDbSymbolTableRecord
100
AcDbRegAppTableRecord
  2
ACAD_NAV_VCDISPLAY
 70
     0
  0
ENDTAB
  0
TABLE
  2
DIMSTYLE
  5
A
330
0
100
AcDbSymbolTable
 70
     1
100
AcDbDimStyleTable
 71
     0
  0
DIMSTYLE
105
27
330
A
100
AcDbSymbolTableRecord
100
AcDbDimStyleTableRecord
  2
ISO-25
 70
     0
 41
2.5
 42
0.625
 43
3.75
 44
1.25
 73
     0
 74
     0
 77
     1
 78
     8
140
2.5
141
2.5
143
0.03937007874016
147
0.625
171
     3
172
     1
271
     2
272
     2
274
     3
278
    44
283
     0
284
     8
340
11
  0
ENDTAB
  0
TABLE
  2
BLOCK_RECORD
  5
1
330
0
100
AcDbSymbolTable
 70
     7
  0
BLOCK_RECORD
  5
1F
102
{ACAD_XDICTIONARY
360
1CE
102
}
330
1
100
AcDbSymbolTableRecord
100
AcDbBlockTableRecord
  2
*Model_Space
340
22
  0
BLOCK_RECORD
  5
D2
102
{ACAD_XDICTIONARY
360
B861
102
}
330
1
100
AcDbSymbolTableRecord
100
AcDbBlockTableRecord
  2
*Paper_Space
340
D3
  0
BLOCK_RECORD
  5
D6
102
{ACAD_XDICTIONARY
360
B863
102
}
330
1
100
AcDbSymbolTableRecord
100
AcDbBlockTableRecord
  2
*Paper_Space0
340
D7
  0
BLOCK_RECORD
  5
B6AD
330
1
100
AcDbSymbolTableRecord
100
AcDbBlockTableRecord
  2
SAE500_100_2-Front
340
0
102
{BLKREFS
331
B857
102
}
  0
BLOCK_RECORD
  5
B710
330
1
100
AcDbSymbolTableRecord
100
AcDbBlockTableRecord
  2
SAE500_100_2-Left
340
0
102
{BLKREFS
331
B858
102
}
  0
BLOCK_RECORD
  5
B734
330
1
100
AcDbSymbolTableRecord
100
AcDbBlockTableRecord
  2
SAE500_100_2-Right
340
0
102
{BLKREFS
331
B859
102
}
  0
BLOCK_RECORD
  5
B757
330
1
100
AcDbSymbolTableRecord
100
AcDbBlockTableRecord
  2
SAE500_100_2-Top
340
0
102
{BLKREFS
331
B85A
102
}
  0
BLOCK_RECORD
  5
B78A
330
1
100
AcDbSymbolTableRecord
100
AcDbBlockTableRecord
  2
SAE500_100_2-Bottom
340
0
102
{BLKREFS
331
B85B
102
}
  0
BLOCK_RECORD
  5
B7AE
330
1
100
AcDbSymbolTableRecord
100
AcDbBlockTableRecord
  2
SAE500_100_2-ISO
340
0
102
{BLKREFS
331
B85C
102
}
  0
ENDTAB
  0
ENDSEC
  0
SECTION
  2
BLOCKS
  0
BLOCK
  5
20
330
1F
100
AcDbEntity
  8
0
100
AcDbBlockBegin
  2
*Model_Space
 70
     0
 10
0.0
 20
0.0
 30
0.0
  3
*Model_Space
  1

  0
ENDBLK
  5
21
330
1F
100
AcDbEntity
  8
0
100
AcDbBlockEnd
  0
BLOCK
  5
D4
330
D2
100
AcDbEntity
 67
     1
  8
0
100
AcDbBlockBegin
  2
*Paper_Space
 70
     0
 10
0.0
 20
0.0
 30
0.0
  3
*Paper_Space
  1

  0
ENDBLK
  5
D5
330
D2
100
AcDbEntity
 67
     1
  8
0
100
AcDbBlockEnd
  0
BLOCK
  5
D8
330
D6
100
AcDbEntity
 67
     1
  8
0
100
AcDbBlockBegin
  2
*Paper_Space0
 70
     0
 10
0.0
 20
0.0
 30
0.0
  3
*Paper_Space0
  1

  0
ENDBLK
  5
D9
330
D6
100
AcDbEntity
 67
     1
  8
0
100
AcDbBlockEnd
  0
BLOCK
  5
B6AE
330
B6AD
100
AcDbEntity
  8
0
100
AcDbBlockBegin
  2
SAE500_100_2-Front
 70
     0
 10
0.0
 20
0.0
 30
0.0
  3
SAE500_100_2-Front
  1

  0
SPLINE
  5
B6B0
330
B6AD
100
AcDbEntity
  8
0
100
AcDbSpline
210
0.0
220
0.0
230
1.0
 70
     8
 71
     3
 72
    17
 73
    13
 74
     0
 42
0.000000001
 43
0.0000000001
 40
0.0
 40
0.0
 40
0.0
 40
0.0
 40
0.3690626432202771
 40
0.3690626432202771
 40
0.3690626432202771
 40
0.6936378220045477
 40
0.6936378220045477
 40
0.6936378220045477
 40
0.9219545386503819
 40
0.9219545386503819
 40
0.9219545386503819
 40
0.9831227882111171
 40
0.9831227882111171
 40
0.9831227882111171
 40
0.9831227882111171
 10
54.66666666666669
 20
15.37499999999997
 30
0.0
 10
54.31083458278063
 20
15.11172135805048
 30
0.0
 10
53.85987304241279
 20
14.90773000725048
 30
0.0
 10
53.42414735817492
 20
14.68602723250128
 30
0.0
 10
53.04094481936367
 20
14.4910489027432
 30
0.0
 10
52.67697529432242
 20
14.28354840176363
 30
0.0
 10
52.41326214680981
 20
14.00806212759399
 30
0.0
 10
52.22775775857549
 20
13.81427613990695
 30
0.0
 10
52.08930240206672
 20
13.57964051224823
 30
0.0
 10
52.03081927693739
 20
13.30459395175523
 30
0.0
 10
52.01515108388718
 20
13.23090632651158
 30
0.0
 10
52.00510998180731
 20
13.15695718465428
 30
0.0
 10
52.00150118901344
 20
13.07251156890927
 30
0.0
  0
LINE
  5
B6B1
330
B6AD
100
AcDbEntity
  8
0
100
AcDbLine
 10
54.0
 20
15.37499999999999
 30
0.0
 11
54.60207915056965
 21
15.37499999999999
 31
0.0
  0
LINE
  5
B6B2
330
B6AD
100
AcDbEntity
  8
0
100
AcDbLine
 10
53.91555343255307
 20
15.37499999999999
 30
0.0
 11
54.0
 21
15.37499999999999
 31
0.0
  0
LINE
  5
B6B3
330
B6AD
100
AcDbEntity
  8
0
100
AcDbLine
 10
52.00000000000001
 20
15.37499999999999
 30
0.0
 11
53.91555343255307
 21
15.37499999999999
 31
0.0
  0
SPLINE
  5
B6B4
330
B6AD
100
AcDbEntity
  8
0
100
AcDbSpline
210
0.0
220
0.0
230
1.0
 70
     8
 71
     3
 72
    20
 73
    16
 74
     0
 42
0.000000001
 43
0.0000000001
 40
0.0425508398803379
 40
0.0425508398803379
 40
0.0425508398803379
 40
0.0425508398803379
 40
0.0454772411277165
 40
0.0454772411277165
 40
0.0485975642446723
 40
0.0485975642446723
 40
0.0525939794166516
 40
0.0525939794166516
 40
0.059656093462337
 40
0.059656093462337
 40
0.076488577425778
 40
0.076488577425778
 40
0.0811147131488731
 40
0.0811147131488731
 40
0.0858070805651497
 40
0.0858070805651497
 40
0.0858070805651497
 40
0.0858070805651497
 10
52.01854906012002
 20
13.30436927254462
 30
0.0
 10
52.01854906012535
 20
13.30436927258626
 30
0.0
 10
52.01829034945597
 20
13.30236109936831
 30
0.0
 10
52.01743821085589
 20
13.29543751316839
 30
0.0
 10
52.01682686050232
 20
13.29034670622307
 30
0.0
 10
52.01530601970358
 20
13.27699611987729
 30
0.0
 10
52.01435826621828
 20
13.26822420981406
 30
0.0
 10
52.01176365562507
 20
13.24235835081261
 30
0.0
 10
52.0101277278965
 20
13.22388520669979
 30
0.0
 10
52.00532307422776
 20
13.16103758936588
 30
0.0
 10
52.003169374103
 20
13.11856998296996
 30
0.0
 10
52.00126788742892
 20
13.05934034233054
 30
0.0
 10
52.00092033025499
 20
13.04640688431722
 30
0.0
 10
52.00035682965616
 20
13.02127036447201
 30
0.0
 10
52.00013890726041
 20
13.0085598319939
 30
0.0
 10
52.00001349789393
 20
12.99999993483838
 30
0.0
  0
SPLINE
  5
B6B5
330
B6AD
100
AcDbEntity
  8
0
100
AcDbSpline
210
0.0
220
0.0
230
1.0
 70
     8
 71
     3
 72
    14
 73
    10
 74
     0
 42
0.000000001
 43
0.0000000001
 40
0.0208013183684999
 40
0.0208013183684999
 40
0.0208013183684999
 40
0.0208013183684999
 40
0.021849441430363
 40
0.021849441430363
 40
0.0225546821119729
 40
0.0225546821119729
 40
0.0225989806858607
 40
0.0225989806858607
 40
0.0226109708205835
 40
0.0226109708205835
 40
0.0226109708205835
 40
0.0226109708205835
 10
52.00031027411135
 20
13.01774846973797
 30
0.0
 10
52.00028747385808
 20
13.01433316328072
 30
0.0
 10
52.00026911946612
 20
13.01091061266283
 30
0.0
 10
52.00024533892342
 20
13.00517513134224
 30
0.0
 10
52.00023764645606
 20
13.00286532573931
 30
0.0
 10
52.00023135562066
 20
13.00040765621798
 30
0.0
 10
52.00023099082078
 20
13.00026239478788
 30
0.0
 10
52.0002305361386
 20
13.00007780266806
 30
0.0
 10
52.00023043979314
 20
13.00003848000946
 30
0.0
 10
52.000230343961
 20
12.99999915825527
 30
0.0
  0
SPLINE
  5
B6B6
330
B6AD
100
AcDbEntity
  8
0
100
AcDbSpline
210
0.0
220
0.0
230
1.0
 70
     8
 71
     3
 72
    18
 73
    14
 74
     0
 42
0.000000001
 43
0.0000000001
 40
0.0120623187248214
 40
0.0120623187248214
 40
0.0120623187248214
 40
0.0120623187248214
 40
0.01260865774273
 40
0.01260865774273
 40
0.013101074526078
 40
0.013101074526078
 40
0.0132857262754184
 40
0.0132857262754184
 40
0.0133549705573602
 40
0.0133549705573602
 40
0.0133857975699511
 40
0.0133857975699511
 40
0.0134012110758073
 40
0.0134012110758073
 40
0.0134012110758073
 40
0.0134012110758073
 10
52.00018070218078
 20
13.01048923831603
 30
0.0
 10
52.00016050555277
 20
13.00910169404358
 30
0.0
 10
52.00014086474727
 20
13.00769990583048
 30
0.0
 10
52.00010480033241
 20
13.00502029077163
 30
0.0
 10
52.00008821822696
 20
13.00374156429495
 30
0.0
 10
52.00006619059089
 20
13.0019754878446
 30
0.0
 10
52.00006026196174
 20
13.00149302922716
 30
0.0
 10
52.00005222122245
 20
13.00082872053494
 30
0.0
 10
52.00005003965677
 20
13.00064745052438
 30
0.0
 10
52.0000469034336
 20
13.00038535303375
 30
0.0
 10
52.00004593958884
 20
13.00030459624976
 30
0.0
 10
52.00004449724071
 20
13.00018343578579
 30
0.0
 10
52.00004401702781
 20
13.00014304474787
 30
0.0
 10
52.0000435373856
 20
13.00010264955804
 30
0.0
  0
SPLINE
  5
B6B7
330
B6AD
100
AcDbEntity
  8
0
100
AcDbSpline
210
0.0
220
0.0
230
1.0
 70
     8
 71
     3
 72
     8
 73
     4
 74
     0
 42
0.000000001
 43
0.0000000001
 40
0.0027061986236754
 40
0.0027061986236754
 40
0.0027061986236754
 40
0.0027061986236754
 40
0.0086739981813256
 40
0.0086739981813256
 40
0.0086739981813256
 40
0.0086739981813256
 10
52.00002318944706
 20
13.00194590024626
 30
0.0
 10
52.0000231892326
 20
13.00194588234354
 30
0.0
 10
52.00000529716728
 20
13.00035215303669
 30
0.0
 10
52.0000019091822
 20
12.99999998875174
 30
0.0
  0
SPLINE
  5
B6B8
330
B6AD
100
AcDbEntity
  8
0
100
AcDbSpline
210
0.0
220
0.0
230
1.0
 70
     8
 71
     3
 72
     8
 73
     4
 74
     0
 42
0.000000001
 43
0.0000000001
 40
0.0
 40
0.0
 40
0.0
 40
0.0
 40
0.002822593551
 40
0.002822593551
 40
0.002822593551
 40
0.002822593551
 10
49.99955434980525
 20
13.00000102373767
 30
0.0
 10
49.99956243524049
 20
13.00812408412179
 30
0.0
 10
49.99956820960713
 20
13.01595158514735
 30
0.0
 10
49.99957063003606
 20
13.02310506903402
 30
0.0
  0
LINE
  5
B6B9
330
B6AD
100
AcDbEntity
  8
0
100
AcDbLine
 10
50.00000000000111
 20
13.00291663211659
 30
0.0
 11
49.99999795343043
 21
13.00303032826058
 31
0.0
  0
SPLINE
  5
B6BA
330
B6AD
100
AcDbEntity
  8
0
100
AcDbSpline
210
0.0
220
0.0
230
1.0
 70
     8
 71
     3
 72
    32
 73
    28
 74
     0
 42
0.000000001
 43
0.0000000001
 40
0.0015148982511638
 40
0.0015148982511638
 40
0.0015148982511638
 40
0.0015148982511638
 40
0.0053420351494417
 40
0.0053420351494417
 40
0.0115694669591788
 40
0.0115694669591788
 40
0.0242244416022043
 40
0.0242244416022043
 40
0.0272099571422927
 40
0.0272099571422927
 40
0.0286994770939562
 40
0.0286994770939562
 40
0.0309887389434956
 40
0.0309887389434956
 40
0.0334270948647654
 40
0.0334270948647654
 40
0.0369340002462628
 40
0.0369340002462628
 40
0.0429783342495947
 40
0.0429783342495947
 40
0.0559173010081113
 40
0.0559173010081113
 40
0.0946615815645375
 40
0.0946615815645375
 40
0.183653414893725
 40
0.183653414893725
 40
0.2472279512966431
 40
0.2472279512966431
 40
0.2472279512966431
 40
0.2472279512966431
 10
49.99993631255299
 20
13.00351503268979
 30
0.0
 10
49.99987229828412
 20
13.0070348747387
 30
0.0
 10
49.99978212002776
 20
13.01192407657151
 30
0.0
 10
49.9995014682306
 20
13.02680540816534
 30
0.0
 10
49.99928238130923
 20
13.03812394247849
 30
0.0
 10
49.9985584222436
 20
13.07458760224288
 30
0.0
 10
49.99801950253598
 20
13.1003333624821
 30
0.0
 10
49.99715823903355
 20
13.14298621528515
 30
0.0
 10
49.99697875275707
 20
13.15196327168513
 30
0.0
 10
49.99670062580185
 20
13.16624030898842
 30
0.0
 10
49.99660583394446
 20
13.17116716955231
 30
0.0
 10
49.99636836078876
 20
13.18371677993651
 30
0.0
 10
49.99622508526634
 20
13.19149017406287
 30
0.0
 10
49.99595025189691
 20
13.20688279226992
 30
0.0
 10
49.99581723773797
 20
13.2146097470578
 30
0.0
 10
49.99551942028952
 20
13.23255977820899
 30
0.0
 10
49.99536331234491
 20
13.24255750898395
 30
0.0
 10
49.99498150371429
 20
13.26841675840255
 30
0.0
 10
49.99478335097755
 20
13.28351328813135
 30
0.0
 10
49.99424660900004
 20
13.32885385105012
 30
0.0
 10
49.99400029051919
 20
13.35705253634209
 30
0.0
 10
49.99327039168427
 20
13.46768774333473
 30
0.0
 10
49.99326450572795
 20
13.54785028895209
 30
0.0
 10
49.99438611172975
 20
13.84672727329594
 30
0.0
 10
49.99734132133878
 20
14.0986820650513
 30
0.0
 10
49.99966165878237
 20
14.56310325790047
 30
0.0
 10
49.99993285558425
 20
14.77286756548296
 30
0.0
 10
49.99999999999999
 20
14.98358581098315
 30
0.0
  0
SPLINE
  5
B6BB
330
B6AD
100
AcDbEntity
  8
0
100
AcDbSpline
210
0.0
220
0.0
230
1.0
 70
     8
 71
     3
 72
    12
 73
     8
 74
     0
 42
0.000000001
 43
0.0000000001
 40
0.0
 40
0.0
 40
0.0
 40
0.0
 40
0.0030099153330589
 40
0.0030099153330589
 40
0.0059231504326969
 40
0.0059231504326969
 40
0.0071838114926983
 40
0.0071838114926983
 40
0.0071838114926983
 40
0.0071838114926983
 10
49.99994292812742
 20
12.99999988537517
 30
0.0
 10
49.99993102820457
 20
13.00642902691637
 30
0.0
 10
49.9999202736612
 20
13.01161167736446
 30
0.0
 10
49.99990406457719
 20
13.01868014867054
 30
0.0
 10
49.99989835487781
 20
13.02076617939378
 30
0.0
 10
49.99989463315703
 20
13.02206376490584
 30
0.0
 10
49.99989406828114
 20
13.02224370105595
 30
0.0
 10
49.99989406828126
 20
13.02224370102006
 30
0.0
  0
LINE
  5
B6BC
330
B6AD
100
AcDbEntity
  8
0
100
AcDbLine
 10
47.99999999999998
 20
-2.0
 30
0.0
 11
-47.99999999999998
 21
-2.000000000000003
 31
0.0
  0
LINE
  5
B6BD
330
B6AD
100
AcDbEntity
  8
0
100
AcDbLine
 10
-47.99999999999998
 20
0.0
 30
0.0
 11
48.0
 21
0.0
 31
0.0
  0
LINE
  5
B6BE
330
B6AD
100
AcDbEntity
  8
0
100
AcDbLine
 10
-53.91555343255308
 20
15.37499999999999
 30
0.0
 11
-52.00000000000001
 21
15.37499999999999
 31
0.0
  0
LINE
  5
B6BF
330
B6AD
100
AcDbEntity
  8
0
100
AcDbLine
 10
-54.0
 20
15.37499999999999
 30
0.0
 11
-53.91555343255308
 21
15.37499999999999
 31
0.0
  0
LINE
  5
B6C0
330
B6AD
100
AcDbEntity
  8
0
100
AcDbLine
 10
-54.60207915056965
 20
15.37499999999999
 30
0.0
 11
-54.0
 21
15.37499999999999
 31
0.0
  0
SPLINE
  5
B6C1
330
B6AD
100
AcDbEntity
  8
0
100
AcDbSpline
210
0.0
220
0.0
230
1.0
 70
     8
 71
     3
 72
    17
 73
    13
 74
     0
 42
0.000000001
 43
0.0000000001
 40
0.0
 40
0.0
 40
0.0
 40
0.0
 40
0.3690626432202771
 40
0.3690626432202771
 40
0.3690626432202771
 40
0.6936378220045477
 40
0.6936378220045477
 40
0.6936378220045477
 40
0.9219545386503819
 40
0.9219545386503819
 40
0.9219545386503819
 40
0.983122788210751
 40
0.983122788210751
 40
0.983122788210751
 40
0.983122788210751
 10
-54.66666666666669
 20
15.37499999999997
 30
0.0
 10
-54.31083458278063
 20
15.11172135805048
 30
0.0
 10
-53.85987304241279
 20
14.90773000725048
 30
0.0
 10
-53.42414735817492
 20
14.68602723250128
 30
0.0
 10
-53.04094481936367
 20
14.4910489027432
 30
0.0
 10
-52.67697529432242
 20
14.28354840176363
 30
0.0
 10
-52.41326214680981
 20
14.00806212759399
 30
0.0
 10
-52.22775775857549
 20
13.81427613990695
 30
0.0
 10
-52.08930240206672
 20
13.57964051224823
 30
0.0
 10
-52.03081927693739
 20
13.30459395175523
 30
0.0
 10
-52.01515108388726
 20
13.23090632651203
 30
0.0
 10
-52.00510998180742
 20
13.15695718465516
 30
0.0
 10
-52.00150118901351
 20
13.07251156891079
 30
0.0
  0
SPLINE
  5
B6C2
330
B6AD
100
AcDbEntity
  8
0
100
AcDbSpline
210
0.0
220
0.0
230
1.0
 70
     8
 71
     3
 72
    10
 73
     6
 74
     0
 42
0.000000001
 43
0.0000000001
 40
0.0205377306505869
 40
0.0205377306505869
 40
0.0205377306505869
 40
0.0205377306505869
 40
0.0217057753192327
 40
0.0217057753192327
 40
0.0233727476090275
 40
0.0233727476090275
 40
0.0233727476090275
 40
0.0233727476090275
 10
-49.99957079676767
 20
13.02306432847711
 30
0.0
 10
-49.99956980183745
 20
13.02012053031551
 30
0.0
 10
-49.99956822273135
 20
13.01706729521494
 30
0.0
 10
-49.9995631395468
 20
13.00946095325544
 30
0.0
 10
-49.99955912443176
 20
13.00479782117502
 30
0.0
 10
-49.99955434926312
 20
13.00000047908679
 30
0.0
  0
LINE
  5
B6C3
330
B6AD
100
AcDbEntity
  8
0
100
AcDbLine
 10
-49.99999795345964
 20
13.00303028361999
 30
0.0
 11
-50.0
 21
13.00291659142171
 31
0.0
  0
SPLINE
  5
B6C4
330
B6AD
100
AcDbEntity
  8
0
100
AcDbSpline
210
0.0
220
0.0
230
1.0
 70
     8
 71
     3
 72
    12
 73
     8
 74
     0
 42
0.000000001
 43
0.0000000001
 40
0.0135253761447304
 40
0.0135253761447304
 40
0.0135253761447304
 40
0.0135253761447304
 40
0.0164994427261551
 40
0.0164994427261551
 40
0.0185533044136912
 40
0.0185533044136912
 40
0.0207130027677081
 40
0.0207130027677081
 40
0.0207130027677081
 40
0.0207130027677081
 10
-49.99989406828128
 20
13.02224370101834
 30
0.0
 10
-49.9998940683001
 20
13.02224369499979
 30
0.0
 10
-49.99989732623167
 20
13.02121609965638
 30
0.0
 10
-49.99990760428018
 20
13.0171371706696
 30
0.0
 10
-49.99991315810099
 20
13.01479336280589
 30
0.0
 10
-49.99992646656367
 20
13.00858920808386
 30
0.0
 10
-49.99993438960257
 20
13.00461297286876
 30
0.0
 10
-49.99994292812985
 20
12.99999988404601
 30
0.0
  0
SPLINE
  5
B6C5
330
B6AD
100
AcDbEntity
  8
0
100
AcDbSpline
210
0.0
220
0.0
230
1.0
 70
     8
 71
     3
 72
    30
 73
    26
 74
     0
 42
0.000000001
 43
0.0000000001
 40
0.0077852771985982
 40
0.0077852771985982
 40
0.0077852771985982
 40
0.0077852771985982
 40
0.0775656034144839
 40
0.0775656034144839
 40
0.1689035026694219
 40
0.1689035026694219
 40
0.2062458834120605
 40
0.2062458834120605
 40
0.2233480597061602
 40
0.2233480597061602
 40
0.2280531495080041
 40
0.2280531495080041
 40
0.2334070518818395
 40
0.2334070518818395
 40
0.2355485306778349
 40
0.2355485306778349
 40
0.2374959664088687
 40
0.2374959664088687
 40
0.241431621513359
 40
0.241431621513359
 40
0.245301421728925
 40
0.245301421728925
 40
0.2545006830608766
 40
0.2545006830608766
 40
0.2626866610982727
 40
0.2626866610982727
 40
0.2626866610982727
 40
0.2626866610982727
 10
-50.00000000000003
 20
15.07513766582544
 30
0.0
 10
-49.99990697823424
 20
14.84313923565484
 30
0.0
 10
-49.99982501096926
 20
14.61141887333127
 30
0.0
 10
-49.99752811794479
 20
14.11784747407728
 30
0.0
 10
-49.99445546956245
 20
13.85757957681862
 30
0.0
 10
-49.99328240983301
 20
13.55562254884914
 30
0.0
 10
-49.99326873854044
 20
13.47744951471379
 30
0.0
 10
-49.99394821471522
 20
13.36166550802009
 30
0.0
 10
-49.99425846846513
 20
13.32498850963597
 30
0.0
 10
-49.99494994728642
 20
13.27103160743656
 30
0.0
 10
-49.99511865741986
 20
13.25886775157193
 30
0.0
 10
-49.99554021374596
 20
13.2310459488947
 30
0.0
 10
-49.99581079222893
 20
13.2146061079176
 30
0.0
 10
-49.99625077787595
 20
13.19009300074572
 30
0.0
 10
-49.99638504691619
 20
13.18282898233109
 30
0.0
 10
-49.99664210734446
 20
13.16925602766982
 30
0.0
 10
-49.99676658180456
 20
13.16282505999203
 30
0.0
 10
-49.99712710775367
 20
13.14446580485878
 30
0.0
 10
-49.99735254976283
 20
13.13333001372037
 30
0.0
 10
-49.99775555298338
 20
13.11354486593139
 30
0.0
 10
-49.99794017250174
 20
13.10455617405285
 30
0.0
 10
-49.99853485197774
 20
13.07552195995846
 30
0.0
 10
-49.99891678779743
 20
13.05669547490018
 30
0.0
 10
-49.99954335933566
 20
13.02471243862068
 30
0.0
 10
-49.99979888096767
 20
13.01102513091503
 30
0.0
 10
-49.99993633223688
 20
13.00350224288705
 30
0.0
  0
SPLINE
  5
B6C6
330
B6AD
100
AcDbEntity
  8
0
100
AcDbSpline
210
0.0
220
0.0
230
1.0
 70
     8
 71
     3
 72
    12
 73
     8
 74
     0
 42
0.000000001
 43
0.0000000001
 40
0.0
 40
0.0
 40
0.0
 40
0.0
 40
0.0002182918155441
 40
0.0002182918155441
 40
0.0010857062365206
 40
0.0010857062365206
 40
0.0018202520744666
 40
0.0018202520744666
 40
0.0018202520744666
 40
0.0018202520744666
 10
-52.00023041095158
 20
13.00002661177732
 30
0.0
 10
-52.00023215998207
 20
13.00074249525011
 30
0.0
 10
-52.00023407814542
 20
13.00145812577831
 30
0.0
 10
-52.00024447447269
 20
13.0050161268353
 30
0.0
 10
-52.00025549939134
 20
13.00785477679072
 30
0.0
 10
-52.00028121755756
 20
13.01308892551066
 30
0.0
 10
-52.00029509120458
 20
13.01548591155478
 30
0.0
 10
-52.00031115030087
 20
13.01787938665679
 30
0.0
  0
SPLINE
  5
B6C7
330
B6AD
100
AcDbEntity
  8
0
100
AcDbSpline
210
0.0
220
0.0
230
1.0
 70
     8
 71
     3
 72
    14
 73
    10
 74
     0
 42
0.000000001
 43
0.0000000001
 40
0.0
 40
0.0
 40
0.0
 40
0.0
 40
0.0000272162430149
 40
0.0000272162430149
 40
0.0000816487341734
 40
0.0000816487341734
 40
0.0009526442285982
 40
0.0009526442285982
 40
0.0014124260316801
 40
0.0014124260316801
 40
0.0014124260316801
 40
0.0014124260316801
 10
-52.00004305745651
 20
13.00006221276954
 30
0.0
 10
-52.00004390370719
 20
13.00013354504184
 30
0.0
 10
-52.00004475173859
 20
13.00020486447139
 30
0.0
 10
-52.00004730115744
 20
13.00041878295004
 30
0.0
 10
-52.00004900787035
 20
13.00056134223648
 30
0.0
 10
-52.00007814428677
 20
13.00298408920998
 30
0.0
 10
-52.00010738638184
 20
13.00525028362852
 30
0.0
 10
-52.00015444725032
 20
13.00866802496601
 30
0.0
 10
-52.000171226918
 20
13.00984696253269
 30
0.0
 10
-52.00018843919473
 20
13.01101825078313
 30
0.0
  0
SPLINE
  5
B6C8
330
B6AD
100
AcDbEntity
  8
0
100
AcDbSpline
210
0.0
220
0.0
230
1.0
 70
     8
 71
     3
 72
    22
 73
    18
 74
     0
 42
0.000000001
 43
0.0000000001
 40
0.0
 40
0.0
 40
0.0
 40
0.0
 40
0.0024686935793617
 40
0.0024686935793617
 40
0.0054630636410647
 40
0.0054630636410647
 40
0.0134881927828616
 40
0.0134881927828616
 40
0.0255366330095754
 40
0.0255366330095754
 40
0.0367515679195232
 40
0.0367515679195232
 40
0.0397164410442435
 40
0.0397164410442435
 40
0.0419115054222994
 40
0.0419115054222994
 40
0.0432647723763932
 40
0.0432647723763932
 40
0.0432647723763932
 40
0.0432647723763932
 10
-52.00001349789392
 20
12.99999993483837
 30
0.0
 10
-52.0000794768061
 20
13.00450336802393
 30
0.0
 10
-52.00017093614403
 20
13.01024030761941
 30
0.0
 10
-52.00041951576562
 20
13.02380839380274
 30
0.0
 10
-52.00058735204821
 20
13.03189145139399
 30
0.0
 10
-52.00130616289253
 20
13.06196822570714
 30
0.0
 10
-52.00202920840268
 20
13.08452569263838
 30
0.0
 10
-52.0042848585286
 20
13.13854540074564
 30
0.0
 10
-52.00596651866277
 20
13.16854836447063
 30
0.0
 10
-52.01052565773799
 20
13.22980459651352
 30
0.0
 10
-52.01341355894239
 20
13.26008272679517
 30
0.0
 10
-52.01651523293761
 20
13.28766919027349
 30
0.0
 10
-52.01712478443122
 20
13.29282593105588
 30
0.0
 10
-52.01795437559795
 20
13.29965394696021
 30
0.0
 10
-52.01823705844721
 20
13.30190852073077
 30
0.0
 10
-52.01849599945287
 20
13.3039561949933
 30
0.0
 10
-52.01854906049458
 20
13.30436927546611
 30
0.0
 10
-52.01854906011934
 20
13.30436927253957
 30
0.0
  0
SPLINE
  5
B6C9
330
B6AD
100
AcDbEntity
  8
0
100
AcDbSpline
210
0.0
220
0.0
230
1.0
 70
     8
 71
     3
 72
     8
 73
     4
 74
     0
 42
0.000000001
 43
0.0000000001
 40
0.0
 40
0.0
 40
0.0
 40
0.0
 40
0.0059677995672071
 40
0.0059677995672071
 40
0.0059677995672071
 40
0.0059677995672071
 10
-52.00000190918224
 20
12.99999998875174
 30
0.0
 10
-52.00000529716731
 20
13.00035215303612
 30
0.0
 10
-52.0000231892326
 20
13.00194588234367
 30
0.0
 10
-52.00002318944704
 20
13.00194590024496
 30
0.0
  0
ARC
  5
B6CA
330
B6AD
100
AcDbEntity
  8
0
100
AcDbCircle
 10
-47.99999999999998
 20
2.0
 30
0.0
 40
4.000000000000003
100
AcDbArc
 50
180.0
 51
270.0
  0
ARC
  5
B6CB
330
B6AD
100
AcDbEntity
  8
0
100
AcDbCircle
 10
-47.99999999999998
 20
2.0
 30
0.0
 40
2.000000000000001
100
AcDbArc
 50
180.0
 51
270.0
  0
ARC
  5
B6CC
330
B6AD
100
AcDbEntity
  8
0
100
AcDbCircle
 10
47.99999999999998
 20
2.0
 30
0.0
 40
4.000000000000003
100
AcDbArc
 50
270.0
 51
0.0
  0
LINE
  5
B6CD
330
B6AD
100
AcDbEntity
  8
0
100
AcDbLine
 10
54.66666666666675
 20
15.375
 30
0.0
 11
91.50000000000003
 21
42.99999999999997
 31
0.0
  0
LINE
  5
B6CE
330
B6AD
100
AcDbEntity
  8
0
100
AcDbLine
 10
49.99999999999999
 20
13.0
 30
0.0
 11
50.0
 21
42.99999999999997
 31
0.0
  0
LINE
  5
B6CF
330
B6AD
100
AcDbEntity
  8
0
100
AcDbLine
 10
51.99999999999999
 20
13.0
 30
0.0
 11
49.99999999999999
 21
13.0
 31
0.0
  0
LINE
  5
B6D0
330
B6AD
100
AcDbEntity
  8
0
100
AcDbLine
 10
51.99999999999999
 20
42.99999999999997
 30
0.0
 11
51.99999999999999
 21
13.0
 31
0.0
  0
LINE
  5
B6D1
330
B6AD
100
AcDbEntity
  8
0
100
AcDbLine
 10
51.99999999999999
 20
42.99999999999997
 30
0.0
 11
50.0
 21
42.99999999999997
 31
0.0
  0
LINE
  5
B6D2
330
B6AD
100
AcDbEntity
  8
0
100
AcDbLine
 10
50.0
 20
42.99999999999997
 30
0.0
 11
50.0
 21
200.0
 31
0.0
  0
LINE
  5
B6D3
330
B6AD
100
AcDbEntity
  8
0
100
AcDbLine
 10
51.99999999999999
 20
200.0
 30
0.0
 11
51.99999999999999
 21
42.99999999999997
 31
0.0
  0
LINE
  5
B6D4
330
B6AD
100
AcDbEntity
  8
0
100
AcDbLine
 10
50.0
 20
200.0
 30
0.0
 11
51.99999999999999
 21
200.0
 31
0.0
  0
LINE
  5
B6D5
330
B6AD
100
AcDbEntity
  8
0
100
AcDbLine
 10
51.99999999999999
 20
13.0
 30
0.0
 11
51.99999999999999
 21
1.999999999999999
 31
0.0
  0
LINE
  5
B6D6
330
B6AD
100
AcDbEntity
  8
0
100
AcDbLine
 10
49.99999999999999
 20
2.0
 30
0.0
 11
49.99999999999999
 21
13.0
 31
0.0
  0
ARC
  5
B6D7
330
B6AD
100
AcDbEntity
  8
0
100
AcDbCircle
 10
47.99999999999998
 20
2.0
 30
0.0
 40
2.000000000000001
100
AcDbArc
 50
270.0
 51
0.0
  0
LINE
  5
B6D8
330
B6AD
100
AcDbEntity
  8
0
100
AcDbLine
 10
54.0
 20
200.0
 30
0.0
 11
52.0
 21
200.0
 31
0.0
  0
LINE
  5
B6D9
330
B6AD
100
AcDbEntity
  8
0
100
AcDbLine
 10
91.50000000000003
 20
42.99999999999997
 30
0.0
 11
91.5
 21
200.0
 31
0.0
  0
LINE
  5
B6DA
330
B6AD
100
AcDbEntity
  8
0
100
AcDbLine
 10
91.5
 20
200.0
 30
0.0
 11
54.0
 21
200.0
 31
0.0
  0
CIRCLE
  5
B6DB
330
B6AD
100
AcDbEntity
  8
0
100
AcDbCircle
 10
72.0
 20
180.0
 30
0.0
 40
6.5
  0
CIRCLE
  5
B6DC
330
B6AD
100
AcDbEntity
  8
0
100
AcDbCircle
 10
83.0
 20
185.0
 30
0.0
 40
2.5
  0
LINE
  5
B6DD
330
B6AD
100
AcDbEntity
  8
0
100
AcDbLine
 10
-91.50000000000003
 20
42.99999999999997
 30
0.0
 11
-54.66666666666675
 21
15.37499999999999
 31
0.0
  0
LINE
  5
B6DE
330
B6AD
100
AcDbEntity
  8
0
100
AcDbLine
 10
-50.0
 20
42.99999999999997
 30
0.0
 11
-49.99999999999999
 21
13.0
 31
0.0
  0
LINE
  5
B6DF
330
B6AD
100
AcDbEntity
  8
0
100
AcDbLine
 10
-51.99999999999999
 20
42.99999999999997
 30
0.0
 11
-50.0
 21
42.99999999999997
 31
0.0
  0
LINE
  5
B6E0
330
B6AD
100
AcDbEntity
  8
0
100
AcDbLine
 10
-51.99999999999999
 20
13.0
 30
0.0
 11
-51.99999999999999
 21
42.99999999999997
 31
0.0
  0
LINE
  5
B6E1
330
B6AD
100
AcDbEntity
  8
0
100
AcDbLine
 10
-49.99999999999999
 20
13.0
 30
0.0
 11
-51.99999999999999
 21
13.0
 31
0.0
  0
LINE
  5
B6E2
330
B6AD
100
AcDbEntity
  8
0
100
AcDbLine
 10
-50.0
 20
200.0
 30
0.0
 11
-50.0
 21
42.99999999999997
 31
0.0
  0
LINE
  5
B6E3
330
B6AD
100
AcDbEntity
  8
0
100
AcDbLine
 10
-51.99999999999999
 20
200.0
 30
0.0
 11
-50.0
 21
200.0
 31
0.0
  0
LINE
  5
B6E4
330
B6AD
100
AcDbEntity
  8
0
100
AcDbLine
 10
-51.99999999999999
 20
42.99999999999997
 30
0.0
 11
-51.99999999999999
 21
200.0
 31
0.0
  0
CIRCLE
  5
B6E5
330
B6AD
100
AcDbEntity
  8
0
100
AcDbCircle
 10
-72.0
 20
50.0
 30
0.0
 40
6.5
  0
CIRCLE
  5
B6E6
330
B6AD
100
AcDbEntity
  8
0
100
AcDbCircle
 10
72.0
 20
50.0
 30
0.0
 40
6.5
  0
CIRCLE
  5
B6E7
330
B6AD
100
AcDbEntity
  8
0
100
AcDbCircle
 10
-72.0
 20
120.0
 30
0.0
 40
6.5
  0
CIRCLE
  5
B6E8
330
B6AD
100
AcDbEntity
  8
0
100
AcDbCircle
 10
72.0
 20
120.0
 30
0.0
 40
6.5
  0
CIRCLE
  5
B6E9
330
B6AD
100
AcDbEntity
  8
0
100
AcDbCircle
 10
-72.0
 20
180.0
 30
0.0
 40
6.5
  0
CIRCLE
  5
B6EA
330
B6AD
100
AcDbEntity
  8
0
100
AcDbCircle
 10
-61.0
 20
35.0
 30
0.0
 40
2.5
  0
CIRCLE
  5
B6EB
330
B6AD
100
AcDbEntity
  8
0
100
AcDbCircle
 10
-61.0
 20
55.0
 30
0.0
 40
2.5
  0
CIRCLE
  5
B6EC
330
B6AD
100
AcDbEntity
  8
0
100
AcDbCircle
 10
-61.0
 20
75.0
 30
0.0
 40
2.5
  0
CIRCLE
  5
B6ED
330
B6AD
100
AcDbEntity
  8
0
100
AcDbCircle
 10
-61.0
 20
95.0
 30
0.0
 40
2.5
  0
CIRCLE
  5
B6EE
330
B6AD
100
AcDbEntity
  8
0
100
AcDbCircle
 10
-61.0
 20
115.0
 30
0.0
 40
2.5
  0
CIRCLE
  5
B6EF
330
B6AD
100
AcDbEntity
  8
0
100
AcDbCircle
 10
-61.0
 20
135.0
 30
0.0
 40
2.5
  0
CIRCLE
  5
B6F0
330
B6AD
100
AcDbEntity
  8
0
100
AcDbCircle
 10
-61.0
 20
155.0
 30
0.0
 40
2.5
  0
CIRCLE
  5
B6F1
330
B6AD
100
AcDbEntity
  8
0
100
AcDbCircle
 10
-61.0
 20
175.0
 30
0.0
 40
2.5
  0
CIRCLE
  5
B6F2
330
B6AD
100
AcDbEntity
  8
0
100
AcDbCircle
 10
61.0
 20
35.0
 30
0.0
 40
2.5
  0
CIRCLE
  5
B6F3
330
B6AD
100
AcDbEntity
  8
0
100
AcDbCircle
 10
61.0
 20
55.0
 30
0.0
 40
2.5
  0
CIRCLE
  5
B6F4
330
B6AD
100
AcDbEntity
  8
0
100
AcDbCircle
 10
61.0
 20
75.0
 30
0.0
 40
2.5
  0
CIRCLE
  5
B6F5
330
B6AD
100
AcDbEntity
  8
0
100
AcDbCircle
 10
61.0
 20
95.0
 30
0.0
 40
2.5
  0
CIRCLE
  5
B6F6
330
B6AD
100
AcDbEntity
  8
0
100
AcDbCircle
 10
61.0
 20
115.0
 30
0.0
 40
2.5
  0
CIRCLE
  5
B6F7
330
B6AD
100
AcDbEntity
  8
0
100
AcDbCircle
 10
61.0
 20
135.0
 30
0.0
 40
2.5
  0
CIRCLE
  5
B6F8
330
B6AD
100
AcDbEntity
  8
0
100
AcDbCircle
 10
61.0
 20
155.0
 30
0.0
 40
2.5
  0
CIRCLE
  5
B6F9
330
B6AD
100
AcDbEntity
  8
0
100
AcDbCircle
 10
61.0
 20
175.0
 30
0.0
 40
2.5
  0
CIRCLE
  5
B6FA
330
B6AD
100
AcDbEntity
  8
0
100
AcDbCircle
 10
-61.0
 20
195.0
 30
0.0
 40
2.5
  0
CIRCLE
  5
B6FB
330
B6AD
100
AcDbEntity
  8
0
100
AcDbCircle
 10
61.0
 20
195.0
 30
0.0
 40
2.5
  0
CIRCLE
  5
B6FC
330
B6AD
100
AcDbEntity
  8
0
100
AcDbCircle
 10
-83.0
 20
45.0
 30
0.0
 40
2.5
  0
CIRCLE
  5
B6FD
330
B6AD
100
AcDbEntity
  8
0
100
AcDbCircle
 10
-83.0
 20
65.0
 30
0.0
 40
2.5
  0
CIRCLE
  5
B6FE
330
B6AD
100
AcDbEntity
  8
0
100
AcDbCircle
 10
-83.0
 20
85.0
 30
0.0
 40
2.5
  0
CIRCLE
  5
B6FF
330
B6AD
100
AcDbEntity
  8
0
100
AcDbCircle
 10
-83.0
 20
105.0
 30
0.0
 40
2.5
  0
CIRCLE
  5
B700
330
B6AD
100
AcDbEntity
  8
0
100
AcDbCircle
 10
-83.0
 20
125.0
 30
0.0
 40
2.5
  0
CIRCLE
  5
B701
330
B6AD
100
AcDbEntity
  8
0
100
AcDbCircle
 10
-83.0
 20
145.0
 30
0.0
 40
2.5
  0
CIRCLE
  5
B702
330
B6AD
100
AcDbEntity
  8
0
100
AcDbCircle
 10
-83.0
 20
165.0
 30
0.0
 40
2.5
  0
CIRCLE
  5
B703
330
B6AD
100
AcDbEntity
  8
0
100
AcDbCircle
 10
83.0
 20
45.0
 30
0.0
 40
2.5
  0
CIRCLE
  5
B704
330
B6AD
100
AcDbEntity
  8
0
100
AcDbCircle
 10
83.0
 20
65.0
 30
0.0
 40
2.5
  0
CIRCLE
  5
B705
330
B6AD
100
AcDbEntity
  8
0
100
AcDbCircle
 10
83.0
 20
85.0
 30
0.0
 40
2.5
  0
CIRCLE
  5
B706
330
B6AD
100
AcDbEntity
  8
0
100
AcDbCircle
 10
83.0
 20
105.0
 30
0.0
 40
2.5
  0
CIRCLE
  5
B707
330
B6AD
100
AcDbEntity
  8
0
100
AcDbCircle
 10
83.0
 20
125.0
 30
0.0
 40
2.5
  0
CIRCLE
  5
B708
330
B6AD
100
AcDbEntity
  8
0
100
AcDbCircle
 10
83.0
 20
145.0
 30
0.0
 40
2.5
  0
CIRCLE
  5
B709
330
B6AD
100
AcDbEntity
  8
0
100
AcDbCircle
 10
83.0
 20
165.0
 30
0.0
 40
2.5
  0
CIRCLE
  5
B70A
330
B6AD
100
AcDbEntity
  8
0
100
AcDbCircle
 10
-83.0
 20
185.0
 30
0.0
 40
2.5
  0
LINE
  5
B70B
330
B6AD
100
AcDbEntity
  8
0
100
AcDbLine
 10
-91.5
 20
200.0
 30
0.0
 11
-54.0
 21
200.0
 31
0.0
  0
LINE
  5
B70C
330
B6AD
100
AcDbEntity
  8
0
100
AcDbLine
 10
-91.50000000000003
 20
42.99999999999997
 30
0.0
 11
-91.5
 21
200.0
 31
0.0
  0
LINE
  5
B70D
330
B6AD
100
AcDbEntity
  8
0
100
AcDbLine
 10
-49.99999999999999
 20
2.0
 30
0.0
 11
-49.99999999999999
 21
13.0
 31
0.0
  0
LINE
  5
B70E
330
B6AD
100
AcDbEntity
  8
0
100
AcDbLine
 10
-51.99999999999999
 20
13.0
 30
0.0
 11
-51.99999999999999
 21
1.999999999999999
 31
0.0
  0
LINE
  5
B70F
330
B6AD
100
AcDbEntity
  8
0
100
AcDbLine
 10
-54.0
 20
200.0
 30
0.0
 11
-52.0
 21
200.0
 31
0.0
  0
ENDBLK
  5
B6AF
330
B6AD
100
AcDbEntity
  8
0
100
AcDbBlockEnd
  0
BLOCK
  5
B711
330
B710
100
AcDbEntity
  8
0
100
AcDbBlockBegin
  2
SAE500_100_2-Left
 70
     0
 10
0.0
 20
0.0
 30
0.0
  3
SAE500_100_2-Left
  1

  0
LINE
  5
B713
330
B710
100
AcDbEntity
  8
0
100
AcDbLine
 10
1.999999999999997
 20
-2.0
 30
0.0
 11
86.00000000000001
 21
-2.000000000000003
 31
0.0
  0
LINE
  5
B714
330
B710
100
AcDbEntity
  8
0
100
AcDbLine
 10
2.000000000000001
 20
2.000000000000004
 30
0.0
 11
1.999999999999997
 21
-1.999999999999999
 31
0.0
  0
LINE
  5
B715
330
B710
100
AcDbEntity
  8
0
100
AcDbLine
 10
86.00000000000001
 20
-2.000000000000003
 30
0.0
 11
86.00000000000001
 21
2.0
 31
0.0
  0
SPLINE
  5
B716
330
B710
100
AcDbEntity
  8
0
100
AcDbSpline
210
0.0
220
0.0
230
1.0
 70
     8
 71
     3
 72
    17
 73
    13
 74
     0
 42
0.000000001
 43
0.0000000001
 40
-0.9619346981128744
 40
-0.9619346981128744
 40
-0.9619346981128744
 40
-0.9619346981128744
 40
-0.7906685193901008
 40
-0.7906685193901008
 40
-0.7906685193901008
 40
-0.3894646005862433
 40
-0.3894646005862433
 40
-0.3894646005862433
 40
-0.1064781870786435
 40
-0.1064781870786435
 40
-0.1064781870786435
 40
0.0
 40
0.0
 40
0.0
 40
0.0
 10
1.99043591309971
 20
13.25446834250835
 30
0.0
 10
1.964294717881483
 20
13.61723289676546
 30
0.0
 10
1.886311452927138
 20
13.895392799684
 30
0.0
 10
1.773190688126865
 20
14.09333321457392
 30
0.0
 10
1.508196779379577
 20
14.5570235399828
 30
0.0
 10
1.054549467620502
 20
14.64361801433279
 30
0.0
 10
0.6742949633553637
 20
14.73568309709845
 30
0.0
 10
0.4060850747208781
 20
14.80062056744722
 30
0.0
 10
0.1716897863468934
 20
14.87223507490493
 30
0.0
 10
0.062042989508572
 20
15.07586904860267
 30
0.0
 10
0.0207866196298419
 20
15.15248960461524
 30
0.0
 10
0.0000165986139154
 20
15.25247760953753
 30
0.0
 10
0.0000000000000009
 20
15.37500000000002
 30
0.0
  0
LINE
  5
B717
330
B710
100
AcDbEntity
  8
0
100
AcDbLine
 10
2.000000000000011
 20
15.37499999999999
 30
0.0
 11
2.001783600996531
 21
15.37499999999999
 31
0.0
  0
SPLINE
  5
B718
330
B710
100
AcDbEntity
  8
0
100
AcDbSpline
210
0.0
220
0.0
230
1.0
 70
     8
 71
     3
 72
    17
 73
    13
 74
     0
 42
0.000000001
 43
0.0000000001
 40
0.0
 40
0.0
 40
0.0
 40
0.0
 40
0.3690626432202771
 40
0.3690626432202771
 40
0.3690626432202771
 40
0.6936378220045477
 40
0.6936378220045477
 40
0.6936378220045477
 40
0.9219545386503819
 40
0.9219545386503819
 40
0.9219545386503819
 40
1.0
 40
1.0
 40
1.0
 40
1.0
 10
2.000000000000028
 20
15.37499999999997
 30
0.0
 10
2.000007003368961
 20
15.11172135805048
 30
0.0
 10
2.000476349919029
 20
14.90773000725048
 30
0.0
 10
1.99986320454895
 20
14.68602723250128
 30
0.0
 10
1.999323968807349
 20
14.4910489027432
 30
0.0
 10
1.999985049619786
 20
14.28354840176363
 30
0.0
 10
2.000261627960646
 20
14.00806212759399
 30
0.0
 10
2.000456182143492
 20
13.81427613990695
 30
0.0
 10
2.00033355869933
 20
13.57964051224823
 30
0.0
 10
2.00005054797681
 20
13.30459395175523
 30
0.0
 10
1.999953806473471
 20
13.21057483645935
 30
0.0
 10
2.000681435773389
 20
13.11612998309716
 30
0.0
 10
2.000000000000308
 20
13.00000000000947
 30
0.0
  0
LINE
  5
B719
330
B710
100
AcDbEntity
  8
0
100
AcDbLine
 10
0.0
 20
15.37499999999999
 30
0.0
 11
2.000000000000005
 21
15.37499999999999
 31
0.0
  0
SPLINE
  5
B71A
330
B710
100
AcDbEntity
  8
0
100
AcDbSpline
210
0.0
220
0.0
230
1.0
 70
     8
 71
     3
 72
    10
 73
     6
 74
     0
 42
0.000000001
 43
0.0000000001
 40
0.0
 40
0.0
 40
0.0
 40
0.0
 40
0.0050810163688249
 40
0.0050810163688249
 40
0.0085383849562085
 40
0.0085383849562085
 40
0.0085383849562085
 40
0.0085383849562085
 10
1.999900372537205
 20
13.00000015086074
 30
0.0
 10
1.999917221370597
 20
13.0094606654042
 30
0.0
 10
1.999894106582918
 20
13.01670943099206
 30
0.0
 10
1.99985935834006
 20
13.02397088590612
 30
0.0
 10
1.999846463056054
 20
13.02561694202359
 30
0.0
 10
1.999846463216216
 20
13.02561692088499
 30
0.0
  0
SPLINE
  5
B71B
330
B710
100
AcDbEntity
  8
0
100
AcDbSpline
210
0.0
220
0.0
230
1.0
 70
     8
 71
     3
 72
    10
 73
     6
 74
     0
 42
0.000000001
 43
0.0000000001
 40
0.0024225324209481
 40
0.0024225324209481
 40
0.0024225324209481
 40
0.0024225324209481
 40
0.0071101924472387
 40
0.0071101924472387
 40
0.0089685274130463
 40
0.0089685274130463
 40
0.0089685274130463
 40
0.0089685274130463
 10
1.999904431141534
 20
13.00816133561464
 30
0.0
 10
1.999847885545247
 20
13.01329810210258
 30
0.0
 10
1.999787760202876
 20
13.01796467663836
 30
0.0
 10
1.999742099777876
 20
13.02129775960976
 30
0.0
 10
1.99973390366806
 20
13.02187498283517
 30
0.0
 10
1.999733903663804
 20
13.02187498313656
 30
0.0
  0
SPLINE
  5
B71C
330
B710
100
AcDbEntity
  8
0
100
AcDbSpline
210
0.0
220
0.0
230
1.0
 70
     8
 71
     3
 72
    34
 73
    30
 74
     0
 42
0.000000001
 43
0.0000000001
 40
0.0016815078210701
 40
0.0016815078210701
 40
0.0016815078210701
 40
0.0016815078210701
 40
0.0037549615687511
 40
0.0037549615687511
 40
0.0097649441826103
 40
0.0097649441826103
 40
0.0142939959587374
 40
0.0142939959587374
 40
0.0169431569939552
 40
0.0169431569939552
 40
0.0194305041393115
 40
0.0194305041393115
 40
0.0222842253372956
 40
0.0222842253372956
 40
0.0267010062904893
 40
0.0267010062904893
 40
0.034926053388233
 40
0.034926053388233
 40
0.0580264831219419
 40
0.0580264831219419
 40
0.0753507626765468
 40
0.0753507626765468
 40
0.088370221882683
 40
0.088370221882683
 40
0.100131977151714
 40
0.100131977151714
 40
0.1055748268799163
 40
0.1055748268799163
 40
0.1094551118232469
 40
0.1094551118232469
 40
0.1094551118232469
 40
0.1094551118232469
 10
1.999905824029577
 20
13.00797436465148
 30
0.0
 10
1.999861843090815
 20
13.0116092485034
 30
0.0
 10
1.999810567971996
 20
13.01559092344637
 30
0.0
 10
1.999589586486628
 20
13.03135524191019
 30
0.0
 10
1.999385239452313
 20
13.04349553887764
 30
0.0
 10
1.998938490597814
 20
13.06559269755573
 30
0.0
 10
1.998714827152958
 20
13.07566388504275
 30
0.0
 10
1.998212309531599
 20
13.09520826602759
 30
0.0
 10
1.997988532855534
 20
13.10336594244464
 30
0.0
 10
1.997498447683743
 20
13.1198383693042
 30
0.0
 10
1.997231983179998
 20
13.12823259859345
 30
0.0
 10
1.996629472497591
 20
13.14602588568403
 30
0.0
 10
1.996284077698627
 20
13.15555192288066
 30
0.0
 10
1.995371009568129
 20
13.17924050911521
 30
0.0
 10
1.994778690012864
 20
13.1932779956704
 30
0.0
 10
1.99299796821969
 20
13.23236145949059
 30
0.0
 10
1.991725154697871
 20
13.2567796780697
 30
0.0
 10
1.986334098599632
 20
13.34859559675094
 30
0.0
 10
1.981200415425859
 20
13.41447379102248
 30
0.0
 10
1.969290874776985
 20
13.52754941755186
 30
0.0
 10
1.963203679578419
 20
13.57526841320773
 30
0.0
 10
1.950979703334146
 20
13.65424886056769
 30
0.0
 10
1.945166554141394
 20
13.68689649072945
 30
0.0
 10
1.934307954087964
 20
13.7412904172545
 30
0.0
 10
1.929137838212592
 20
13.76418558995814
 30
0.0
 10
1.924050845919459
 20
13.78557721374138
 30
0.0
 10
1.922803743323646
 20
13.79062374341087
 30
0.0
 10
1.921552938125592
 20
13.79564394510123
 30
0.0
 10
1.921286847627258
 20
13.7966915508171
 30
0.0
 10
1.921286847627063
 20
13.79669155081787
 30
0.0
  0
LINE
  5
B71D
330
B710
100
AcDbEntity
  8
0
100
AcDbLine
 10
2.000000000000001
 20
2.000000000000003
 30
0.0
 11
2.000000000000001
 21
13.0
 31
0.0
  0
LINE
  5
B71E
330
B710
100
AcDbEntity
  8
0
100
AcDbLine
 10
2.00000000000001
 20
42.99999999999997
 30
0.0
 11
2.000000000000005
 21
15.37499999999999
 31
0.0
  0
LINE
  5
B71F
330
B710
100
AcDbEntity
  8
0
100
AcDbLine
 10
0.0
 20
42.99999999999997
 30
0.0
 11
2.00000000000001
 21
42.99999999999997
 31
0.0
  0
LINE
  5
B720
330
B710
100
AcDbEntity
  8
0
100
AcDbLine
 10
0.0
 20
15.375
 30
0.0
 11
0.0
 21
42.99999999999997
 31
0.0
  0
LINE
  5
B721
330
B710
100
AcDbEntity
  8
0
100
AcDbLine
 10
86.00000000000006
 20
13.0
 30
0.0
 11
46.00000000000004
 21
42.99999999999997
 31
0.0
  0
LINE
  5
B722
330
B710
100
AcDbEntity
  8
0
100
AcDbLine
 10
46.00000000000004
 20
42.99999999999997
 30
0.0
 11
46.00000000000001
 21
200.0
 31
0.0
  0
LINE
  5
B723
330
B710
100
AcDbEntity
  8
0
100
AcDbLine
 10
2.00000000000001
 20
42.99999999999997
 30
0.0
 11
2.00000000000001
 21
200.0
 31
0.0
  0
LINE
  5
B724
330
B710
100
AcDbEntity
  8
0
100
AcDbLine
 10
86.00000000000006
 20
13.0
 30
0.0
 11
86.00000000000001
 21
1.999999999999999
 31
0.0
  0
LINE
  5
B725
330
B710
100
AcDbEntity
  8
0
100
AcDbLine
 10
4.000000000000003
 20
200.0
 30
0.0
 11
46.00000000000001
 21
200.0
 31
0.0
  0
LINE
  5
B726
330
B710
100
AcDbEntity
  8
0
100
AcDbLine
 10
0.0
 20
200.0
 30
0.0
 11
2.00000000000001
 21
200.0
 31
0.0
  0
LINE
  5
B727
330
B710
100
AcDbEntity
  8
0
100
AcDbLine
 10
0.0
 20
42.99999999999997
 30
0.0
 11
0.0
 21
200.0
 31
0.0
  0
LINE
  5
B728
330
B710
100
AcDbEntity
  8
0
100
AcDbLine
 10
2.000000000000001
 20
200.0
 30
0.0
 11
4.000000000000003
 21
200.0
 31
0.0
  0
CIRCLE
  5
B729
330
B710
100
AcDbEntity
  8
0
100
AcDbCircle
 10
38.50000000000001
 20
35.0
 30
0.0
 40
2.5
  0
CIRCLE
  5
B72A
330
B710
100
AcDbEntity
  8
0
100
AcDbCircle
 10
38.50000000000001
 20
55.0
 30
0.0
 40
2.5
  0
CIRCLE
  5
B72B
330
B710
100
AcDbEntity
  8
0
100
AcDbCircle
 10
38.50000000000001
 20
75.0
 30
0.0
 40
2.5
  0
CIRCLE
  5
B72C
330
B710
100
AcDbEntity
  8
0
100
AcDbCircle
 10
38.50000000000001
 20
95.0
 30
0.0
 40
2.5
  0
CIRCLE
  5
B72D
330
B710
100
AcDbEntity
  8
0
100
AcDbCircle
 10
38.50000000000001
 20
115.0
 30
0.0
 40
2.5
  0
CIRCLE
  5
B72E
330
B710
100
AcDbEntity
  8
0
100
AcDbCircle
 10
38.50000000000001
 20
135.0
 30
0.0
 40
2.5
  0
CIRCLE
  5
B72F
330
B710
100
AcDbEntity
  8
0
100
AcDbCircle
 10
38.50000000000001
 20
155.0
 30
0.0
 40
2.5
  0
CIRCLE
  5
B730
330
B710
100
AcDbEntity
  8
0
100
AcDbCircle
 10
38.50000000000001
 20
175.0
 30
0.0
 40
2.5
  0
CIRCLE
  5
B731
330
B710
100
AcDbEntity
  8
0
100
AcDbCircle
 10
38.50000000000001
 20
195.0
 30
0.0
 40
2.5
  0
SPLINE
  5
B732
330
B710
100
AcDbEntity
  8
0
100
AcDbSpline
210
0.0
220
0.0
230
1.0
 70
     8
 71
     3
 72
     8
 73
     4
 74
     0
 42
0.000000001
 43
0.0000000001
 40
0.0
 40
0.0
 40
0.0
 40
0.0
 40
0.0015284405909533
 40
0.0015284405909533
 40
0.0015284405909533
 40
0.0015284405909533
 10
1.999900516098313
 20
13.00008124670155
 30
0.0
 10
1.999905516538498
 20
13.00292311262778
 30
0.0
 10
1.99990689657146
 20
13.0055636434619
 30
0.0
 10
1.999905854793113
 20
13.00798659366785
 30
0.0
  0
SPLINE
  5
B733
330
B710
100
AcDbEntity
  8
0
100
AcDbSpline
210
0.0
220
0.0
230
1.0
 70
     8
 71
     3
 72
    22
 73
    18
 74
     0
 42
0.000000001
 43
0.0000000001
 40
0.0016810532681255
 40
0.0016810532681255
 40
0.0016810532681255
 40
0.0016810532681255
 40
0.0037554288539778
 40
0.0037554288539778
 40
0.0097669351326461
 40
0.0097669351326461
 40
0.0142972042171694
 40
0.0142972042171694
 40
0.0169434348981946
 40
0.0169434348981946
 40
0.0194304346709443
 40
0.0194304346709443
 40
0.0222843801773157
 40
0.0222843801773157
 40
0.0267015406501631
 40
0.0267015406501631
 40
0.0320310502332299
 40
0.0320310502332299
 40
0.0320310502332299
 40
0.0320310502332299
 10
1.999905824118466
 20
13.00797435123515
 30
0.0
 10
1.999861823716493
 20
13.01161084365915
 30
0.0
 10
1.99981052251003
 20
13.0155944254187
 30
0.0
 10
1.999589454541541
 20
13.03136390384685
 30
0.0
 10
1.99938504126996
 20
13.04350699763399
 30
0.0
 10
1.998938091210327
 20
13.06561120220962
 30
0.0
 10
1.998714290394346
 20
13.07568724123936
 30
0.0
 10
1.998211643876826
 20
13.09523270178872
 30
0.0
 10
1.997988058832253
 20
13.10338221485024
 30
0.0
 10
1.997498253711835
 20
13.11984456929543
 30
0.0
 10
1.997231818584923
 20
13.12823761584818
 30
0.0
 10
1.996629310481301
 20
13.14603049072289
 30
0.0
 10
1.99628388234776
 20
13.15555722895963
 30
0.0
 10
1.995370721616485
 20
13.17924761130272
 30
0.0
 10
1.99477833981369
 20
13.19328614750347
 30
0.0
 10
1.993405395950876
 20
13.22341863188229
 30
0.0
 10
1.992606863426115
 20
13.23946087319708
 30
0.0
 10
1.991752299700649
 20
13.25528970522768
 30
0.0
  0
ENDBLK
  5
B712
330
B710
100
AcDbEntity
  8
0
100
AcDbBlockEnd
  0
BLOCK
  5
B735
330
B734
100
AcDbEntity
  8
0
100
AcDbBlockBegin
  2
SAE500_100_2-Right
 70
     0
 10
0.0
 20
0.0
 30
0.0
  3
SAE500_100_2-Right
  1

  0
SPLINE
  5
B737
330
B734
100
AcDbEntity
  8
0
100
AcDbSpline
210
0.0
220
0.0
230
1.0
 70
     8
 71
     3
 72
    17
 73
    13
 74
     0
 42
0.000000001
 43
0.0000000001
 40
0.0
 40
0.0
 40
0.0
 40
0.0
 40
0.3690626432202771
 40
0.3690626432202771
 40
0.3690626432202771
 40
0.6936378220045477
 40
0.6936378220045477
 40
0.6936378220045477
 40
0.9219545386503819
 40
0.9219545386503819
 40
0.9219545386503819
 40
1.0
 40
1.0
 40
1.0
 40
1.0
 10
-2.000000000000028
 20
15.37499999999997
 30
0.0
 10
-2.000007003368961
 20
15.11172135805048
 30
0.0
 10
-2.000476349919029
 20
14.90773000725048
 30
0.0
 10
-1.99986320454895
 20
14.68602723250128
 30
0.0
 10
-1.999323968807349
 20
14.4910489027432
 30
0.0
 10
-1.999985049619786
 20
14.28354840176363
 30
0.0
 10
-2.000261627960646
 20
14.00806212759399
 30
0.0
 10
-2.000456182143492
 20
13.81427613990695
 30
0.0
 10
-2.00033355869933
 20
13.57964051224823
 30
0.0
 10
-2.00005054797681
 20
13.30459395175523
 30
0.0
 10
-1.999953806473471
 20
13.21057483645935
 30
0.0
 10
-2.000681435773389
 20
13.11612998309716
 30
0.0
 10
-2.000000000000308
 20
13.00000000000947
 30
0.0
  0
LINE
  5
B738
330
B734
100
AcDbEntity
  8
0
100
AcDbLine
 10
-2.001783600996532
 20
15.37499999999999
 30
0.0
 11
-2.000000000000011
 21
15.37499999999999
 31
0.0
  0
SPLINE
  5
B739
330
B734
100
AcDbEntity
  8
0
100
AcDbSpline
210
0.0
220
0.0
230
1.0
 70
     8
 71
     3
 72
    17
 73
    13
 74
     0
 42
0.000000001
 43
0.0000000001
 40
-0.961934698112873
 40
-0.961934698112873
 40
-0.961934698112873
 40
-0.961934698112873
 40
-0.7906685193901008
 40
-0.7906685193901008
 40
-0.7906685193901008
 40
-0.3894646005862433
 40
-0.3894646005862433
 40
-0.3894646005862433
 40
-0.1064781870786435
 40
-0.1064781870786435
 40
-0.1064781870786435
 40
0.0
 40
0.0
 40
0.0
 40
0.0
 10
-1.990435913099709
 20
13.25446834250835
 30
0.0
 10
-1.964294717881481
 20
13.61723289676547
 30
0.0
 10
-1.886311452927138
 20
13.895392799684
 30
0.0
 10
-1.773190688126865
 20
14.09333321457392
 30
0.0
 10
-1.508196779379577
 20
14.5570235399828
 30
0.0
 10
-1.054549467620502
 20
14.64361801433279
 30
0.0
 10
-0.6742949633553637
 20
14.73568309709845
 30
0.0
 10
-0.4060850747208781
 20
14.80062056744722
 30
0.0
 10
-0.1716897863468934
 20
14.87223507490493
 30
0.0
 10
-0.062042989508572
 20
15.07586904860267
 30
0.0
 10
-0.0207866196298419
 20
15.15248960461524
 30
0.0
 10
-0.0000165986139154
 20
15.25247760953753
 30
0.0
 10
-0.0000000000000009
 20
15.37500000000002
 30
0.0
  0
LINE
  5
B73A
330
B734
100
AcDbEntity
  8
0
100
AcDbLine
 10
-2.000000000000005
 20
15.37499999999999
 30
0.0
 11
0.0
 21
15.37499999999999
 31
0.0
  0
SPLINE
  5
B73B
330
B734
100
AcDbEntity
  8
0
100
AcDbSpline
210
0.0
220
0.0
230
1.0
 70
     8
 71
     3
 72
    12
 73
     8
 74
     0
 42
0.000000001
 43
0.0000000001
 40
0.0084345323236139
 40
0.0084345323236139
 40
0.0084345323236139
 40
0.0084345323236139
 40
0.010190714997494
 40
0.010190714997494
 40
0.0142262249989732
 40
0.0142262249989732
 40
0.0169844211209936
 40
0.0169844211209936
 40
0.0169844211209936
 40
0.0169844211209936
 10
-1.999846463216215
 20
13.0256169208852
 30
0.0
 10
-1.999846463205281
 20
13.02561692232834
 30
0.0
 10
-1.999849670006966
 20
13.02519857858147
 30
0.0
 10
-1.999866368110201
 20
13.02258506893136
 30
0.0
 10
-1.999888141043758
 20
13.01875667909028
 30
0.0
 10
-1.999906900174289
 20
13.00967151291917
 30
0.0
 10
-1.999909539801823
 20
13.00520962632155
 30
0.0
 10
-1.999900516098313
 20
13.00008124670155
 30
0.0
  0
SPLINE
  5
B73C
330
B734
100
AcDbEntity
  8
0
100
AcDbSpline
210
0.0
220
0.0
230
1.0
 70
     8
 71
     3
 72
    12
 73
     8
 74
     0
 42
0.000000001
 43
0.0000000001
 40
0.0068342131549512
 40
0.0068342131549512
 40
0.0068342131549512
 40
0.0068342131549512
 40
0.0083345594383438
 40
0.0083345594383438
 40
0.0116424657071139
 40
0.0116424657071139
 40
0.0133894910682493
 40
0.0133894910682493
 40
0.0133894910682493
 40
0.0133894910682493
 10
-1.999733903663801
 20
13.02187498313671
 30
0.0
 10
-1.999733903662768
 20
13.02187498320988
 30
0.0
 10
-1.999739169666692
 20
13.02150361730914
 30
0.0
 10
-1.999767406794204
 20
13.01946075731795
 30
0.0
 10
-1.999803797440657
 20
13.01676903956291
 30
0.0
 10
-1.99986339218539
 20
13.01188186224919
 30
0.0
 10
-1.999884668617721
 20
13.01004442432717
 30
0.0
 10
-1.99990565802538
 20
13.00813768546612
 30
0.0
  0
SPLINE
  5
B73D
330
B734
100
AcDbEntity
  8
0
100
AcDbSpline
210
0.0
220
0.0
230
1.0
 70
     8
 71
     3
 72
    32
 73
    28
 74
     0
 42
0.000000001
 43
0.0000000001
 40
0.1096366611365303
 40
0.1096366611365303
 40
0.1096366611365303
 40
0.1096366611365303
 40
0.1100575438217698
 40
0.1100575438217698
 40
0.1181977420983597
 40
0.1181977420983597
 40
0.1256658707018575
 40
0.1256658707018575
 40
0.1350917120034181
 40
0.1350917120034181
 40
0.1504100059714148
 40
0.1504100059714148
 40
0.1825008332408752
 40
0.1825008332408752
 40
0.1918413763461857
 40
0.1918413763461857
 40
0.1996521613028656
 40
0.1996521613028656
 40
0.2028366280291951
 40
0.2028366280291951
 40
0.2055814149501533
 40
0.2055814149501533
 40
0.2082218816026208
 40
0.2082218816026208
 40
0.2133981846184708
 40
0.2133981846184708
 40
0.217372319912952
 40
0.217372319912952
 40
0.217372319912952
 40
0.217372319912952
 10
-1.92128684762706
 20
13.79669155081789
 30
0.0
 10
-1.921286847658448
 20
13.79669155069386
 30
0.0
 10
-1.921289891538792
 20
13.79667952382166
 30
0.0
 10
-1.921413911475692
 20
13.7961890101079
 30
0.0
 10
-1.922763957354447
 20
13.79090270181297
 30
0.0
 10
-1.927084543846842
 20
13.77287839288468
 30
0.0
 10
-1.929897966332437
 20
13.7607817922639
 30
0.0
 10
-1.936812424077404
 20
13.72895726680563
 30
0.0
 10
-1.941083110638714
 20
13.70790830995654
 30
0.0
 10
-1.951923722298735
 20
13.64906130507476
 30
0.0
 10
-1.95832221552951
 20
13.60871089269108
 30
0.0
 10
-1.975512590377095
 20
13.48057917765336
 30
0.0
 10
-1.983672119337346
 20
13.38911144766921
 30
0.0
 10
-1.991103755198981
 20
13.2683157076778
 30
0.0
 10
-1.992586564789472
 20
13.24079173544332
 30
0.0
 10
-1.99503488222161
 20
13.1880657742232
 30
0.0
 10
-1.996078899929591
 20
13.16231400371811
 30
0.0
 10
-1.99731787711861
 20
13.12568412546406
 30
0.0
 10
-1.997654910252541
 20
13.11483123553095
 30
0.0
 10
-1.998181388700028
 20
13.09641477819696
 30
0.0
 10
-1.998389798561797
 20
13.08846764970063
 30
0.0
 10
-1.998727522732822
 20
13.07473581565975
 30
0.0
 10
-1.998865020066505
 20
13.06868926641767
 30
0.0
 10
-1.999227916172617
 20
13.05173450008612
 30
0.0
 10
-1.99941838790477
 20
13.04138733514038
 30
0.0
 10
-1.999710856274199
 20
13.02301822451736
 30
0.0
 10
-1.999821792653472
 20
13.01487364275468
 30
0.0
 10
-1.99990593439037
 20
13.00791959744924
 30
0.0
  0
LINE
  5
B73E
330
B734
100
AcDbEntity
  8
0
100
AcDbLine
 10
-1.999999999999997
 20
-2.0
 30
0.0
 11
-86.00000000000001
 21
-2.0
 31
0.0
  0
LINE
  5
B73F
330
B734
100
AcDbEntity
  8
0
100
AcDbLine
 10
-2.000000000000001
 20
2.000000000000003
 30
0.0
 11
-2.000000000000001
 21
13.0
 31
0.0
  0
LINE
  5
B740
330
B734
100
AcDbEntity
  8
0
100
AcDbLine
 10
-2.000000000000001
 20
2.000000000000004
 30
0.0
 11
-1.999999999999997
 21
-1.999999999999999
 31
0.0
  0
LINE
  5
B741
330
B734
100
AcDbEntity
  8
0
100
AcDbLine
 10
-86.00000000000001
 20
-2.000000000000003
 30
0.0
 11
-86.00000000000001
 21
2.0
 31
0.0
  0
LINE
  5
B742
330
B734
100
AcDbEntity
  8
0
100
AcDbLine
 10
0.0
 20
42.99999999999997
 30
0.0
 11
0.0
 21
15.37499999999999
 31
0.0
  0
LINE
  5
B743
330
B734
100
AcDbEntity
  8
0
100
AcDbLine
 10
-2.00000000000001
 20
42.99999999999997
 30
0.0
 11
0.0
 21
42.99999999999997
 31
0.0
  0
LINE
  5
B744
330
B734
100
AcDbEntity
  8
0
100
AcDbLine
 10
-2.000000000000005
 20
15.375
 30
0.0
 11
-2.00000000000001
 21
42.99999999999997
 31
0.0
  0
LINE
  5
B745
330
B734
100
AcDbEntity
  8
0
100
AcDbLine
 10
0.0
 20
42.99999999999997
 30
0.0
 11
0.0
 21
200.0
 31
0.0
  0
CIRCLE
  5
B746
330
B734
100
AcDbEntity
  8
0
100
AcDbCircle
 10
-38.50000000000004
 20
185.0
 30
0.0
 40
2.5
  0
LINE
  5
B747
330
B734
100
AcDbEntity
  8
0
100
AcDbLine
 10
-46.00000000000004
 20
42.99999999999997
 30
0.0
 11
-86.00000000000006
 21
13.0
 31
0.0
  0
LINE
  5
B748
330
B734
100
AcDbEntity
  8
0
100
AcDbLine
 10
-46.00000000000001
 20
200.0
 30
0.0
 11
-46.00000000000004
 21
42.99999999999997
 31
0.0
  0
LINE
  5
B749
330
B734
100
AcDbEntity
  8
0
100
AcDbLine
 10
-86.00000000000006
 20
13.0
 30
0.0
 11
-86.00000000000001
 21
1.999999999999999
 31
0.0
  0
LINE
  5
B74A
330
B734
100
AcDbEntity
  8
0
100
AcDbLine
 10
-4.000000000000003
 20
200.0
 30
0.0
 11
-46.00000000000001
 21
200.0
 31
0.0
  0
LINE
  5
B74B
330
B734
100
AcDbEntity
  8
0
100
AcDbLine
 10
-2.000000000000001
 20
200.0
 30
0.0
 11
-4.000000000000003
 21
200.0
 31
0.0
  0
LINE
  5
B74C
330
B734
100
AcDbEntity
  8
0
100
AcDbLine
 10
0.0
 20
200.0
 30
0.0
 11
-2.00000000000001
 21
200.0
 31
0.0
  0
LINE
  5
B74D
330
B734
100
AcDbEntity
  8
0
100
AcDbLine
 10
-2.00000000000001
 20
42.99999999999997
 30
0.0
 11
-2.00000000000001
 21
200.0
 31
0.0
  0
CIRCLE
  5
B74E
330
B734
100
AcDbEntity
  8
0
100
AcDbCircle
 10
-38.50000000000004
 20
25.0
 30
0.0
 40
2.5
  0
CIRCLE
  5
B74F
330
B734
100
AcDbEntity
  8
0
100
AcDbCircle
 10
-38.50000000000004
 20
45.0
 30
0.0
 40
2.5
  0
CIRCLE
  5
B750
330
B734
100
AcDbEntity
  8
0
100
AcDbCircle
 10
-38.50000000000004
 20
65.0
 30
0.0
 40
2.5
  0
CIRCLE
  5
B751
330
B734
100
AcDbEntity
  8
0
100
AcDbCircle
 10
-38.50000000000004
 20
85.0
 30
0.0
 40
2.5
  0
CIRCLE
  5
B752
330
B734
100
AcDbEntity
  8
0
100
AcDbCircle
 10
-38.50000000000004
 20
105.0
 30
0.0
 40
2.5
  0
CIRCLE
  5
B753
330
B734
100
AcDbEntity
  8
0
100
AcDbCircle
 10
-38.50000000000004
 20
125.0
 30
0.0
 40
2.5
  0
CIRCLE
  5
B754
330
B734
100
AcDbEntity
  8
0
100
AcDbCircle
 10
-38.50000000000004
 20
145.0
 30
0.0
 40
2.5
  0
CIRCLE
  5
B755
330
B734
100
AcDbEntity
  8
0
100
AcDbCircle
 10
-38.50000000000004
 20
165.0
 30
0.0
 40
2.5
  0
SPLINE
  5
B756
330
B734
100
AcDbEntity
  8
0
100
AcDbSpline
210
0.0
220
0.0
230
1.0
 70
     8
 71
     3
 72
     8
 73
     4
 74
     0
 42
0.000000001
 43
0.0000000001
 40
0.0154461875002185
 40
0.0154461875002185
 40
0.0154461875002185
 40
0.0154461875002185
 40
0.0169922247354964
 40
0.0169922247354964
 40
0.0169922247354964
 40
0.0169922247354964
 10
-1.999905904167141
 20
13.00798940015404
 30
0.0
 10
-1.999906953768374
 20
13.00554825561437
 30
0.0
 10
-1.999905499252394
 20
13.00287876936682
 30
0.0
 10
-1.999900372537205
 20
13.00000015086073
 30
0.0
  0
ENDBLK
  5
B736
330
B734
100
AcDbEntity
  8
0
100
AcDbBlockEnd
  0
BLOCK
  5
B758
330
B757
100
AcDbEntity
  8
0
100
AcDbBlockBegin
  2
SAE500_100_2-Top
 70
     0
 10
0.0
 20
0.0
 30
0.0
  3
SAE500_100_2-Top
  1

  0
LINE
  5
B75A
330
B757
100
AcDbEntity
  8
0
100
AcDbLine
 10
50.0
 20
-1.999999999999999
 30
0.0
 11
50.0
 21
-2.065911061917141
 31
0.0
  0
SPLINE
  5
B75B
330
B757
100
AcDbEntity
  8
0
100
AcDbSpline
210
0.0
220
0.0
230
1.0
 70
     8
 71
     3
 72
    11
 73
     7
 74
     0
 42
0.000000001
 43
0.0000000001
 40
-1.0
 40
-1.0
 40
-1.0
 40
-1.0
 40
-0.7906685193901008
 40
-0.7906685193901008
 40
-0.7906685193901008
 40
-0.6558036019282479
 40
-0.6558036019282479
 40
-0.6558036019282479
 40
-0.6558036019282479
 10
49.99999999999996
 20
-1.999999999999939
 30
0.0
 10
50.00001668753104
 20
-1.99722380222123
 30
0.0
 10
50.13599085879186
 20
-1.91145346341594
 30
0.0
 10
50.3670380015053
 20
-1.773190688126865
 30
0.0
 10
50.51589355701496
 20
-1.68411284028917
 30
0.0
 10
50.70303718817555
 20
-1.573717687759879
 30
0.0
 10
50.91723157308718
 20
-1.451958811591966
 30
0.0
  0
SPLINE
  5
B75C
330
B757
100
AcDbEntity
  8
0
100
AcDbSpline
210
0.0
220
0.0
230
1.0
 70
     8
 71
     3
 72
    10
 73
     6
 74
     0
 42
0.000000001
 43
0.0000000001
 40
0.0
 40
0.0
 40
0.0
 40
0.0
 40
0.0704514369652349
 40
0.0704514369652349
 40
0.1094289873653201
 40
0.1094289873653201
 40
0.1094289873653201
 40
0.1094289873653201
 10
54.64812200990493
 20
-2.000040667433792
 30
0.0
 10
54.43536824865127
 20
-2.000374945542877
 30
0.0
 10
54.21770950610516
 20
-2.001759944382163
 30
0.0
 10
53.87455256327212
 20
-2.015378806152989
 30
0.0
 10
53.74912164460855
 20
-2.022753021700808
 30
0.0
 10
53.62254551644006
 20
-2.035940909016322
 30
0.0
  0
SPLINE
  5
B75D
330
B757
100
AcDbEntity
  8
0
100
AcDbSpline
210
0.0
220
0.0
230
1.0
 70
     8
 71
     3
 72
     8
 73
     4
 74
     0
 42
0.000000001
 43
0.0000000001
 40
0.0540992080411879
 40
0.0540992080411879
 40
0.0540992080411879
 40
0.0540992080411879
 40
0.0576453190767161
 40
0.0576453190767161
 40
0.0576453190767161
 40
0.0576453190767161
 10
52.00026352840893
 20
-3.967533953295721
 30
0.0
 10
52.00015827301507
 20
-3.978688142407137
 30
0.0
 10
52.00009104601656
 20
-3.989481761141725
 30
0.0
 10
52.0000519560699
 20
-3.999998939803078
 30
0.0
  0
SPLINE
  5
B75E
330
B757
100
AcDbEntity
  8
0
100
AcDbSpline
210
0.0
220
0.0
230
1.0
 70
     8
 71
     3
 72
    24
 73
    20
 74
     0
 42
0.000000001
 43
0.0000000001
 40
0.0
 40
0.0
 40
0.0
 40
0.0
 40
0.000014721648989
 40
0.000014721648989
 40
0.0000441649470277
 40
0.0000441649470277
 40
0.0009863534343869
 40
0.0009863534343869
 40
0.0023975634083377
 40
0.0023975634083377
 40
0.0051013399421727
 40
0.0051013399421727
 40
0.0102472367279785
 40
0.0102472367279785
 40
0.0254080507693479
 40
0.0254080507693479
 40
0.0292305518315978
 40
0.0292305518315978
 40
0.0304072823703525
 40
0.0304072823703525
 40
0.0304072823703525
 40
0.0304072823703525
 10
49.99957010612742
 20
-4.112153434764633
 30
0.0
 10
49.99957024138545
 20
-4.112124805487963
 30
0.0
 10
49.99957037659625
 20
-4.112096177685798
 30
0.0
 10
49.99957078208709
 20
-4.11201029871517
 30
0.0
 10
49.99957105222553
 20
-4.111953051981309
 30
0.0
 10
49.99957996059244
 20
-4.110064099485867
 30
0.0
 10
49.99958840569596
 20
-4.108238454293557
 30
0.0
 10
49.99960902163294
 20
-4.10369476614128
 30
0.0
 10
49.99962095431559
 20
-4.100984878958405
 30
0.0
 10
49.99965452504916
 20
-4.093130136184861
 30
0.0
 10
49.99967503784663
 20
-4.088028728976379
 30
0.0
 10
49.99973046675491
 20
-4.073404512471277
 30
0.0
 10
49.99976156688531
 20
-4.064060341607549
 30
0.0
 10
49.99987096136618
 20
-4.027801577313778
 30
0.0
 10
49.99993908300361
 20
-3.997820117734669
 30
0.0
 10
50.00006233148813
 20
-3.971010600703594
 30
0.0
 10
50.00008617218966
 20
-3.966520177831757
 30
0.0
 10
50.00009869329446
 20
-3.964137867580607
 30
0.0
 10
50.00010028603321
 20
-3.963830760689893
 30
0.0
 10
50.00010028603289
 20
-3.963830760751867
 30
0.0
  0
SPLINE
  5
B75F
330
B757
100
AcDbEntity
  8
0
100
AcDbSpline
210
0.0
220
0.0
230
1.0
 70
     8
 71
     3
 72
     8
 73
     4
 74
     0
 42
0.000000001
 43
0.0000000001
 40
0.0627881089767731
 40
0.0627881089767731
 40
0.0627881089767731
 40
0.0627881089767731
 40
0.0660606138055598
 40
0.0660606138055598
 40
0.0660606138055598
 40
0.0660606138055598
 10
49.99996952010416
 20
-3.993110160101212
 30
0.0
 10
49.99996726763071
 20
-3.992155794722309
 30
0.0
 10
49.99996607265792
 20
-3.991707928457596
 30
0.0
 10
49.99996607265599
 20
-3.991707927754323
 30
0.0
  0
SPLINE
  5
B760
330
B757
100
AcDbEntity
  8
0
100
AcDbSpline
210
0.0
220
0.0
230
1.0
 70
     8
 71
     3
 72
    12
 73
     8
 74
     0
 42
0.000000001
 43
0.0000000001
 40
0.0
 40
0.0
 40
0.0
 40
0.0
 40
0.0070692688145051
 40
0.0070692688145051
 40
0.0092621033344354
 40
0.0092621033344354
 40
0.0098193573909114
 40
0.0098193573909114
 40
0.0098193573909114
 40
0.0098193573909114
 10
49.9999458461431
 20
-3.999999559992187
 30
0.0
 10
49.99998637701828
 20
-3.987664034119277
 30
0.0
 10
50.00004242847106
 20
-3.975033598996608
 30
0.0
 10
50.00008850021131
 20
-3.966057043856118
 30
0.0
 10
50.00009655401982
 20
-3.964547150772292
 30
0.0
 10
50.00009993481612
 20
-3.963899034334806
 30
0.0
 10
50.00010028603279
 20
-3.963830760763051
 30
0.0
 10
50.00010028603282
 20
-3.96383076075711
 30
0.0
  0
SPLINE
  5
B761
330
B757
100
AcDbEntity
  8
0
100
AcDbSpline
210
0.0
220
0.0
230
1.0
 70
     8
 71
     3
 72
     8
 73
     4
 74
     0
 42
0.000000001
 43
0.0000000001
 40
0.0046267239875836
 40
0.0046267239875836
 40
0.0046267239875836
 40
0.0046267239875836
 40
0.0079165843614641
 40
0.0079165843614641
 40
0.0079165843614641
 40
0.0079165843614641
 10
49.99996943751368
 20
-3.993167507294833
 30
0.0
 10
49.99996718528842
 20
-3.992213247080334
 30
0.0
 10
49.999966072656
 20
-3.991707927756078
 30
0.0
 10
49.999966072656
 20
-3.991707927756338
 30
0.0
  0
SPLINE
  5
B762
330
B757
100
AcDbEntity
  8
0
100
AcDbSpline
210
0.0
220
0.0
230
1.0
 70
     8
 71
     3
 72
    30
 73
    26
 74
     0
 42
0.000000001
 43
0.0000000001
 40
0.0088758082018424
 40
0.0088758082018424
 40
0.0088758082018424
 40
0.0088758082018424
 40
0.0094844848343756
 40
0.0094844848343756
 40
0.0097881811882414
 40
0.0097881811882414
 40
0.0104055682518953
 40
0.0104055682518953
 40
0.0201240755250055
 40
0.0201240755250055
 40
0.0297537916637412
 40
0.0297537916637412
 40
0.0586486871101892
 40
0.0586486871101892
 40
0.1454192076662477
 40
0.1454192076662477
 40
0.1835488420285368
 40
0.1835488420285368
 40
0.2029808507106518
 40
0.2029808507106518
 40
0.2129496933084532
 40
0.2129496933084532
 40
0.2183654382346049
 40
0.2183654382346049
 40
0.2240915089070853
 40
0.2240915089070853
 40
0.2240915089070853
 40
0.2240915089070853
 10
49.99995432995363
 20
-3.997458536445651
 30
0.0
 10
49.99994994885852
 20
-3.997204866817334
 30
0.0
 10
49.99994287983235
 20
-3.996795231640792
 30
0.0
 10
49.99992335830725
 20
-3.995662954548761
 30
0.0
 10
49.99991472824111
 20
-3.995162174446402
 30
0.0
 10
49.99988222033048
 20
-3.993273284985852
 30
0.0
 10
49.99985211439804
 20
-3.991520353008189
 30
0.0
 10
49.9993454818606
 20
-3.961910092855791
 30
0.0
 10
49.99883091250772
 20
-3.930211425012421
 30
0.0
 10
49.99792788846555
 20
-3.87063124163892
 30
0.0
 10
49.99750950521729
 20
-3.841047831607178
 30
0.0
 10
49.99596790942717
 20
-3.723178808604725
 30
0.0
 10
49.99511741058442
 20
-3.635933788222583
 30
0.0
 10
49.99276581332302
 20
-3.287213949134861
 30
0.0
 10
49.99311032915358
 20
-3.01997430054945
 30
0.0
 10
49.99520130456165
 20
-2.626824622576932
 30
0.0
 10
49.99607911858774
 20
-2.506923998314492
 30
0.0
 10
49.99763558487953
 20
-2.331498608526373
 30
0.0
 10
49.99827431307096
 20
-2.272168593258604
 30
0.0
 10
49.99911584989212
 20
-2.185242029471521
 30
0.0
 10
49.99934105284477
 20
-2.156432710349984
 30
0.0
 10
49.99951692631069
 20
-2.11772566010489
 30
0.0
 10
49.99954968251523
 20
-2.105028193167246
 30
0.0
 10
49.99957794402233
 20
-2.082278687686293
 30
0.0
 10
49.99957150145856
 20
-2.072125601879949
 30
0.0
 10
49.99956150307763
 20
-2.065911061917141
 30
0.0
  0
LINE
  5
B763
330
B757
100
AcDbEntity
  8
0
100
AcDbLine
 10
-50.0
 20
-1.999999999999999
 30
0.0
 11
-50.0
 21
-2.065910882191356
 31
0.0
  0
SPLINE
  5
B764
330
B757
100
AcDbEntity
  8
0
100
AcDbSpline
210
0.0
220
0.0
230
1.0
 70
     8
 71
     3
 72
    11
 73
     7
 74
     0
 42
0.000000001
 43
0.0000000001
 40
-1.0
 40
-1.0
 40
-1.0
 40
-1.0
 40
-0.7906685193901008
 40
-0.7906685193901008
 40
-0.7906685193901008
 40
-0.6558036019282479
 40
-0.6558036019282479
 40
-0.6558036019282479
 40
-0.6558036019282479
 10
-49.99999999999996
 20
-1.999999999999939
 30
0.0
 10
-50.00001668753104
 20
-1.99722380222123
 30
0.0
 10
-50.13599085879186
 20
-1.91145346341594
 30
0.0
 10
-50.3670380015053
 20
-1.773190688126865
 30
0.0
 10
-50.51589355701496
 20
-1.68411284028917
 30
0.0
 10
-50.70303718817555
 20
-1.573717687759879
 30
0.0
 10
-50.91723157308718
 20
-1.451958811591966
 30
0.0
  0
SPLINE
  5
B765
330
B757
100
AcDbEntity
  8
0
100
AcDbSpline
210
0.0
220
0.0
230
1.0
 70
     8
 71
     3
 72
    38
 73
    34
 74
     0
 42
0.000000001
 43
0.0000000001
 40
0.0
 40
0.0
 40
0.0
 40
0.0
 40
0.0000314650904697
 40
0.0000314650904697
 40
0.0001036459329031
 40
0.0001036459329031
 40
0.0006928968079884
 40
0.0006928968079884
 40
0.001878125370332
 40
0.001878125370332
 40
0.00420200408986
 40
0.00420200408986
 40
0.0085734030292003
 40
0.0085734030292003
 40
0.0162801029235074
 40
0.0162801029235074
 40
0.0287687328823421
 40
0.0287687328823421
 40
0.0808538651045176
 40
0.0808538651045176
 40
0.1503226947222035
 40
0.1503226947222035
 40
0.1965842184059266
 40
0.1965842184059266
 40
0.2120000055898464
 40
0.2120000055898464
 40
0.2158988084399707
 40
0.2158988084399707
 40
0.2163891729191318
 40
0.2163891729191318
 40
0.2166316229369491
 40
0.2166316229369491
 40
0.2173481207486366
 40
0.2173481207486366
 40
0.2173481207486366
 40
0.2173481207486366
 10
-49.99955086269292
 20
-2.060836546772682
 30
0.0
 10
-49.99955090756699
 20
-2.06085289054172
 30
0.0
 10
-49.999550954177
 20
-2.060869919988958
 30
0.0
 10
-49.99955110359055
 20
-2.060924704587985
 30
0.0
 10
-49.99955120891744
 20
-2.06096362050029
 30
0.0
 10
-49.99955218514192
 20
-2.061327199544314
 30
0.0
 10
-49.9995531355607
 20
-2.061702056527463
 30
0.0
 10
-49.99955613265115
 20
-2.062978339638513
 30
0.0
 10
-49.99955831587314
 20
-2.06403103828577
 30
0.0
 10
-49.99956453937066
 20
-2.067662652975246
 30
0.0
 10
-49.99956833449556
 20
-2.07074675407338
 30
0.0
 10
-49.99957424591908
 20
-2.080986871985457
 30
0.0
 10
-49.99957200617619
 20
-2.089374261718196
 30
0.0
 10
-49.99952953600433
 20
-2.115004184332303
 30
0.0
 10
-49.99945757452938
 20
-2.134436451537281
 30
0.0
 10
-49.99910369292061
 20
-2.189121932667072
 30
0.0
 10
-49.99871213972699
 20
-2.226997554800718
 30
0.0
 10
-49.99671400081133
 20
-2.42142236538072
 30
0.0
 10
-49.99542764758327
 20
-2.583911193930911
 30
0.0
 10
-49.99339712819878
 20
-2.966527027589471
 30
0.0
 10
-49.99299983019752
 20
-3.182773960789502
 30
0.0
 10
-49.99422941942022
 20
-3.532884479090477
 30
0.0
 10
-49.99528600137022
 20
-3.671395748933824
 30
0.0
 10
-49.99776059213512
 20
-3.860125109155612
 30
0.0
 10
-49.99846509020998
 20
-3.907667052379951
 30
0.0
 10
-49.99943926569345
 20
-3.967167310433374
 30
0.0
 10
-49.99965165467551
 20
-3.979817025994465
 30
0.0
 10
-49.99986225093415
 20
-3.992110532028216
 30
0.0
 10
-49.99988509672963
 20
-3.993440320069205
 30
0.0
 10
-49.99991135649763
 20
-3.994966301281904
 30
0.0
 10
-49.9999187703024
 20
-3.995396669922509
 30
0.0
 10
-49.99994236504903
 20
-3.99676568052333
 30
0.0
 10
-49.99994971724174
 20
-3.997191401252809
 30
0.0
 10
-49.99995433050582
 20
-3.99745837371803
 30
0.0
  0
SPLINE
  5
B766
330
B757
100
AcDbEntity
  8
0
100
AcDbSpline
210
0.0
220
0.0
230
1.0
 70
     8
 71
     3
 72
    38
 73
    34
 74
     0
 42
0.000000001
 43
0.0000000001
 40
0.0
 40
0.0
 40
0.0
 40
0.0
 40
0.0042155397063999
 40
0.0042155397063999
 40
0.0094084015461917
 40
0.0094084015461917
 40
0.0174403857593836
 40
0.0174403857593836
 40
0.0285096308989
 40
0.0285096308989
 40
0.0616586730815988
 40
0.0616586730815988
 40
0.1610776445864827
 40
0.1610776445864827
 40
0.1899991366445451
 40
0.1899991366445451
 40
0.2043619557500989
 40
0.2043619557500989
 40
0.2114354222060054
 40
0.2114354222060054
 40
0.2132185580506625
 40
0.2132185580506625
 40
0.2138881503931745
 40
0.2138881503931745
 40
0.2142553741002279
 40
0.2142553741002279
 40
0.2144926932908164
 40
0.2144926932908164
 40
0.2148245561562663
 40
0.2148245561562663
 40
0.2152693391583304
 40
0.2152693391583304
 40
0.2152804026412153
 40
0.2152804026412153
 40
0.2152804026412153
 40
0.2152804026412153
 10
-49.99956150278844
 20
-2.065910882191356
 30
0.0
 10
-49.99956886364526
 20
-2.070485977217544
 30
0.0
 10
-49.99957445746172
 20
-2.077223155540874
 30
0.0
 10
-49.99956666423743
 20
-2.094682733673862
 30
0.0
 10
-49.99954861236504
 20
-2.106114149235169
 30
0.0
 10
-49.99944066048058
 20
-2.137665182560626
 30
0.0
 10
-49.99931048565213
 20
-2.159556701856702
 30
0.0
 10
-49.99886086456627
 20
-2.214093936164485
 30
0.0
 10
-49.99849770097343
 20
-2.247635745736189
 30
0.0
 10
-49.99713722225576
 20
-2.381157680518807
 30
0.0
 10
-49.99628747551617
 20
-2.482645576882457
 30
0.0
 10
-49.99337069502205
 20
-2.897245083817083
 30
0.0
 10
-49.99252096676344
 20
-3.209538026161631
 30
0.0
 10
-49.99479251288099
 20
-3.596463039799498
 30
0.0
 10
-49.99555488511011
 20
-3.683597548064959
 30
0.0
 10
-49.99715271742836
 20
-3.815540992974141
 30
0.0
 10
-49.99775755793203
 20
-3.85961954067915
 30
0.0
 10
-49.99876354650666
 20
-3.92564096903726
 30
0.0
 10
-49.9991128950639
 20
-3.947504756006678
 30
0.0
 10
-49.99956652896281
 20
-3.974708552893486
 30
0.0
 10
-49.99965910457944
 20
-3.980201302895117
 30
0.0
 10
-49.99978399464218
 20
-3.98753854117935
 30
0.0
 10
-49.99981809759231
 20
-3.989534271791503
 30
0.0
 10
-49.9998668886162
 20
-3.992380226314247
 30
0.0
 10
-49.99988347897752
 20
-3.993345952949005
 30
0.0
 10
-49.99990633204697
 20
-3.994674462244373
 30
0.0
 10
-49.99991419349884
 20
-3.995130975370695
 30
0.0
 10
-49.99992959470676
 20
-3.996024836028178
 30
0.0
 10
-49.99993594625493
 20
-3.996393044869448
 30
0.0
 10
-49.99994713477864
 20
-3.997041521245697
 30
0.0
 10
-49.99995102774946
 20
-3.997266971992699
 30
0.0
 10
-49.99995417965028
 20
-3.997449501899615
 30
0.0
 10
-49.99995425555607
 20
-3.997453897655891
 30
0.0
 10
-49.99995433088948
 20
-3.997458260237401
 30
0.0
  0
SPLINE
  5
B767
330
B757
100
AcDbEntity
  8
0
100
AcDbSpline
210
0.0
220
0.0
230
1.0
 70
     8
 71
     3
 72
    14
 73
    10
 74
     0
 42
0.000000001
 43
0.0000000001
 40
0.0084924939786148
 40
0.0084924939786148
 40
0.0084924939786148
 40
0.0084924939786148
 40
0.0097191002671021
 40
0.0097191002671021
 40
0.012178578203083
 40
0.012178578203083
 40
0.0158342201506628
 40
0.0158342201506628
 40
0.0183225655735612
 40
0.0183225655735612
 40
0.0183225655735612
 40
0.0183225655735612
 10
-50.00010028603286
 20
-3.963830760759231
 30
0.0
 10
-50.00010028603516
 20
-3.963830760310567
 30
0.0
 10
-50.00009854227858
 20
-3.964166685076169
 30
0.0
 10
-50.00008894048912
 20
-3.965993283013487
 30
0.0
 10
-50.0000766259037
 20
-3.96831834261357
 30
0.0
 10
-50.00004075144694
 20
-3.975573466921693
 30
0.0
 10
-50.00001508868023
 20
-3.981218095407754
 30
0.0
 10
-49.9999753961605
 20
-3.991368033895966
 30
0.0
 10
-49.99996011279788
 20
-3.995657519796483
 30
0.0
 10
-49.99994584614309
 20
-3.999999559992188
 30
0.0
  0
SPLINE
  5
B768
330
B757
100
AcDbEntity
  8
0
100
AcDbSpline
210
0.0
220
0.0
230
1.0
 70
     8
 71
     3
 72
     8
 73
     4
 74
     0
 42
0.000000001
 43
0.0000000001
 40
0.010508554003716
 40
0.010508554003716
 40
0.010508554003716
 40
0.010508554003716
 40
0.0138059198347683
 40
0.0138059198347683
 40
0.0138059198347683
 40
0.0138059198347683
 10
-49.99996607265597
 20
-3.991707927754601
 30
0.0
 10
-49.9999660726676
 20
-3.991707932007273
 30
0.0
 10
-49.99996717751884
 20
-3.992209952371035
 30
0.0
 10
-49.99996942698479
 20
-3.993163043482087
 30
0.0
  0
SPLINE
  5
B769
330
B757
100
AcDbEntity
  8
0
100
AcDbSpline
210
0.0
220
0.0
230
1.0
 70
     8
 71
     3
 72
     8
 73
     4
 74
     0
 42
0.000000001
 43
0.0000000001
 40
0.0191131045749512
 40
0.0191131045749512
 40
0.0191131045749512
 40
0.0191131045749512
 40
0.0194646762026523
 40
0.0194646762026523
 40
0.0194646762026523
 40
0.0194646762026523
 10
-49.99997709231705
 20
-3.998776051043959
 30
0.0
 10
-49.99997828847624
 20
-3.999168320966589
 30
0.0
 10
-49.99997952673152
 20
-3.999576200173637
 30
0.0
 10
-49.9999808090383
 20
-4.000000149069665
 30
0.0
  0
SPLINE
  5
B76A
330
B757
100
AcDbEntity
  8
0
100
AcDbSpline
210
0.0
220
0.0
230
1.0
 70
     8
 71
     3
 72
     8
 73
     4
 74
     0
 42
0.000000001
 43
0.0000000001
 40
0.0
 40
0.0
 40
0.0
 40
0.0
 40
0.0035328219106787
 40
0.0035328219106787
 40
0.0035328219106787
 40
0.0035328219106787
 10
-52.00005195606987
 20
-3.999998939803078
 30
0.0
 10
-52.00009089952617
 20
-3.989521174487584
 30
0.0
 10
-52.00015835353808
 20
-3.978682448681893
 30
0.0
 10
-52.00026353295292
 20
-3.967533673411809
 30
0.0
  0
SPLINE
  5
B76B
330
B757
100
AcDbEntity
  8
0
100
AcDbSpline
210
0.0
220
0.0
230
1.0
 70
     8
 71
     3
 72
    12
 73
     8
 74
     0
 42
0.000000001
 43
0.0000000001
 40
0.1039331131528786
 40
0.1039331131528786
 40
0.1039331131528786
 40
0.1039331131528786
 40
0.1131931781684702
 40
0.1131931781684702
 40
0.1628450129021935
 40
0.1628450129021935
 40
0.2134662362745136
 40
0.2134662362745136
 40
0.2134662362745136
 40
0.2134662362745136
 10
-53.62254551654176
 20
-2.035940909005722
 30
0.0
 10
-53.65261610601831
 20
-2.03280787317052
 30
0.0
 10
-53.68257302912333
 20
-2.030018143615631
 30
0.0
 10
-53.87210579548978
 20
-2.01408837123018
 30
0.0
 10
-54.02836562497883
 20
-2.008357475600655
 30
0.0
 10
-54.33898518732051
 20
-2.001310342118769
 30
0.0
 10
-54.49525279764118
 20
-2.000280855108556
 30
0.0
 10
-54.64812200990494
 20
-2.000040667433792
 30
0.0
  0
LINE
  5
B76C
330
B757
100
AcDbEntity
  8
0
100
AcDbLine
 10
-50.0
 20
-1.999999999999999
 30
0.0
 11
-48.0
 21
-1.999999999999997
 31
0.0
  0
LINE
  5
B76D
330
B757
100
AcDbEntity
  8
0
100
AcDbLine
 10
-49.99999999999999
 20
-86.00000000000001
 30
0.0
 11
-47.99999999999998
 21
-86.00000000000001
 31
0.0
  0
LINE
  5
B76E
330
B757
100
AcDbEntity
  8
0
100
AcDbLine
 10
48.00000000000001
 20
-1.999999999999997
 30
0.0
 11
-48.00000000000001
 21
-1.999999999999997
 31
0.0
  0
LINE
  5
B76F
330
B757
100
AcDbEntity
  8
0
100
AcDbLine
 10
-47.99999999999998
 20
-86.00000000000001
 30
0.0
 11
48.0
 21
-86.00000000000001
 31
0.0
  0
CIRCLE
  5
B770
330
B757
100
AcDbEntity
  8
0
100
AcDbCircle
 10
0.0
 20
-47.99999999999998
 30
0.0
 40
2.5
  0
CIRCLE
  5
B771
330
B757
100
AcDbEntity
  8
0
100
AcDbCircle
 10
0.0
 20
-67.99999999999998
 30
0.0
 40
2.5
  0
LINE
  5
B772
330
B757
100
AcDbEntity
  8
0
100
AcDbLine
 10
50.0
 20
-1.999999999999999
 30
0.0
 11
48.0
 21
-1.999999999999997
 31
0.0
  0
LINE
  5
B773
330
B757
100
AcDbEntity
  8
0
100
AcDbLine
 10
54.0
 20
0.0
 30
0.0
 11
91.5
 21
0.0
 31
0.0
  0
ARC
  5
B774
330
B757
100
AcDbEntity
  8
0
100
AcDbCircle
 10
54.0
 20
-4.000000000000003
 30
0.0
 40
4.000000000000003
100
AcDbArc
 50
90.0
 51
180.0
  0
LINE
  5
B775
330
B757
100
AcDbEntity
  8
0
100
AcDbLine
 10
49.99999999999999
 20
-86.00000000000006
 30
0.0
 11
50.0
 21
-46.00000000000004
 31
0.0
  0
LINE
  5
B776
330
B757
100
AcDbEntity
  8
0
100
AcDbLine
 10
51.99999999999999
 20
-86.00000000000006
 30
0.0
 11
49.99999999999999
 21
-86.00000000000006
 31
0.0
  0
LINE
  5
B777
330
B757
100
AcDbEntity
  8
0
100
AcDbLine
 10
51.99999999999999
 20
-46.00000000000004
 30
0.0
 11
51.99999999999999
 21
-86.00000000000006
 31
0.0
  0
LINE
  5
B778
330
B757
100
AcDbEntity
  8
0
100
AcDbLine
 10
50.0
 20
-46.00000000000001
 30
0.0
 11
51.99999999999999
 21
-46.00000000000001
 31
0.0
  0
LINE
  5
B779
330
B757
100
AcDbEntity
  8
0
100
AcDbLine
 10
52.0
 20
-4.000000000000003
 30
0.0
 11
51.99999999999999
 21
-46.00000000000001
 31
0.0
  0
LINE
  5
B77A
330
B757
100
AcDbEntity
  8
0
100
AcDbLine
 10
50.0
 20
-46.00000000000001
 30
0.0
 11
50.0
 21
-4.000000000000003
 31
0.0
  0
LINE
  5
B77B
330
B757
100
AcDbEntity
  8
0
100
AcDbLine
 10
49.99999999999999
 20
-86.00000000000001
 30
0.0
 11
47.99999999999998
 21
-86.00000000000001
 31
0.0
  0
ARC
  5
B77C
330
B757
100
AcDbEntity
  8
0
100
AcDbCircle
 10
54.0
 20
-4.000000000000003
 30
0.0
 40
2.000000000000001
100
AcDbArc
 50
90.0
 51
180.0
  0
LINE
  5
B77D
330
B757
100
AcDbEntity
  8
0
100
AcDbLine
 10
91.5
 20
0.0
 30
0.0
 11
91.5
 21
-2.00000000000001
 31
0.0
  0
LINE
  5
B77E
330
B757
100
AcDbEntity
  8
0
100
AcDbLine
 10
91.5
 20
-2.00000000000001
 30
0.0
 11
54.0
 21
-2.000000000000001
 31
0.0
  0
LINE
  5
B77F
330
B757
100
AcDbEntity
  8
0
100
AcDbLine
 10
-91.5
 20
-2.00000000000001
 30
0.0
 11
-54.0
 21
-2.000000000000001
 31
0.0
  0
LINE
  5
B780
330
B757
100
AcDbEntity
  8
0
100
AcDbLine
 10
-50.0
 20
-46.00000000000001
 30
0.0
 11
-50.0
 21
-4.000000000000003
 31
0.0
  0
LINE
  5
B781
330
B757
100
AcDbEntity
  8
0
100
AcDbLine
 10
-52.0
 20
-4.000000000000003
 30
0.0
 11
-51.99999999999999
 21
-46.00000000000001
 31
0.0
  0
LINE
  5
B782
330
B757
100
AcDbEntity
  8
0
100
AcDbLine
 10
-54.0
 20
0.0
 30
0.0
 11
-91.5
 21
0.0
 31
0.0
  0
LINE
  5
B783
330
B757
100
AcDbEntity
  8
0
100
AcDbLine
 10
-91.5
 20
0.0
 30
0.0
 11
-91.5
 21
-2.00000000000001
 31
0.0
  0
ARC
  5
B784
330
B757
100
AcDbEntity
  8
0
100
AcDbCircle
 10
-54.0
 20
-4.000000000000003
 30
0.0
 40
2.000000000000001
100
AcDbArc
 50
0.0
 51
90.0
  0
ARC
  5
B785
330
B757
100
AcDbEntity
  8
0
100
AcDbCircle
 10
-54.0
 20
-4.000000000000003
 30
0.0
 40
4.000000000000003
100
AcDbArc
 50
0.0
 51
90.0
  0
LINE
  5
B786
330
B757
100
AcDbEntity
  8
0
100
AcDbLine
 10
-50.0
 20
-46.00000000000004
 30
0.0
 11
-49.99999999999999
 21
-86.00000000000006
 31
0.0
  0
LINE
  5
B787
330
B757
100
AcDbEntity
  8
0
100
AcDbLine
 10
-51.99999999999999
 20
-86.00000000000006
 30
0.0
 11
-51.99999999999999
 21
-46.00000000000004
 31
0.0
  0
LINE
  5
B788
330
B757
100
AcDbEntity
  8
0
100
AcDbLine
 10
-49.99999999999999
 20
-86.00000000000006
 30
0.0
 11
-51.99999999999999
 21
-86.00000000000006
 31
0.0
  0
LINE
  5
B789
330
B757
100
AcDbEntity
  8
0
100
AcDbLine
 10
-51.99999999999999
 20
-46.00000000000001
 30
0.0
 11
-50.0
 21
-46.00000000000001
 31
0.0
  0
ENDBLK
  5
B759
330
B757
100
AcDbEntity
  8
0
100
AcDbBlockEnd
  0
BLOCK
  5
B78B
330
B78A
100
AcDbEntity
  8
0
100
AcDbBlockBegin
  2
SAE500_100_2-Bottom
 70
     0
 10
0.0
 20
0.0
 30
0.0
  3
SAE500_100_2-Bottom
  1

  0
SPLINE
  5
B78D
330
B78A
100
AcDbEntity
  8
0
100
AcDbSpline
210
0.0
220
0.0
230
1.0
 70
     8
 71
     3
 72
    17
 73
    13
 74
     0
 42
0.000000001
 43
0.0000000001
 40
0.0
 40
0.0
 40
0.0
 40
0.0
 40
0.3690626432202771
 40
0.3690626432202771
 40
0.3690626432202771
 40
0.6936378220045477
 40
0.6936378220045477
 40
0.6936378220045477
 40
0.9219545386503819
 40
0.9219545386503819
 40
0.9219545386503819
 40
1.0
 40
1.0
 40
1.0
 40
1.0
 10
54.66666666666669
 20
2.000000000000028
 30
0.0
 10
54.31083458278063
 20
2.000007003368961
 30
0.0
 10
53.85987304241279
 20
2.000476349919029
 30
0.0
 10
53.42414735817492
 20
1.99986320454895
 30
0.0
 10
53.04094481936367
 20
1.999323968807349
 30
0.0
 10
52.67697529432242
 20
1.999985049619786
 30
0.0
 10
52.41326214680981
 20
2.000261627960646
 30
0.0
 10
52.22775775857549
 20
2.000456182143492
 30
0.0
 10
52.08930240206672
 20
2.00033355869933
 30
0.0
 10
52.03081927693739
 20
2.00005054797681
 30
0.0
 10
52.01082800100746
 20
1.999953806473471
 30
0.0
 10
51.99999739290342
 20
2.000681435773389
 30
0.0
 10
52.00000000006099
 20
2.000000000000308
 30
0.0
  0
ARC
  5
B78E
330
B78A
100
AcDbEntity
  8
0
100
AcDbCircle
 10
54.0
 20
4.000000000000003
 30
0.0
 40
1.999999999999992
100
AcDbArc
 50
180.3113451099069
 51
259.1109222747395
  0
ARC
  5
B78F
330
B78A
100
AcDbEntity
  8
0
100
AcDbCircle
 10
54.0
 20
4.000000000000003
 30
0.0
 40
3.999999999999994
100
AcDbArc
 50
219.556954689752
 51
270.0
  0
LINE
  5
B790
330
B78A
100
AcDbEntity
  8
0
100
AcDbLine
 10
54.66666666666675
 20
0.0
 30
0.0
 11
54.0
 21
0.0
 31
0.0
  0
SPLINE
  5
B791
330
B78A
100
AcDbEntity
  8
0
100
AcDbSpline
210
0.0
220
0.0
230
1.0
 70
     8
 71
     3
 72
    17
 73
    13
 74
     0
 42
0.000000001
 43
0.0000000001
 40
-1.0
 40
-1.0
 40
-1.0
 40
-1.0
 40
-0.7906685193901008
 40
-0.7906685193901008
 40
-0.7906685193901008
 40
-0.3894646005862433
 40
-0.3894646005862433
 40
-0.3894646005862433
 40
-0.1064781870786435
 40
-0.1064781870786435
 40
-0.1064781870786435
 40
0.0
 40
0.0
 40
0.0
 40
0.0
 10
49.99999999999996
 20
1.999999999999939
 30
0.0
 10
50.00001668753104
 20
1.99722380222123
 30
0.0
 10
50.13599085879186
 20
1.91145346341594
 30
0.0
 10
50.3670380015053
 20
1.773190688126865
 30
0.0
 10
50.80986207562446
 20
1.508196779379577
 30
0.0
 10
51.59152709942368
 20
1.054549467620502
 30
0.0
 10
52.41619003867997
 20
0.6742949633553637
 30
0.0
 10
52.99786034795445
 20
0.4060850747208781
 30
0.0
 10
53.60765563817527
 20
0.1716897863468934
 30
0.0
 10
54.12324022305281
 20
0.062042989508572
 30
0.0
 10
54.3172372111166
 20
0.0207866196298419
 30
0.0
 10
54.4987932434288
 20
0.0000165986139154
 30
0.0
 10
54.66666666666675
 20
0.0000000000000009
 30
0.0
  0
LINE
  5
B792
330
B78A
100
AcDbEntity
  8
0
100
AcDbLine
 10
54.66666666666675
 20
2.000000000000005
 30
0.0
 11
54.66666666666675
 21
0.0
 31
0.0
  0
SPLINE
  5
B793
330
B78A
100
AcDbEntity
  8
0
100
AcDbSpline
210
0.0
220
0.0
230
1.0
 70
     8
 71
     3
 72
    26
 73
    22
 74
     0
 42
0.000000001
 43
0.0000000001
 40
0.0712837232145821
 40
0.0712837232145821
 40
0.0712837232145821
 40
0.0712837232145821
 40
0.0717076577091484
 40
0.0717076577091484
 40
0.0726489099111747
 40
0.0726489099111747
 40
0.0735893606770332
 40
0.0735893606770332
 40
0.0754916084543176
 40
0.0754916084543176
 40
0.0792714075898971
 40
0.0792714075898971
 40
0.0831656048894605
 40
0.0831656048894605
 40
0.0925721114597614
 40
0.0925721114597614
 40
0.1131931781720647
 40
0.1131931781720647
 40
0.1628450129103622
 40
0.1628450129103622
 40
0.1918259878659181
 40
0.1918259878659181
 40
0.1918259878659181
 40
0.1918259878659181
 10
53.32135291138794
 20
2.081530384959263
 30
0.0
 10
53.32135291139834
 20
2.081530384956979
 30
0.0
 10
53.3214377642586
 20
2.081511760708809
 30
0.0
 10
53.32200842941091
 20
2.081387189838557
 30
0.0
 10
53.32288523700405
 20
2.081196244076231
 30
0.0
 10
53.32552935497083
 20
2.080627874403615
 30
0.0
 10
53.32731585620621
 20
2.080246573705209
 30
0.0
 10
53.3335597141415
 20
2.078930851312192
 30
0.0
 10
53.33895943297493
 20
2.077814842238026
 30
0.0
 10
53.35567041824749
 20
2.074452013468602
 30
0.0
 10
53.36805522397001
 20
2.072071219364551
 30
0.0
 10
53.39295054728051
 20
2.067505108288767
 30
0.0
 10
53.40577383160061
 20
2.065262229720751
 30
0.0
 10
53.44949786617128
 20
2.057948298544056
 30
0.0
 10
53.48055937880776
 20
2.053317460786143
 30
0.0
 10
53.57893830742483
 20
2.040049589192308
 30
0.0
 10
53.64602214403245
 20
2.033090157447636
 30
0.0
 10
53.87210579553857
 20
2.014088371227212
 30
0.0
 10
54.02836562504095
 20
2.008357475598414
 30
0.0
 10
54.27194938915531
 20
2.002831206465899
 30
0.0
 10
54.36152845247599
 20
2.001612352678795
 30
0.0
 10
54.45057516537677
 20
2.00089094594548
 30
0.0
  0
SPLINE
  5
B794
330
B78A
100
AcDbEntity
  8
0
100
AcDbSpline
210
0.0
220
0.0
230
1.0
 70
     8
 71
     3
 72
     8
 73
     4
 74
     0
 42
0.000000001
 43
0.0000000001
 40
0.0
 40
0.0
 40
0.0
 40
0.0
 40
0.0004772193618929
 40
0.0004772193618929
 40
0.0004772193618929
 40
0.0004772193618929
 10
52.00002447594041
 20
4.000002619656545
 30
0.0
 10
52.00001641895207
 20
3.999129705162676
 30
0.0
 10
52.00000824223477
 20
3.998227143367357
 30
0.0
 10
51.99999999999997
 20
3.997298520763358
 30
0.0
  0
SPLINE
  5
B795
330
B78A
100
AcDbEntity
  8
0
100
AcDbSpline
210
0.0
220
0.0
230
1.0
 70
     8
 71
     3
 72
    20
 73
    16
 74
     0
 42
0.000000001
 43
0.0000000001
 40
0.0
 40
0.0
 40
0.0
 40
0.0
 40
0.0056243718238719
 40
0.0056243718238719
 40
0.0088150404188715
 40
0.0088150404188715
 40
0.0117407488305665
 40
0.0117407488305665
 40
0.0143384412323603
 40
0.0143384412323603
 40
0.0172331019904986
 40
0.0172331019904986
 40
0.0203288171201483
 40
0.0203288171201483
 40
0.0219031273710925
 40
0.0219031273710925
 40
0.0219031273710925
 40
0.0219031273710925
 10
52.00005195606987
 20
3.999998939803078
 30
0.0
 10
52.00011395536785
 20
3.983317983471972
 30
0.0
 10
52.00024716986868
 20
3.965783257900359
 30
0.0
 10
52.00063173532068
 20
3.936931555296763
 30
0.0
 10
52.00081239926633
 20
3.92598040586806
 30
0.0
 10
52.0012155933522
 20
3.905856418363622
 30
0.0
 10
52.00143788656461
 20
3.896387911682916
 30
0.0
 10
52.00186079248863
 20
3.880398465811207
 30
0.0
 10
52.00206547775447
 20
3.873465907611431
 30
0.0
 10
52.00246729829046
 20
3.860788815151173
 30
0.0
 10
52.0026652824273
 20
3.855119553629764
 30
0.0
 10
52.00299226416695
 20
3.846155460771352
 30
0.0
 10
52.00311860295538
 20
3.842949889006501
 30
0.0
 10
52.00321395522912
 20
3.840549859363382
 30
0.0
 10
52.00323057408214
 20
3.840140828025291
 30
0.0
 10
52.0032305736826
 20
3.840140837897178
 30
0.0
  0
CIRCLE
  5
B796
330
B78A
100
AcDbEntity
  8
0
100
AcDbCircle
 10
0.0
 20
67.99999999999998
 30
0.0
 40
2.5
  0
CIRCLE
  5
B797
330
B78A
100
AcDbEntity
  8
0
100
AcDbCircle
 10
0.0
 20
47.99999999999998
 30
0.0
 40
2.5
  0
LINE
  5
B798
330
B78A
100
AcDbEntity
  8
0
100
AcDbLine
 10
48.00000000000001
 20
1.999999999999997
 30
0.0
 11
-48.00000000000001
 21
1.999999999999997
 31
0.0
  0
LINE
  5
B799
330
B78A
100
AcDbEntity
  8
0
100
AcDbLine
 10
47.99999999999998
 20
86.00000000000001
 30
0.0
 11
-47.99999999999998
 21
86.00000000000001
 31
0.0
  0
SPLINE
  5
B79A
330
B78A
100
AcDbEntity
  8
0
100
AcDbSpline
210
0.0
220
0.0
230
1.0
 70
     8
 71
     3
 72
    17
 73
    13
 74
     0
 42
0.000000001
 43
0.0000000001
 40
-1.0
 40
-1.0
 40
-1.0
 40
-1.0
 40
-0.7906685193901008
 40
-0.7906685193901008
 40
-0.7906685193901008
 40
-0.3894646005862433
 40
-0.3894646005862433
 40
-0.3894646005862433
 40
-0.1064781870786435
 40
-0.1064781870786435
 40
-0.1064781870786435
 40
0.0
 40
0.0
 40
0.0
 40
0.0
 10
-49.99999999999996
 20
1.999999999999939
 30
0.0
 10
-50.00001668753104
 20
1.99722380222123
 30
0.0
 10
-50.13599085879186
 20
1.91145346341594
 30
0.0
 10
-50.3670380015053
 20
1.773190688126865
 30
0.0
 10
-50.80986207562446
 20
1.508196779379577
 30
0.0
 10
-51.59152709942368
 20
1.054549467620502
 30
0.0
 10
-52.41619003867997
 20
0.6742949633553637
 30
0.0
 10
-52.99786034795445
 20
0.4060850747208781
 30
0.0
 10
-53.60765563817527
 20
0.1716897863468934
 30
0.0
 10
-54.12324022305281
 20
0.062042989508572
 30
0.0
 10
-54.3172372111166
 20
0.0207866196298419
 30
0.0
 10
-54.4987932434288
 20
0.0000165986139154
 30
0.0
 10
-54.66666666666675
 20
0.0000000000000009
 30
0.0
  0
LINE
  5
B79B
330
B78A
100
AcDbEntity
  8
0
100
AcDbLine
 10
-54.0
 20
0.0
 30
0.0
 11
-54.66666666666675
 21
0.0
 31
0.0
  0
ARC
  5
B79C
330
B78A
100
AcDbEntity
  8
0
100
AcDbCircle
 10
-54.0
 20
4.000000000000003
 30
0.0
 40
3.999999999999993
100
AcDbArc
 50
270.0
 51
320.4430453102478
  0
ARC
  5
B79D
330
B78A
100
AcDbEntity
  8
0
100
AcDbCircle
 10
-54.0
 20
4.000000000000003
 30
0.0
 40
1.999999999999992
100
AcDbArc
 50
280.8890777252763
 51
359.6889135731315
  0
SPLINE
  5
B79E
330
B78A
100
AcDbEntity
  8
0
100
AcDbSpline
210
0.0
220
0.0
230
1.0
 70
     8
 71
     3
 72
    17
 73
    13
 74
     0
 42
0.000000001
 43
0.0000000001
 40
0.0
 40
0.0
 40
0.0
 40
0.0
 40
0.3690626432202771
 40
0.3690626432202771
 40
0.3690626432202771
 40
0.6936378220045477
 40
0.6936378220045477
 40
0.6936378220045477
 40
0.9219545386503819
 40
0.9219545386503819
 40
0.9219545386503819
 40
1.0
 40
1.0
 40
1.0
 40
1.0
 10
-54.66666666666669
 20
2.000000000000028
 30
0.0
 10
-54.31083458278063
 20
2.000007003368961
 30
0.0
 10
-53.85987304241279
 20
2.000476349919029
 30
0.0
 10
-53.42414735817492
 20
1.99986320454895
 30
0.0
 10
-53.04094481936367
 20
1.999323968807349
 30
0.0
 10
-52.67697529432242
 20
1.999985049619786
 30
0.0
 10
-52.41326214680981
 20
2.000261627960646
 30
0.0
 10
-52.22775775857549
 20
2.000456182143492
 30
0.0
 10
-52.08930240206672
 20
2.00033355869933
 30
0.0
 10
-52.03081927693739
 20
2.00005054797681
 30
0.0
 10
-52.01082800100746
 20
1.999953806473471
 30
0.0
 10
-51.99999739290342
 20
2.000681435773389
 30
0.0
 10
-52.00000000006099
 20
2.000000000000308
 30
0.0
  0
LINE
  5
B79F
330
B78A
100
AcDbEntity
  8
0
100
AcDbLine
 10
-54.66666666666675
 20
0.0
 30
0.0
 11
-54.66666666666675
 21
2.000000000000005
 31
0.0
  0
SPLINE
  5
B7A0
330
B78A
100
AcDbEntity
  8
0
100
AcDbSpline
210
0.0
220
0.0
230
1.0
 70
     8
 71
     3
 72
    24
 73
    20
 74
     0
 42
0.000000001
 43
0.0000000001
 40
0.0357091702906851
 40
0.0357091702906851
 40
0.0357091702906851
 40
0.0357091702906851
 40
0.0363094656959279
 40
0.0363094656959279
 40
0.03871413441184
 40
0.03871413441184
 40
0.041119543472961
 40
0.041119543472961
 40
0.0435258527514228
 40
0.0435258527514228
 40
0.0459344736320866
 40
0.0459344736320866
 40
0.0483476382745142
 40
0.0483476382745142
 40
0.0504330345298116
 40
0.0504330345298116
 40
0.0539313265315591
 40
0.0539313265315591
 40
0.0576453190767161
 40
0.0576453190767161
 40
0.0576453190767161
 40
0.0576453190767161
 10
-52.00323057368258
 20
3.840140837897825
 30
0.0
 10
-52.00323057366782
 20
3.840140838262446
 30
0.0
 10
-52.00322819347093
 20
3.840199614494517
 30
0.0
 10
-52.00320456166841
 20
3.84078648254105
 30
0.0
 10
-52.00314702029881
 20
3.842213441604649
 30
0.0
 10
-52.00296641658298
 20
3.846903403126962
 30
0.0
 10
-52.0028421814489
 20
3.850201119064957
 30
0.0
 10
-52.00255014659754
 20
3.858449342294692
 30
0.0
 10
-52.00238036229793
 20
3.863461962447289
 30
0.0
 10
-52.00202402927169
 20
3.874867566580437
 30
0.0
 10
-52.0018346178683
 20
3.881360618242824
 30
0.0
 10
-52.00146570848304
 20
3.895365306740713
 30
0.0
 10
-52.00128278895999
 20
3.90302354858472
 30
0.0
 10
-52.00097448285568
 20
3.917660244408374
 30
0.0
 10
-52.00084237849999
 20
3.924693404124037
 30
0.0
 10
-52.00053452557114
 20
3.943293383716434
 30
0.0
 10
-52.0003861443577
 20
3.954909678785447
 30
0.0
 10
-52.00016470145762
 20
3.977665530565077
 30
0.0
 10
-52.00009289662959
 20
3.988983852358551
 30
0.0
 10
-52.0000519560699
 20
3.999998939803078
 30
0.0
  0
SPLINE
  5
B7A1
330
B78A
100
AcDbEntity
  8
0
100
AcDbSpline
210
0.0
220
0.0
230
1.0
 70
     8
 71
     3
 72
    24
 73
    20
 74
     0
 42
0.000000001
 43
0.0000000001
 40
0.0216356254851624
 40
0.0216356254851624
 40
0.0216356254851624
 40
0.0216356254851624
 40
0.0704514369652327
 40
0.0704514369652327
 40
0.123494921755559
 40
0.123494921755559
 40
0.131486962533391
 40
0.131486962533391
 40
0.1348054163930628
 40
0.1348054163930628
 40
0.1381453559342498
 40
0.1381453559342498
 40
0.1398225561498347
 40
0.1398225561498347
 40
0.1406572424898129
 40
0.1406572424898129
 40
0.1414938167092071
 40
0.1414938167092071
 40
0.1420957517580205
 40
0.1420957517580205
 40
0.1420957517580205
 40
0.1420957517580205
 10
-54.45057516537659
 20
2.000890945945482
 30
0.0
 10
-54.30052407161671
 20
2.00210657610019
 30
0.0
 10
-54.14986262863222
 20
2.004452581862433
 30
0.0
 10
-53.83044338196969
 20
2.017129366226239
 30
0.0
 10
-53.65902276008198
 20
2.027880548361756
 30
0.0
 10
-53.45862588396635
 20
2.056609975511427
 30
0.0
 10
-53.43219350093665
 20
2.060741431575448
 30
0.0
 10
-53.39508222252693
 20
2.067137815726157
 30
0.0
 10
-53.38419129197058
 20
2.069088770453529
 30
0.0
 10
-53.36273055047687
 20
2.073092221455263
 30
0.0
 10
-53.35190061193402
 20
2.075199557406902
 30
0.0
 10
-53.33742782955167
 20
2.078130844434391
 30
0.0
 10
-53.33280484206301
 20
2.079089347350518
 30
0.0
 10
-53.32734479237114
 20
2.080240788116996
 30
0.0
 10
-53.32575566214979
 20
2.080579646944458
 30
0.0
 10
-53.32328747693178
 20
2.081109455911496
 30
0.0
 10
-53.3223941779002
 20
2.081303335983904
 30
0.0
 10
-53.32152515812127
 20
2.081492564135972
 30
0.0
 10
-53.32135292540977
 20
2.081530381882837
 30
0.0
 10
-53.32135291138886
 20
2.081530384959057
 30
0.0
  0
LINE
  5
B7A2
330
B78A
100
AcDbEntity
  8
0
100
AcDbLine
 10
-52.00000000000001
 20
2.000000000000001
 30
0.0
 11
-48.0
 21
1.999999999999997
 31
0.0
  0
LINE
  5
B7A3
330
B78A
100
AcDbEntity
  8
0
100
AcDbLine
 10
-47.99999999999998
 20
86.00000000000001
 30
0.0
 11
-51.99999999999999
 21
86.00000000000001
 31
0.0
  0
LINE
  5
B7A4
330
B78A
100
AcDbEntity
  8
0
100
AcDbLine
 10
-52.0
 20
2.000000000000001
 30
0.0
 11
-51.99999999999999
 21
86.00000000000001
 31
0.0
  0
LINE
  5
B7A5
330
B78A
100
AcDbEntity
  8
0
100
AcDbLine
 10
52.00000000000001
 20
2.000000000000001
 30
0.0
 11
48.0
 21
1.999999999999997
 31
0.0
  0
LINE
  5
B7A6
330
B78A
100
AcDbEntity
  8
0
100
AcDbLine
 10
52.0
 20
2.000000000000001
 30
0.0
 11
51.99999999999999
 21
86.00000000000001
 31
0.0
  0
LINE
  5
B7A7
330
B78A
100
AcDbEntity
  8
0
100
AcDbLine
 10
47.99999999999998
 20
86.00000000000001
 30
0.0
 11
51.99999999999999
 21
86.00000000000001
 31
0.0
  0
LINE
  5
B7A8
330
B78A
100
AcDbEntity
  8
0
100
AcDbLine
 10
91.50000000000003
 20
0.0
 30
0.0
 11
54.66666666666675
 21
0.0
 31
0.0
  0
LINE
  5
B7A9
330
B78A
100
AcDbEntity
  8
0
100
AcDbLine
 10
91.50000000000003
 20
2.00000000000001
 30
0.0
 11
91.50000000000003
 21
0.0
 31
0.0
  0
LINE
  5
B7AA
330
B78A
100
AcDbEntity
  8
0
100
AcDbLine
 10
54.66666666666675
 20
2.000000000000005
 30
0.0
 11
91.50000000000003
 21
2.00000000000001
 31
0.0
  0
LINE
  5
B7AB
330
B78A
100
AcDbEntity
  8
0
100
AcDbLine
 10
-91.50000000000003
 20
2.00000000000001
 30
0.0
 11
-54.66666666666675
 21
2.000000000000005
 31
0.0
  0
LINE
  5
B7AC
330
B78A
100
AcDbEntity
  8
0
100
AcDbLine
 10
-91.50000000000003
 20
0.0
 30
0.0
 11
-91.50000000000003
 21
2.00000000000001
 31
0.0
  0
LINE
  5
B7AD
330
B78A
100
AcDbEntity
  8
0
100
AcDbLine
 10
-54.66666666666675
 20
0.0
 30
0.0
 11
-91.50000000000003
 21
0.0
 31
0.0
  0
ENDBLK
  5
B78C
330
B78A
100
AcDbEntity
  8
0
100
AcDbBlockEnd
  0
BLOCK
  5
B7AF
330
B7AE
100
AcDbEntity
  8
0
100
AcDbBlockBegin
  2
SAE500_100_2-ISO
 70
     0
 10
0.0
 20
0.0
 30
0.0
  3
SAE500_100_2-ISO
  1

  0
LINE
  5
B7B1
330
B7AE
100
AcDbEntity
  8
0
100
AcDbLine
 10
65.74711131947418
 20
-74.71741574928751
 30
0.0
 11
64.33289775710109
 21
-75.53391233021525
 31
0.0
  0
SPLINE
  5
B7B2
330
B7AE
100
AcDbEntity
  8
0
100
AcDbSpline
210
0.0
220
0.0
230
1.0
 70
     8
 71
     3
 72
    17
 73
    13
 74
     0
 42
0.000000001
 43
0.0000000001
 40
0.0
 40
0.0
 40
0.0
 40
0.0
 40
0.3690626432202771
 40
0.3690626432202771
 40
0.3690626432202771
 40
0.6936378220045477
 40
0.6936378220045477
 40
0.6936378220045477
 40
0.9219545386503819
 40
0.9219545386503819
 40
0.9219545386503819
 40
1.0
 40
1.0
 40
1.0
 40
1.0
 10
67.63272940263831
 20
-73.86689847748785
 30
0.0
 10
67.38111317102907
 20
-73.93659960764562
 30
0.0
 10
67.06190332965237
 20
-73.91924518011922
 30
0.0
 10
66.75423230283967
 20
-73.9221301564337
 30
0.0
 10
66.48364848632787
 20
-73.92466737259538
 30
0.0
 10
66.22581571230056
 20
-73.9457707709185
 30
0.0
 10
66.039146786986
 20
-74.06315684286049
 30
0.0
 10
65.90783780554364
 20
-74.14573001628101
 30
0.0
 10
65.81002179193359
 20
-74.28073498061647
 30
0.0
 10
65.76886809637071
 20
-74.48131838235624
 30
0.0
 10
65.75480053616911
 20
-74.54988376976124
 30
0.0
 10
65.74662762812221
 20
-74.62287314579231
 30
0.0
 10
65.7471113195171
 20
-74.71741574930482
 30
0.0
  0
LINE
  5
B7B3
330
B7AE
100
AcDbEntity
  8
0
100
AcDbLine
 10
67.58705913202611
 20
-73.84053073445588
 30
0.0
 11
67.63272940263838
 21
-73.86689847748783
 31
0.0
  0
LINE
  5
B7B4
330
B7AE
100
AcDbEntity
  8
0
100
AcDbLine
 10
67.16132488184728
 20
-73.5947329505119
 30
0.0
 11
67.58705913202611
 21
-73.84053073445588
 31
0.0
  0
ELLIPSE
  5
B7B5
330
B7AE
100
AcDbEntity
  8
0
100
AcDbEllipse
 10
65.74711131947418
 20
-74.41122953143963
 30
0.0
 11
1.999999999999992
 21
0.0
 31
0.0
210
0.0
220
0.0
230
1.0
 40
0.5773502691896259
 41
0.7853981633974448
 42
0.8276340031818474
  0
ELLIPSE
  5
B7B6
330
B7AE
100
AcDbEntity
  8
0
100
AcDbEllipse
 10
65.74711131947418
 20
-74.41122953143963
 30
0.0
 11
1.999999999999992
 21
-0.0000000000001194
 31
0.0
210
0.0
220
0.0
230
1.0
 40
0.5773502691896257
 41
0.8276340031820836
 42
2.356194490192603
  0
LINE
  5
B7B7
330
B7AE
100
AcDbEntity
  8
0
100
AcDbLine
 10
64.33289775710109
 20
-75.53391233021525
 30
0.0
 11
64.33289775710109
 21
-73.5947329505119
 31
0.0
  0
ELLIPSE
  5
B7B8
330
B7AE
100
AcDbEntity
  8
0
100
AcDbEllipse
 10
-17.69148886053841
 20
-92.68034052969751
 30
0.0
 11
-2.5
 21
-0.0000000000001497
 31
0.0
210
0.0
220
0.0
230
1.0
 40
0.577350269189626
 41
3.742856870268573
 42
5.681921090500119
  0
ELLIPSE
  5
B7B9
330
B7AE
100
AcDbEntity
  8
0
100
AcDbEllipse
 10
-3.549353236807459
 20
-84.51537472042023
 30
0.0
 11
-2.5
 21
-0.0000000000001497
 31
0.0
210
0.0
220
0.0
230
1.0
 40
0.577350269189626
 41
3.742856870268573
 42
5.681921090500119
  0
LINE
  5
B7BA
330
B7AE
100
AcDbEntity
  8
0
100
AcDbLine
 10
3.521714575057983
 20
-119.6247277003124
 30
0.0
 11
-64.36053641885056
 21
-80.43289181578161
 31
0.0
  0
LINE
  5
B7BB
330
B7AE
100
AcDbEntity
  8
0
100
AcDbLine
 10
-6.377780361553666
 20
-33.07609012197347
 30
0.0
 11
-6.377780361553666
 21
-42.05755251217846
 31
0.0
  0
LINE
  5
B7BC
330
B7AE
100
AcDbEntity
  8
0
100
AcDbLine
 10
33.22019938489296
 20
-66.55244994001023
 30
0.0
 11
-4.963566799180578
 21
-44.50704225496163
 31
0.0
  0
LINE
  5
B7BD
330
B7AE
100
AcDbEntity
  8
0
100
AcDbLine
 10
-64.36053641885054
 20
-78.79989865392616
 30
0.0
 11
3.521714575057988
 21
-117.991734538457
 31
0.0
  0
ELLIPSE
  5
B7BE
330
B7AE
100
AcDbEntity
  8
0
100
AcDbEllipse
 10
-3.549353236807459
 20
-82.88238155856477
 30
0.0
 11
-2.5
 21
0.0000000000001492
 31
0.0
210
0.0
220
0.0
230
1.0
 40
0.577350269189626
 41
0.0
 42
6.283185307179586
  0
ELLIPSE
  5
B7BF
330
B7AE
100
AcDbEntity
  8
0
100
AcDbEllipse
 10
-17.69148886053841
 20
-91.04734736784203
 30
0.0
 11
-2.5
 21
0.0000000000001492
 31
0.0
210
0.0
220
0.0
230
1.0
 40
0.577350269189626
 41
0.0
 42
6.283185307179586
  0
LINE
  5
B7C0
330
B7AE
100
AcDbEntity
  8
0
100
AcDbLine
 10
-6.377780361553666
 20
-33.07609012197347
 30
0.0
 11
-7.791993923926763
 21
-33.8925867029012
 31
0.0
  0
SPLINE
  5
B7C1
330
B7AE
100
AcDbEntity
  8
0
100
AcDbSpline
210
0.0
220
0.0
230
1.0
 70
     8
 71
     3
 72
    11
 73
     7
 74
     0
 42
0.000000001
 43
0.0000000001
 40
-1.0
 40
-1.0
 40
-1.0
 40
-1.0
 40
-0.7906685193901008
 40
-0.7906685193901008
 40
-0.7906685193901008
 40
-0.6677373407743347
 40
-0.6677373407743347
 40
-0.6677373407743347
 40
-0.6677373407743347
 10
-6.377780361553599
 20
-33.07609012197346
 30
0.0
 10
-6.375829093144744
 20
-32.67517397181032
 30
0.0
 10
-6.411328563515605
 20
-32.2892587973874
 30
0.0
 10
-6.476937018909478
 20
-31.94095013997584
 30
0.0
 10
-6.515465981324646
 20
-31.73640377335709
 30
0.0
 10
-6.5639653460688
 20
-31.54054630226377
 30
0.0
 10
-6.621747646664224
 20
-31.3509438627608
 30
0.0
  0
ELLIPSE
  5
B7C2
330
B7AE
100
AcDbEntity
  8
0
100
AcDbEllipse
 10
-10.62042104867295
 20
-30.32041416134241
 30
0.0
 11
3.999999999999995
 21
-0.0000000000000001
 31
0.0
210
0.0
220
0.0
230
1.0
 40
0.5773502691896258
 41
6.081788027142021
 42
6.283185307179586
  0
ELLIPSE
  5
B7C3
330
B7AE
100
AcDbEntity
  8
0
100
AcDbEllipse
 10
-10.62042104867295
 20
-30.32041416134241
 30
0.0
 11
3.999999999999994
 21
-0.0000000000000003
 31
0.0
210
0.0
220
0.0
230
1.0
 40
0.5773502691896259
 41
5.497787143782129
 42
6.081788027142022
  0
LINE
  5
B7C4
330
B7AE
100
AcDbEntity
  8
0
100
AcDbLine
 10
-7.791993923926763
 20
-31.95340732319786
 30
0.0
 11
-7.791993923926763
 21
-33.8925867029012
 31
0.0
  0
SPLINE
  5
B7C5
330
B7AE
100
AcDbEntity
  8
0
100
AcDbSpline
210
0.0
220
0.0
230
1.0
 70
     8
 71
     3
 72
    16
 73
    12
 74
     0
 42
0.000000001
 43
0.0000000001
 40
0.0
 40
0.0
 40
0.0
 40
0.0
 40
0.0282631046851721
 40
0.0282631046851721
 40
0.0461467105626433
 40
0.0461467105626433
 40
0.0689250372031488
 40
0.0689250372031488
 40
0.0923099032595956
 40
0.0923099032595956
 40
0.1011500782818189
 40
0.1011500782818189
 40
0.1011500782818189
 40
0.1011500782818189
 10
-6.632722415066454
 20
-30.5014021388955
 30
0.0
 10
-6.645423675541985
 20
-30.59468703038902
 30
0.0
 10
-6.657299513886676
 20
-30.68965469766006
 30
0.0
 10
-6.669756295605004
 20
-30.83956653399567
 30
0.0
 10
-6.672863424870905
 20
-30.89695667307496
 30
0.0
 10
-6.674522397855495
 20
-31.01871813660742
 30
0.0
 10
-6.671561815603217
 20
-31.08151353204799
 30
0.0
 10
-6.659094135065974
 20
-31.19384412304807
 30
0.0
 10
-6.649615233703682
 20
-31.24439564298443
 30
0.0
 10
-6.63205451303801
 20
-31.31350938961242
 30
0.0
 10
-6.626727202890174
 20
-31.33251877790701
 30
0.0
 10
-6.620796344343573
 20
-31.35196238489982
 30
0.0
  0
ELLIPSE
  5
B7C6
330
B7AE
100
AcDbEntity
  8
0
100
AcDbEllipse
 10
-4.963566799180574
 20
-42.87404909310618
 30
0.0
 11
1.000000000000105
 21
-1.732050807568817
 31
0.0
210
0.0
220
0.0
230
1.0
 40
0.5773502691896264
 41
3.926990816987002
 42
5.497787143781893
  0
LINE
  5
B7C7
330
B7AE
100
AcDbEntity
  8
0
100
AcDbLine
 10
-4.963566799180578
 20
-44.50704225496163
 30
0.0
 11
-64.36053641885054
 21
-78.79989865392616
 31
0.0
  0
ELLIPSE
  5
B7C8
330
B7AE
100
AcDbEntity
  8
0
100
AcDbEllipse
 10
-64.36053641885054
 20
-77.16690549207071
 30
0.0
 11
2.000000000000209
 21
-3.464101615137639
 31
0.0
210
0.0
220
0.0
230
1.0
 40
0.5773502691896258
 41
3.926990816986995
 42
5.497787143781893
  0
LINE
  5
B7C9
330
B7AE
100
AcDbEntity
  8
0
100
AcDbLine
 10
-65.77474998122366
 20
-76.35040891114299
 30
0.0
 11
-6.377780361553657
 21
-42.05755251217846
 31
0.0
  0
LINE
  5
B7CA
330
B7AE
100
AcDbEntity
  8
0
100
AcDbLine
 10
-67.18896354359674
 20
-75.53391233021526
 30
0.0
 11
-65.77474998122366
 21
-76.35040891114299
 31
0.0
  0
LINE
  5
B7CB
330
B7AE
100
AcDbEntity
  8
0
100
AcDbLine
 10
-64.36053641885054
 20
-80.43289181578161
 30
0.0
 11
-64.36053641885054
 21
-78.79989865392616
 31
0.0
  0
ELLIPSE
  5
B7CC
330
B7AE
100
AcDbEntity
  8
0
100
AcDbEllipse
 10
-64.36053641885054
 20
-77.16690549207071
 30
0.0
 11
1.000000000000104
 21
-1.732050807568819
 31
0.0
210
0.0
220
0.0
230
1.0
 40
0.5773502691896258
 41
3.926990816986995
 42
5.497787143781896
  0
LINE
  5
B7CD
330
B7AE
100
AcDbEntity
  8
0
100
AcDbLine
 10
65.74711131947418
 20
-83.69887813949251
 30
0.0
 11
65.74711131947418
 21
-74.71741574928751
 31
0.0
  0
ELLIPSE
  5
B7CE
330
B7AE
100
AcDbEntity
  8
0
100
AcDbEllipse
 10
62.918684194728
 20
-82.06588497763705
 30
0.0
 11
1.999999999999994
 21
-3.464101615137758
 31
0.0
210
0.0
220
0.0
230
1.0
 40
0.5773502691896251
 41
0.0000000000000062
 42
0.7853981633974501
  0
LINE
  5
B7CF
330
B7AE
100
AcDbEntity
  8
0
100
AcDbLine
 10
3.521714575057983
 20
-117.991734538457
 30
0.0
 11
4.935928137431075
 21
-117.1752379575293
 31
0.0
  0
LINE
  5
B7D0
330
B7AE
100
AcDbEntity
  8
0
100
AcDbLine
 10
65.74711131947418
 20
-83.69887813949251
 30
0.0
 11
6.350141699804172
 21
-117.991734538457
 31
0.0
  0
ELLIPSE
  5
B7D1
330
B7AE
100
AcDbEntity
  8
0
100
AcDbEllipse
 10
3.521714575057974
 20
-116.3587413766015
 30
0.0
 11
2.000000000000002
 21
-3.464101615137758
 31
0.0
210
0.0
220
0.0
230
1.0
 40
0.5773502691896258
 41
5.497787143782137
 42
7.068583470577033
  0
LINE
  5
B7D2
330
B7AE
100
AcDbEntity
  8
0
100
AcDbLine
 10
93.67782917634285
 20
-66.34832579477836
 30
0.0
 11
95.09204273871592
 21
-65.53182921385064
 31
0.0
  0
LINE
  5
B7D3
330
B7AE
100
AcDbEntity
  8
0
100
AcDbLine
 10
67.63272940263838
 20
-73.86689847748783
 30
0.0
 11
93.67782917634285
 21
-66.34832579477836
 31
0.0
  0
ELLIPSE
  5
B7D4
330
B7AE
100
AcDbEntity
  8
0
100
AcDbEllipse
 10
81.30346050557824
 20
54.28904403729323
 30
0.0
 11
-3.249999999999998
 21
5.629165124598853
 31
0.0
210
0.0
220
0.0
230
1.0
 40
0.5773502691896258
 41
0.219325486300596
 42
2.922267167289199
  0
ELLIPSE
  5
B7D5
330
B7AE
100
AcDbEntity
  8
0
100
AcDbEllipse
 10
89.08163509863028
 20
53.88079574682937
 30
0.0
 11
1.250000000000128
 21
-2.165063509461023
 31
0.0
210
0.0
220
0.0
230
0.9999999999999998
 40
0.5773502691896258
 41
3.742856870268601
 42
5.681921090500122
  0
LINE
  5
B7D6
330
B7AE
100
AcDbEntity
  8
0
100
AcDbLine
 10
68.57553844422037
 20
77.96744488419729
 30
0.0
 11
95.0920427387159
 21
62.65813399180242
 31
0.0
  0
LINE
  5
B7D7
330
B7AE
100
AcDbEntity
  8
0
100
AcDbLine
 10
95.09204273871592
 20
-65.53182921385064
 30
0.0
 11
95.0920427387159
 21
62.6581339918024
 31
0.0
  0
ELLIPSE
  5
B7D8
330
B7AE
100
AcDbEntity
  8
0
100
AcDbEllipse
 10
65.74711131947418
 20
76.33445172234184
 30
0.0
 11
4.000000000000003
 21
-0.0000000000002388
 31
0.0
210
0.0
220
0.0
230
1.0
 40
0.5773502691896258
 41
0.785398163397689
 42
2.356194490192585
  0
ELLIPSE
  5
B7D9
330
B7AE
100
AcDbEntity
  8
0
100
AcDbEllipse
 10
38.52350024379207
 20
51.63543014927811
 30
0.0
 11
1.24999999999987
 21
2.165063509461171
 31
0.0
210
0.0
220
0.0
230
1.0
 40
0.577350269189626
 41
3.742856870268578
 42
5.681921090500101
  0
ELLIPSE
  5
B7DA
330
B7AE
100
AcDbEntity
  8
0
100
AcDbEllipse
 10
39.93771380616517
 20
50.81893356835038
 30
0.0
 11
-1.25
 21
-2.165063509461097
 31
0.0
210
0.0
220
0.0
230
0.9999999999999998
 40
0.5773502691896259
 41
0.0
 42
6.283185307179586
  0
LINE
  5
B7DB
330
B7AE
100
AcDbEntity
  8
0
100
AcDbLine
 10
4.935928137431044
 20
-108.1937755673243
 30
0.0
 11
33.22019938489297
 21
-67.36894652093801
 31
0.0
  0
LINE
  5
B7DC
330
B7AE
100
AcDbEntity
  8
0
100
AcDbLine
 10
6.350141699804141
 20
-109.010272148252
 30
0.0
 11
4.935928137431044
 21
-108.1937755673243
 31
0.0
  0
LINE
  5
B7DD
330
B7AE
100
AcDbEntity
  8
0
100
AcDbLine
 10
34.63441294726607
 20
-68.18544310186574
 30
0.0
 11
6.350141699804141
 21
-109.010272148252
 31
0.0
  0
LINE
  5
B7DE
330
B7AE
100
AcDbEntity
  8
0
100
AcDbLine
 10
34.63441294726607
 20
-68.18544310186574
 30
0.0
 11
33.22019938489297
 21
-67.36894652093801
 31
0.0
  0
LINE
  5
B7DF
330
B7AE
100
AcDbEntity
  8
0
100
AcDbLine
 10
33.22019938489297
 20
-67.36894652093801
 30
0.0
 11
33.22019938489299
 21
60.82101668471502
 31
0.0
  0
LINE
  5
B7E0
330
B7AE
100
AcDbEntity
  8
0
100
AcDbLine
 10
34.63441294726608
 20
60.0045201037873
 30
0.0
 11
34.63441294726607
 21
-68.18544310186573
 31
0.0
  0
LINE
  5
B7E1
330
B7AE
100
AcDbEntity
  8
0
100
AcDbLine
 10
33.22019938489299
 20
60.82101668471502
 30
0.0
 11
34.63441294726608
 21
60.0045201037873
 31
0.0
  0
LINE
  5
B7E2
330
B7AE
100
AcDbEntity
  8
0
100
AcDbLine
 10
6.350141699804141
 20
-109.010272148252
 30
0.0
 11
6.350141699804168
 21
-117.991734538457
 31
0.0
  0
LINE
  5
B7E3
330
B7AE
100
AcDbEntity
  8
0
100
AcDbLine
 10
64.33289775710109
 20
-73.5947329505119
 30
0.0
 11
64.33289775710109
 21
77.15094830326956
 31
0.0
  0
LINE
  5
B7E4
330
B7AE
100
AcDbEntity
  8
0
100
AcDbLine
 10
64.33289775710109
 20
77.15094830326956
 30
0.0
 11
34.63441294726608
 21
60.0045201037873
 31
0.0
  0
LINE
  5
B7E5
330
B7AE
100
AcDbEntity
  8
0
100
AcDbLine
 10
33.22019938489299
 20
60.82101668471502
 30
0.0
 11
62.91868419472798
 21
77.96744488419729
 31
0.0
  0
LINE
  5
B7E6
330
B7AE
100
AcDbEntity
  8
0
100
AcDbLine
 10
4.935928137431071
 20
-117.1752379575293
 30
0.0
 11
4.935928137431044
 21
-108.1937755673243
 31
0.0
  0
LINE
  5
B7E7
330
B7AE
100
AcDbEntity
  8
0
100
AcDbLine
 10
3.521714575057983
 20
-117.991734538457
 30
0.0
 11
3.521714575057983
 21
-119.6247277003124
 31
0.0
  0
LINE
  5
B7E8
330
B7AE
100
AcDbEntity
  8
0
100
AcDbLine
 10
4.935928137431071
 20
-117.1752379575293
 30
0.0
 11
6.350141699804168
 21
-117.991734538457
 31
0.0
  0
ELLIPSE
  5
B7E9
330
B7AE
100
AcDbEntity
  8
0
100
AcDbEllipse
 10
3.521714575057974
 20
-116.3587413766015
 30
0.0
 11
1.000000000000001
 21
-1.732050807568879
 31
0.0
210
0.0
220
0.0
230
1.0
 40
0.5773502691896258
 41
5.497787143782142
 42
7.068583470577038
  0
LINE
  5
B7EA
330
B7AE
100
AcDbEntity
  8
0
100
AcDbLine
 10
67.16132488184728
 20
-73.5947329505119
 30
0.0
 11
67.16132488184728
 21
77.15094830326956
 31
0.0
  0
ELLIPSE
  5
B7EB
330
B7AE
100
AcDbEntity
  8
0
100
AcDbEllipse
 10
65.74711131947418
 20
76.33445172234184
 30
0.0
 11
-2.000000000000001
 21
-0.0000000000001194
 31
0.0
210
0.0
220
0.0
230
1.0
 40
0.5773502691896258
 41
3.926990816987
 42
5.497787143781901
  0
LINE
  5
B7EC
330
B7AE
100
AcDbEntity
  8
0
100
AcDbLine
 10
95.0920427387159
 20
62.65813399180242
 30
0.0
 11
93.67782917634281
 21
61.8416374108747
 31
0.0
  0
LINE
  5
B7ED
330
B7AE
100
AcDbEntity
  8
0
100
AcDbLine
 10
93.67782917634285
 20
-66.34832579477836
 30
0.0
 11
93.67782917634281
 21
61.8416374108747
 31
0.0
  0
LINE
  5
B7EE
330
B7AE
100
AcDbEntity
  8
0
100
AcDbLine
 10
64.33289775710109
 20
77.15094830326956
 30
0.0
 11
62.91868419472798
 21
77.96744488419729
 31
0.0
  0
LINE
  5
B7EF
330
B7AE
100
AcDbEntity
  8
0
100
AcDbLine
 10
67.16132488184728
 20
77.15094830326956
 30
0.0
 11
68.57553844422037
 21
77.96744488419729
 31
0.0
  0
LINE
  5
B7F0
330
B7AE
100
AcDbEntity
  8
0
100
AcDbLine
 10
93.67782917634281
 20
61.8416374108747
 30
0.0
 11
67.16132488184728
 21
77.15094830326956
 31
0.0
  0
ELLIPSE
  5
B7F1
330
B7AE
100
AcDbEntity
  8
0
100
AcDbEllipse
 10
79.88924694320515
 20
53.47254745636551
 30
0.0
 11
-3.25
 21
5.629165124598853
 31
0.0
210
0.0
220
0.0
230
1.0
 40
0.5773502691896255
 41
0.0
 42
6.283185307179586
  0
ELLIPSE
  5
B7F2
330
B7AE
100
AcDbEntity
  8
0
100
AcDbEllipse
 10
87.66742153625717
 20
53.06429916590165
 30
0.0
 11
-1.249999999999999
 21
2.165063509461097
 31
0.0
210
0.0
220
0.0
230
1.0
 40
0.5773502691896257
 41
0.0
 42
6.283185307179586
  0
LINE
  5
B7F3
330
B7AE
100
AcDbEntity
  8
0
100
AcDbLine
 10
5.521714575057981
 20
-119.8228429917393
 30
0.0
 11
64.918684194728
 21
-85.52998659277481
 31
0.0
  0
ELLIPSE
  5
B7F4
330
B7AE
100
AcDbEntity
  8
0
100
AcDbEllipse
 10
81.30346050557822
 20
-51.85551148331118
 30
0.0
 11
-3.249999999999998
 21
5.629165124598853
 31
0.0
210
0.0
220
0.0
230
1.0
 40
0.5773502691896258
 41
0.219325486300596
 42
2.922267167289199
  0
ELLIPSE
  5
B7F5
330
B7AE
100
AcDbEntity
  8
0
100
AcDbEllipse
 10
79.88924694320513
 20
-52.67200806423891
 30
0.0
 11
-3.25
 21
5.629165124598853
 31
0.0
210
0.0
220
0.0
230
1.0
 40
0.5773502691896255
 41
0.0
 42
6.283185307179586
  0
ELLIPSE
  5
B7F6
330
B7AE
100
AcDbEntity
  8
0
100
AcDbEllipse
 10
81.30346050557824
 20
5.299249181629654
 30
0.0
 11
-3.249999999999998
 21
5.629165124598853
 31
0.0
210
0.0
220
0.0
230
1.0
 40
0.5773502691896258
 41
0.2193254863005927
 42
2.9222671672892
  0
ELLIPSE
  5
B7F7
330
B7AE
100
AcDbEntity
  8
0
100
AcDbEllipse
 10
79.88924694320515
 20
4.482752600701926
 30
0.0
 11
-3.25
 21
5.629165124598853
 31
0.0
210
0.0
220
0.0
230
1.0
 40
0.5773502691896255
 41
0.0
 42
6.283185307179586
  0
ELLIPSE
  5
B7F8
330
B7AE
100
AcDbEntity
  8
0
100
AcDbEllipse
 10
73.52528591252621
 20
-59.61222900212458
 30
0.0
 11
1.250000000000129
 21
-2.165063509461023
 31
0.0
210
0.0
220
0.0
230
1.0
 40
0.5773502691896254
 41
3.742856870268578
 42
5.681921090500122
  0
ELLIPSE
  5
B7F9
330
B7AE
100
AcDbEntity
  8
0
100
AcDbEllipse
 10
73.52528591252621
 20
-43.28229738357005
 30
0.0
 11
1.250000000000129
 21
-2.165063509461023
 31
0.0
210
0.0
220
0.0
230
1.0
 40
0.5773502691896254
 41
3.742856870268578
 42
5.681921090500122
  0
ELLIPSE
  5
B7FA
330
B7AE
100
AcDbEntity
  8
0
100
AcDbEllipse
 10
73.52528591252621
 20
-26.95236576501553
 30
0.0
 11
1.250000000000129
 21
-2.165063509461023
 31
0.0
210
0.0
220
0.0
230
1.0
 40
0.5773502691896254
 41
3.742856870268578
 42
5.681921090500122
  0
ELLIPSE
  5
B7FB
330
B7AE
100
AcDbEntity
  8
0
100
AcDbEllipse
 10
73.52528591252621
 20
-10.622434146461
 30
0.0
 11
1.250000000000129
 21
-2.165063509461023
 31
0.0
210
0.0
220
0.0
230
1.0
 40
0.5773502691896254
 41
3.742856870268578
 42
5.681921090500122
  0
ELLIPSE
  5
B7FC
330
B7AE
100
AcDbEntity
  8
0
100
AcDbEllipse
 10
73.52528591252621
 20
5.707497472093523
 30
0.0
 11
1.250000000000129
 21
-2.165063509461023
 31
0.0
210
0.0
220
0.0
230
1.0
 40
0.5773502691896254
 41
3.742856870268578
 42
5.681921090500122
  0
ELLIPSE
  5
B7FD
330
B7AE
100
AcDbEntity
  8
0
100
AcDbEllipse
 10
73.52528591252621
 20
22.03742909064805
 30
0.0
 11
1.250000000000129
 21
-2.165063509461023
 31
0.0
210
0.0
220
0.0
230
1.0
 40
0.5773502691896254
 41
3.742856870268578
 42
5.681921090500122
  0
ELLIPSE
  5
B7FE
330
B7AE
100
AcDbEntity
  8
0
100
AcDbEllipse
 10
73.52528591252621
 20
38.36736070920257
 30
0.0
 11
1.250000000000129
 21
-2.165063509461023
 31
0.0
210
0.0
220
0.0
230
1.0
 40
0.5773502691896254
 41
3.742856870268576
 42
5.681921090500122
  0
ELLIPSE
  5
B7FF
330
B7AE
100
AcDbEntity
  8
0
100
AcDbEllipse
 10
73.52528591252621
 20
54.69729232775709
 30
0.0
 11
1.250000000000129
 21
-2.165063509461022
 31
0.0
210
0.0
220
0.0
230
1.0
 40
0.5773502691896257
 41
3.742856870268585
 42
5.681921090500116
  0
ELLIPSE
  5
B800
330
B7AE
100
AcDbEntity
  8
0
100
AcDbEllipse
 10
72.11107235015312
 20
-60.4287255830523
 30
0.0
 11
-1.249999999999999
 21
2.165063509461097
 31
0.0
210
0.0
220
0.0
230
1.0
 40
0.5773502691896257
 41
0.0
 42
6.283185307179586
  0
ELLIPSE
  5
B801
330
B7AE
100
AcDbEntity
  8
0
100
AcDbEllipse
 10
72.11107235015312
 20
-44.09879396449777
 30
0.0
 11
-1.249999999999999
 21
2.165063509461097
 31
0.0
210
0.0
220
0.0
230
1.0
 40
0.5773502691896257
 41
0.0
 42
6.283185307179586
  0
ELLIPSE
  5
B802
330
B7AE
100
AcDbEntity
  8
0
100
AcDbEllipse
 10
72.11107235015312
 20
-27.76886234594325
 30
0.0
 11
-1.249999999999999
 21
2.165063509461097
 31
0.0
210
0.0
220
0.0
230
1.0
 40
0.5773502691896257
 41
0.0
 42
6.283185307179586
  0
ELLIPSE
  5
B803
330
B7AE
100
AcDbEntity
  8
0
100
AcDbEllipse
 10
72.11107235015312
 20
-11.43893072738872
 30
0.0
 11
-1.249999999999999
 21
2.165063509461097
 31
0.0
210
0.0
220
0.0
230
1.0
 40
0.5773502691896257
 41
0.0
 42
6.283185307179586
  0
ELLIPSE
  5
B804
330
B7AE
100
AcDbEntity
  8
0
100
AcDbEllipse
 10
72.11107235015312
 20
4.891000891165804
 30
0.0
 11
-1.249999999999999
 21
2.165063509461097
 31
0.0
210
0.0
220
0.0
230
1.0
 40
0.5773502691896257
 41
0.0
 42
6.283185307179586
  0
ELLIPSE
  5
B805
330
B7AE
100
AcDbEntity
  8
0
100
AcDbEllipse
 10
72.11107235015312
 20
21.22093250972033
 30
0.0
 11
-1.249999999999999
 21
2.165063509461097
 31
0.0
210
0.0
220
0.0
230
1.0
 40
0.5773502691896257
 41
0.0
 42
6.283185307179586
  0
ELLIPSE
  5
B806
330
B7AE
100
AcDbEntity
  8
0
100
AcDbEllipse
 10
72.11107235015312
 20
37.55086412827485
 30
0.0
 11
-1.249999999999999
 21
2.165063509461097
 31
0.0
210
0.0
220
0.0
230
1.0
 40
0.5773502691896257
 41
0.0
 42
6.283185307179586
  0
ELLIPSE
  5
B807
330
B7AE
100
AcDbEntity
  8
0
100
AcDbEllipse
 10
72.11107235015312
 20
53.88079574682937
 30
0.0
 11
-1.249999999999999
 21
2.165063509461097
 31
0.0
210
0.0
220
0.0
230
1.0
 40
0.5773502691896257
 41
0.0
 42
6.283185307179586
  0
ELLIPSE
  5
B808
330
B7AE
100
AcDbEntity
  8
0
100
AcDbEllipse
 10
73.52528591252621
 20
71.02722394631162
 30
0.0
 11
1.250000000000129
 21
-2.165063509461022
 31
0.0
210
0.0
220
0.0
230
1.0
 40
0.5773502691896257
 41
3.742856870268585
 42
5.681921090500116
  0
ELLIPSE
  5
B809
330
B7AE
100
AcDbEntity
  8
0
100
AcDbEllipse
 10
-14.15595495460568
 20
120.0170188019752
 30
0.0
 11
1.25
 21
-2.165063509461097
 31
0.0
210
0.0
220
0.0
230
1.0
 40
0.5773502691896259
 41
0.0
 42
6.283185307179586
  0
ELLIPSE
  5
B80A
330
B7AE
100
AcDbEntity
  8
0
100
AcDbEllipse
 10
-12.74174139223259
 20
120.8335153829029
 30
0.0
 11
1.250000000000129
 21
-2.165063509461022
 31
0.0
210
0.0
220
0.0
230
0.9999999999999998
 40
0.577350269189626
 41
3.742856870268578
 42
5.68192109050012
  0
ELLIPSE
  5
B80B
330
B7AE
100
AcDbEntity
  8
0
100
AcDbEllipse
 10
72.11107235015312
 20
70.2107273653839
 30
0.0
 11
-1.249999999999999
 21
2.165063509461097
 31
0.0
210
0.0
220
0.0
230
1.0
 40
0.5773502691896257
 41
0.0
 42
6.283185307179586
  0
ELLIPSE
  5
B80C
330
B7AE
100
AcDbEntity
  8
0
100
AcDbEllipse
 10
89.08163509863028
 20
-60.4287255830523
 30
0.0
 11
1.250000000000129
 21
-2.165063509461023
 31
0.0
210
0.0
220
0.0
230
1.0
 40
0.5773502691896254
 41
3.742856870268575
 42
5.681921090500112
  0
ELLIPSE
  5
B80D
330
B7AE
100
AcDbEntity
  8
0
100
AcDbEllipse
 10
89.08163509863028
 20
-44.09879396449777
 30
0.0
 11
1.250000000000129
 21
-2.165063509461023
 31
0.0
210
0.0
220
0.0
230
1.0
 40
0.5773502691896254
 41
3.742856870268575
 42
5.681921090500112
  0
ELLIPSE
  5
B80E
330
B7AE
100
AcDbEntity
  8
0
100
AcDbEllipse
 10
89.08163509863028
 20
-27.76886234594326
 30
0.0
 11
1.250000000000129
 21
-2.165063509461023
 31
0.0
210
0.0
220
0.0
230
1.0
 40
0.5773502691896254
 41
3.742856870268576
 42
5.681921090500111
  0
ELLIPSE
  5
B80F
330
B7AE
100
AcDbEntity
  8
0
100
AcDbEllipse
 10
89.08163509863028
 20
-11.43893072738874
 30
0.0
 11
1.250000000000129
 21
-2.165063509461023
 31
0.0
210
0.0
220
0.0
230
1.0
 40
0.5773502691896254
 41
3.742856870268576
 42
5.681921090500111
  0
ELLIPSE
  5
B810
330
B7AE
100
AcDbEntity
  8
0
100
AcDbEllipse
 10
89.08163509863028
 20
4.891000891165786
 30
0.0
 11
1.250000000000129
 21
-2.165063509461023
 31
0.0
210
0.0
220
0.0
230
1.0
 40
0.5773502691896254
 41
3.742856870268576
 42
5.681921090500111
  0
ELLIPSE
  5
B811
330
B7AE
100
AcDbEntity
  8
0
100
AcDbEllipse
 10
89.08163509863028
 20
21.22093250972032
 30
0.0
 11
1.250000000000129
 21
-2.165063509461023
 31
0.0
210
0.0
220
0.0
230
1.0
 40
0.5773502691896254
 41
3.742856870268576
 42
5.681921090500111
  0
ELLIPSE
  5
B812
330
B7AE
100
AcDbEntity
  8
0
100
AcDbEllipse
 10
89.08163509863028
 20
37.55086412827484
 30
0.0
 11
1.250000000000128
 21
-2.165063509461023
 31
0.0
210
0.0
220
0.0
230
0.9999999999999998
 40
0.5773502691896258
 41
3.742856870268596
 42
5.681921090500122
  0
ELLIPSE
  5
B813
330
B7AE
100
AcDbEntity
  8
0
100
AcDbEllipse
 10
87.66742153625717
 20
-61.24522216398003
 30
0.0
 11
-1.249999999999999
 21
2.165063509461097
 31
0.0
210
0.0
220
0.0
230
1.0
 40
0.5773502691896257
 41
0.0
 42
6.283185307179586
  0
ELLIPSE
  5
B814
330
B7AE
100
AcDbEntity
  8
0
100
AcDbEllipse
 10
87.66742153625717
 20
-44.9152905454255
 30
0.0
 11
-1.249999999999999
 21
2.165063509461097
 31
0.0
210
0.0
220
0.0
230
1.0
 40
0.5773502691896257
 41
0.0
 42
6.283185307179586
  0
ELLIPSE
  5
B815
330
B7AE
100
AcDbEntity
  8
0
100
AcDbEllipse
 10
87.66742153625717
 20
-28.58535892687098
 30
0.0
 11
-1.249999999999999
 21
2.165063509461097
 31
0.0
210
0.0
220
0.0
230
1.0
 40
0.5773502691896257
 41
0.0
 42
6.283185307179586
  0
ELLIPSE
  5
B816
330
B7AE
100
AcDbEntity
  8
0
100
AcDbEllipse
 10
87.66742153625717
 20
-12.25542730831645
 30
0.0
 11
-1.249999999999999
 21
2.165063509461097
 31
0.0
210
0.0
220
0.0
230
1.0
 40
0.5773502691896257
 41
0.0
 42
6.283185307179586
  0
ELLIPSE
  5
B817
330
B7AE
100
AcDbEntity
  8
0
100
AcDbEllipse
 10
87.66742153625717
 20
4.074504310238067
 30
0.0
 11
-1.249999999999999
 21
2.165063509461097
 31
0.0
210
0.0
220
0.0
230
1.0
 40
0.5773502691896257
 41
0.0
 42
6.283185307179586
  0
ELLIPSE
  5
B818
330
B7AE
100
AcDbEntity
  8
0
100
AcDbEllipse
 10
87.66742153625717
 20
20.4044359287926
 30
0.0
 11
-1.249999999999999
 21
2.165063509461097
 31
0.0
210
0.0
220
0.0
230
1.0
 40
0.5773502691896257
 41
0.0
 42
6.283185307179586
  0
ELLIPSE
  5
B819
330
B7AE
100
AcDbEntity
  8
0
100
AcDbEllipse
 10
87.66742153625717
 20
36.73436754734712
 30
0.0
 11
-1.249999999999999
 21
2.165063509461097
 31
0.0
210
0.0
220
0.0
230
1.0
 40
0.5773502691896257
 41
0.0
 42
6.283185307179586
  0
LINE
  5
B81A
330
B7AE
100
AcDbEntity
  8
0
100
AcDbLine
 10
-32.82601649567659
 20
4.180091853549425
 30
0.0
 11
-32.13127558809453
 21
3.177319728525551
 31
0.0
  0
LINE
  5
B81B
330
B7AE
100
AcDbEntity
  8
0
100
AcDbLine
 10
-37.49047873376178
 20
-26.54411747455171
 30
0.0
 11
-65.77474998122368
 21
-67.36894652093801
 31
0.0
  0
LINE
  5
B81C
330
B7AE
100
AcDbEntity
  8
0
100
AcDbLine
 10
-38.90469229613488
 20
-25.72762089362399
 30
0.0
 11
-37.49047873376178
 21
-26.54411747455171
 31
0.0
  0
LINE
  5
B81D
330
B7AE
100
AcDbEntity
  8
0
100
AcDbLine
 10
-67.18896354359677
 20
-66.55244994001026
 30
0.0
 11
-38.90469229613488
 21
-25.72762089362399
 31
0.0
  0
LINE
  5
B81E
330
B7AE
100
AcDbEntity
  8
0
100
AcDbLine
 10
-65.77474998122368
 20
-67.36894652093801
 30
0.0
 11
-67.18896354359677
 21
-66.55244994001026
 31
0.0
  0
LINE
  5
B81F
330
B7AE
100
AcDbEntity
  8
0
100
AcDbLine
 10
-37.49047873376176
 20
101.6458457311013
 30
0.0
 11
-37.49047873376178
 21
-26.54411747455171
 31
0.0
  0
LINE
  5
B820
330
B7AE
100
AcDbEntity
  8
0
100
AcDbLine
 10
-38.90469229613485
 20
102.462342312029
 30
0.0
 11
-37.49047873376176
 21
101.6458457311013
 31
0.0
  0
LINE
  5
B821
330
B7AE
100
AcDbEntity
  8
0
100
AcDbLine
 10
-38.90469229613488
 20
-25.72762089362399
 30
0.0
 11
-38.90469229613485
 21
102.462342312029
 31
0.0
  0
ELLIPSE
  5
B822
330
B7AE
100
AcDbEntity
  8
0
100
AcDbEllipse
 10
-21.93412954765771
 20
112.2603012831618
 30
0.0
 11
-3.250000000000003
 21
5.629165124598848
 31
0.0
210
0.0
220
0.0
230
1.0
 40
0.577350269189626
 41
4.71238898038469
 42
7.853981633974483
  0
ELLIPSE
  5
B823
330
B7AE
100
AcDbEntity
  8
0
100
AcDbEllipse
 10
-20.51991598528462
 20
113.0767978640895
 30
0.0
 11
-3.250000000000003
 21
5.629165124598854
 31
0.0
210
0.0
220
0.0
230
1.0
 40
0.5773502691896258
 41
0.2193254863005869
 42
1.570796326794897
  0
ELLIPSE
  5
B824
330
B7AE
100
AcDbEntity
  8
0
100
AcDbEllipse
 10
-29.71230414070974
 20
120.8335153829029
 30
0.0
 11
1.25
 21
-2.165063509461097
 31
0.0
210
0.0
220
0.0
230
1.0
 40
0.5773502691896259
 41
0.0
 42
6.283185307179586
  0
ELLIPSE
  5
B825
330
B7AE
100
AcDbEntity
  8
0
100
AcDbEllipse
 10
-28.29809057833664
 20
121.6500119638306
 30
0.0
 11
1.250000000000129
 21
-2.165063509461022
 31
0.0
210
0.0
220
0.0
230
0.9999999999999998
 40
0.577350269189626
 41
3.742856870268576
 42
5.681921090500114
  0
LINE
  5
B826
330
B7AE
100
AcDbEntity
  8
0
100
AcDbLine
 10
-9.206207486299863
 20
119.6087705115113
 30
0.0
 11
-9.206207486299859
 21
121.2417636733667
 31
0.0
  0
ELLIPSE
  5
B827
330
B7AE
100
AcDbEntity
  8
0
100
AcDbEllipse
 10
-10.62042104867295
 20
120.425267092439
 30
0.0
 11
2.000000000000002
 21
0.0
 31
0.0
210
0.0
220
0.0
230
1.0
 40
0.5773502691896258
 41
5.497787143782129
 42
7.068583470577027
  0
LINE
  5
B828
330
B7AE
100
AcDbEntity
  8
0
100
AcDbLine
 10
-7.791993923926763
 20
118.7922739305836
 30
0.0
 11
-7.791993923926763
 21
-31.95340732319785
 31
0.0
  0
ELLIPSE
  5
B829
330
B7AE
100
AcDbEntity
  8
0
100
AcDbEllipse
 10
-10.62042104867295
 20
120.425267092439
 30
0.0
 11
4.000000000000005
 21
0.0
 31
0.0
210
0.0
220
0.0
230
1.0
 40
0.5773502691896258
 41
5.497787143782137
 42
7.068583470577034
  0
LINE
  5
B82A
330
B7AE
100
AcDbEntity
  8
0
100
AcDbLine
 10
-9.206207486299859
 20
121.2417636733667
 30
0.0
 11
-7.791993923926763
 21
122.0582602542945
 31
0.0
  0
LINE
  5
B82B
330
B7AE
100
AcDbEntity
  8
0
100
AcDbLine
 10
-9.206207486299859
 20
119.6087705115113
 30
0.0
 11
-7.791993923926763
 21
118.7922739305836
 31
0.0
  0
LINE
  5
B82C
330
B7AE
100
AcDbEntity
  8
0
100
AcDbLine
 10
-6.620421048672961
 20
-30.32041416134239
 30
0.0
 11
-6.620421048672961
 21
120.425267092439
 31
0.0
  0
LINE
  5
B82D
330
B7AE
100
AcDbEntity
  8
0
100
AcDbLine
 10
-35.7227117807954
 20
136.5510745657616
 30
0.0
 11
-9.206207486299859
 21
121.2417636733667
 31
0.0
  0
LINE
  5
B82E
330
B7AE
100
AcDbEntity
  8
0
100
AcDbLine
 10
-35.72271178079542
 20
104.2994596191165
 30
0.0
 11
-35.7227117807954
 21
136.5510745657616
 31
0.0
  0
LINE
  5
B82F
330
B7AE
100
AcDbEntity
  8
0
100
AcDbLine
 10
-65.77474998122366
 20
-76.35040891114299
 30
0.0
 11
-65.77474998122368
 21
-67.36894652093801
 31
0.0
  0
LINE
  5
B830
330
B7AE
100
AcDbEntity
  8
0
100
AcDbLine
 10
-37.49047873376176
 20
101.6458457311013
 30
0.0
 11
-7.791993923926763
 21
118.7922739305836
 31
0.0
  0
LINE
  5
B831
330
B7AE
100
AcDbEntity
  8
0
100
AcDbLine
 10
-67.18896354359677
 20
-66.55244994001026
 30
0.0
 11
-67.18896354359674
 21
-75.53391233021526
 31
0.0
  0
LINE
  5
B832
330
B7AE
100
AcDbEntity
  8
0
100
AcDbLine
 10
-9.206207486299859
 20
119.6087705115113
 30
0.0
 11
-38.90469229613485
 21
102.462342312029
 31
0.0
  0
LINE
  5
B833
330
B7AE
100
AcDbEntity
  8
0
100
AcDbLine
 10
-7.791993923926763
 20
122.0582602542945
 30
0.0
 11
-34.30849821842231
 21
137.3675711466893
 31
0.0
  0
LINE
  5
B834
330
B7AE
100
AcDbEntity
  8
0
100
AcDbLine
 10
-34.30849821842231
 20
137.3675711466893
 30
0.0
 11
-35.7227117807954
 21
136.5510745657616
 31
0.0
  0
ELLIPSE
  5
B835
330
B7AE
100
AcDbEntity
  8
0
100
AcDbEllipse
 10
38.52350024379207
 20
-79.00402279915809
 30
0.0
 11
1.24999999999987
 21
2.165063509461171
 31
0.0
210
0.0
220
0.0
230
1.0
 40
0.577350269189626
 41
3.742856870268578
 42
5.681921090500118
  0
ELLIPSE
  5
B836
330
B7AE
100
AcDbEntity
  8
0
100
AcDbEllipse
 10
39.93771380616517
 20
-79.82051938008583
 30
0.0
 11
-1.25
 21
-2.165063509461097
 31
0.0
210
0.0
220
0.0
230
0.9999999999999998
 40
0.5773502691896259
 41
0.0
 42
6.283185307179586
  0
ELLIPSE
  5
B837
330
B7AE
100
AcDbEntity
  8
0
100
AcDbEllipse
 10
38.52350024379207
 20
-62.67409118060356
 30
0.0
 11
1.24999999999987
 21
2.165063509461171
 31
0.0
210
0.0
220
0.0
230
1.0
 40
0.577350269189626
 41
3.742856870268578
 42
5.681921090500118
  0
ELLIPSE
  5
B838
330
B7AE
100
AcDbEntity
  8
0
100
AcDbEllipse
 10
39.93771380616517
 20
-63.49058776153129
 30
0.0
 11
-1.25
 21
-2.165063509461097
 31
0.0
210
0.0
220
0.0
230
0.9999999999999998
 40
0.5773502691896259
 41
0.0
 42
6.283185307179586
  0
ELLIPSE
  5
B839
330
B7AE
100
AcDbEntity
  8
0
100
AcDbEllipse
 10
38.52350024379207
 20
-46.34415956204904
 30
0.0
 11
1.24999999999987
 21
2.165063509461171
 31
0.0
210
0.0
220
0.0
230
1.0
 40
0.577350269189626
 41
3.742856870268578
 42
5.681921090500118
  0
ELLIPSE
  5
B83A
330
B7AE
100
AcDbEntity
  8
0
100
AcDbEllipse
 10
39.93771380616517
 20
-47.16065614297677
 30
0.0
 11
-1.25
 21
-2.165063509461097
 31
0.0
210
0.0
220
0.0
230
0.9999999999999998
 40
0.5773502691896259
 41
0.0
 42
6.283185307179586
  0
ELLIPSE
  5
B83B
330
B7AE
100
AcDbEntity
  8
0
100
AcDbEllipse
 10
38.52350024379207
 20
-30.01422794349452
 30
0.0
 11
1.24999999999987
 21
2.165063509461171
 31
0.0
210
0.0
220
0.0
230
1.0
 40
0.577350269189626
 41
3.742856870268578
 42
5.681921090500118
  0
ELLIPSE
  5
B83C
330
B7AE
100
AcDbEntity
  8
0
100
AcDbEllipse
 10
39.93771380616517
 20
-30.83072452442225
 30
0.0
 11
-1.25
 21
-2.165063509461097
 31
0.0
210
0.0
220
0.0
230
0.9999999999999998
 40
0.5773502691896259
 41
0.0
 42
6.283185307179586
  0
ELLIPSE
  5
B83D
330
B7AE
100
AcDbEntity
  8
0
100
AcDbEllipse
 10
38.52350024379207
 20
-13.68429632493999
 30
0.0
 11
1.24999999999987
 21
2.165063509461171
 31
0.0
210
0.0
220
0.0
230
1.0
 40
0.577350269189626
 41
3.742856870268578
 42
5.681921090500118
  0
ELLIPSE
  5
B83E
330
B7AE
100
AcDbEntity
  8
0
100
AcDbEllipse
 10
39.93771380616517
 20
-14.50079290586772
 30
0.0
 11
-1.25
 21
-2.165063509461097
 31
0.0
210
0.0
220
0.0
230
0.9999999999999998
 40
0.5773502691896259
 41
0.0
 42
6.283185307179586
  0
ELLIPSE
  5
B83F
330
B7AE
100
AcDbEntity
  8
0
100
AcDbEllipse
 10
38.52350024379207
 20
2.645635293614532
 30
0.0
 11
1.24999999999987
 21
2.165063509461171
 31
0.0
210
0.0
220
0.0
230
1.0
 40
0.577350269189626
 41
3.742856870268578
 42
5.681921090500117
  0
ELLIPSE
  5
B840
330
B7AE
100
AcDbEntity
  8
0
100
AcDbEllipse
 10
39.93771380616517
 20
1.829138712686804
 30
0.0
 11
-1.25
 21
-2.165063509461097
 31
0.0
210
0.0
220
0.0
230
0.9999999999999998
 40
0.5773502691896259
 41
0.0
 42
6.283185307179586
  0
ELLIPSE
  5
B841
330
B7AE
100
AcDbEntity
  8
0
100
AcDbEllipse
 10
38.52350024379207
 20
18.97556691216906
 30
0.0
 11
1.24999999999987
 21
2.165063509461171
 31
0.0
210
0.0
220
0.0
230
1.0
 40
0.577350269189626
 41
3.742856870268578
 42
5.681921090500118
  0
ELLIPSE
  5
B842
330
B7AE
100
AcDbEntity
  8
0
100
AcDbEllipse
 10
39.93771380616517
 20
18.15907033124133
 30
0.0
 11
-1.25
 21
-2.165063509461097
 31
0.0
210
0.0
220
0.0
230
0.9999999999999998
 40
0.5773502691896259
 41
0.0
 42
6.283185307179586
  0
ELLIPSE
  5
B843
330
B7AE
100
AcDbEntity
  8
0
100
AcDbEllipse
 10
38.52350024379207
 20
35.30549853072359
 30
0.0
 11
1.24999999999987
 21
2.165063509461171
 31
0.0
210
0.0
220
0.0
230
1.0
 40
0.577350269189626
 41
3.742856870268578
 42
5.681921090500101
  0
ELLIPSE
  5
B844
330
B7AE
100
AcDbEntity
  8
0
100
AcDbEllipse
 10
39.93771380616517
 20
34.48900194979586
 30
0.0
 11
-1.25
 21
-2.165063509461097
 31
0.0
210
0.0
220
0.0
230
0.9999999999999998
 40
0.5773502691896259
 41
0.0
 42
6.283185307179586
  0
ELLIPSE
  5
B845
330
B7AE
100
AcDbEntity
  8
0
100
AcDbEllipse
 10
-33.60139143723575
 20
-29.19773136256678
 30
0.0
 11
1.24999999999987
 21
2.165063509461172
 31
0.0
210
0.0
220
0.0
230
1.0
 40
0.5773502691896255
 41
3.742856870268578
 42
5.681921090500115
  0
ELLIPSE
  5
B846
330
B7AE
100
AcDbEntity
  8
0
100
AcDbEllipse
 10
-32.18717787486265
 20
-30.01422794349451
 30
0.0
 11
1.249999999999999
 21
2.165063509461097
 31
0.0
210
0.0
220
0.0
230
1.0
 40
0.5773502691896257
 41
0.0
 42
6.283185307179586
  0
ELLIPSE
  5
B847
330
B7AE
100
AcDbEntity
  8
0
100
AcDbEllipse
 10
-33.60139143723575
 20
-12.86779974401225
 30
0.0
 11
1.24999999999987
 21
2.165063509461172
 31
0.0
210
0.0
220
0.0
230
1.0
 40
0.5773502691896255
 41
3.742856870268578
 42
5.681921090500115
  0
ELLIPSE
  5
B848
330
B7AE
100
AcDbEntity
  8
0
100
AcDbEllipse
 10
-32.18717787486265
 20
-13.68429632493998
 30
0.0
 11
1.249999999999999
 21
2.165063509461097
 31
0.0
210
0.0
220
0.0
230
1.0
 40
0.5773502691896257
 41
0.0
 42
6.283185307179586
  0
ELLIPSE
  5
B849
330
B7AE
100
AcDbEntity
  8
0
100
AcDbEllipse
 10
-33.60139143723575
 20
3.462131874542269
 30
0.0
 11
1.24999999999987
 21
2.165063509461172
 31
0.0
210
0.0
220
0.0
230
1.0
 40
0.5773502691896255
 41
3.742856870268578
 42
5.681921090500115
  0
ELLIPSE
  5
B84A
330
B7AE
100
AcDbEntity
  8
0
100
AcDbEllipse
 10
-32.18717787486265
 20
2.645635293614541
 30
0.0
 11
1.249999999999999
 21
2.165063509461097
 31
0.0
210
0.0
220
0.0
230
1.0
 40
0.5773502691896257
 41
0.0
 42
6.283185307179586
  0
ELLIPSE
  5
B84B
330
B7AE
100
AcDbEntity
  8
0
100
AcDbEllipse
 10
-33.60139143723575
 20
19.7920634930968
 30
0.0
 11
1.24999999999987
 21
2.165063509461172
 31
0.0
210
0.0
220
0.0
230
1.0
 40
0.5773502691896255
 41
3.742856870268578
 42
5.681921090500117
  0
ELLIPSE
  5
B84C
330
B7AE
100
AcDbEntity
  8
0
100
AcDbEllipse
 10
-32.18717787486265
 20
18.97556691216906
 30
0.0
 11
1.249999999999999
 21
2.165063509461097
 31
0.0
210
0.0
220
0.0
230
1.0
 40
0.5773502691896257
 41
0.0
 42
6.283185307179586
  0
ELLIPSE
  5
B84D
330
B7AE
100
AcDbEntity
  8
0
100
AcDbEllipse
 10
-33.60139143723575
 20
36.12199511165133
 30
0.0
 11
1.24999999999987
 21
2.165063509461172
 31
0.0
210
0.0
220
0.0
230
1.0
 40
0.5773502691896255
 41
3.742856870268578
 42
5.681921090500117
  0
ELLIPSE
  5
B84E
330
B7AE
100
AcDbEntity
  8
0
100
AcDbEllipse
 10
-32.18717787486265
 20
35.30549853072359
 30
0.0
 11
1.249999999999999
 21
2.165063509461097
 31
0.0
210
0.0
220
0.0
230
1.0
 40
0.5773502691896257
 41
0.0
 42
6.283185307179586
  0
ELLIPSE
  5
B84F
330
B7AE
100
AcDbEntity
  8
0
100
AcDbEllipse
 10
-33.60139143723575
 20
52.45192673020586
 30
0.0
 11
1.24999999999987
 21
2.165063509461172
 31
0.0
210
0.0
220
0.0
230
1.0
 40
0.5773502691896255
 41
3.742856870268578
 42
5.681921090500117
  0
ELLIPSE
  5
B850
330
B7AE
100
AcDbEntity
  8
0
100
AcDbEllipse
 10
-32.18717787486265
 20
51.63543014927811
 30
0.0
 11
1.249999999999999
 21
2.165063509461097
 31
0.0
210
0.0
220
0.0
230
1.0
 40
0.5773502691896257
 41
0.0
 42
6.283185307179586
  0
ELLIPSE
  5
B851
330
B7AE
100
AcDbEntity
  8
0
100
AcDbEllipse
 10
-33.60139143723575
 20
68.78185834876038
 30
0.0
 11
1.24999999999987
 21
2.165063509461172
 31
0.0
210
0.0
220
0.0
230
1.0
 40
0.5773502691896255
 41
3.742856870268578
 42
5.681921090500117
  0
ELLIPSE
  5
B852
330
B7AE
100
AcDbEntity
  8
0
100
AcDbEllipse
 10
-32.18717787486265
 20
67.96536176783265
 30
0.0
 11
1.249999999999999
 21
2.165063509461097
 31
0.0
210
0.0
220
0.0
230
1.0
 40
0.5773502691896257
 41
0.0
 42
6.283185307179586
  0
ELLIPSE
  5
B853
330
B7AE
100
AcDbEntity
  8
0
100
AcDbEllipse
 10
-33.60139143723575
 20
85.11178996731491
 30
0.0
 11
1.24999999999987
 21
2.165063509461172
 31
0.0
210
0.0
220
0.0
230
1.0
 40
0.5773502691896255
 41
3.74285687026858
 42
5.681921090500103
  0
ELLIPSE
  5
B854
330
B7AE
100
AcDbEntity
  8
0
100
AcDbEllipse
 10
-32.18717787486265
 20
84.29529338638715
 30
0.0
 11
1.249999999999999
 21
2.165063509461097
 31
0.0
210
0.0
220
0.0
230
1.0
 40
0.5773502691896257
 41
0.0
 42
6.283185307179586
  0
ELLIPSE
  5
B855
330
B7AE
100
AcDbEntity
  8
0
100
AcDbEllipse
 10
-33.60139143723575
 20
101.4417215858694
 30
0.0
 11
1.24999999999987
 21
2.165063509461172
 31
0.0
210
0.0
220
0.0
230
1.0
 40
0.5773502691896255
 41
3.74285687026858
 42
5.681921090500103
  0
ELLIPSE
  5
B856
330
B7AE
100
AcDbEntity
  8
0
100
AcDbEllipse
 10
-32.18717787486265
 20
100.6252250049417
 30
0.0
 11
1.249999999999999
 21
2.165063509461097
 31
0.0
210
0.0
220
0.0
230
1.0
 40
0.5773502691896257
 41
0.0
 42
6.283185307179586
  0
ENDBLK
  5
B7B0
330
B7AE
100
AcDbEntity
  8
0
100
AcDbBlockEnd
  0
ENDSEC
  0
SECTION
  2
ENTITIES
  0
INSERT
  5
B857
330
1F
100
AcDbEntity
  8
0
100
AcDbBlockReference
  2
SAE500_100_2-Front
 10
0.0
 20
0.0
 30
0.0
  0
INSERT
  5
B858
330
1F
100
AcDbEntity
  8
0
100
AcDbBlockReference
  2
SAE500_100_2-Left
 10
152.1
 20
0.0
 30
0.0
  0
INSERT
  5
B859
330
1F
100
AcDbEntity
  8
0
100
AcDbBlockReference
  2
SAE500_100_2-Right
 10
-152.1
 20
0.0
 30
0.0
  0
INSERT
  5
B85A
330
1F
100
AcDbEntity
  8
0
100
AcDbBlockReference
  2
SAE500_100_2-Top
 10
0.0
 20
-62.6
 30
0.0
  0
INSERT
  5
B85B
330
1F
100
AcDbEntity
  8
0
100
AcDbBlockReference
  2
SAE500_100_2-Bottom
 10
0.0
 20
260.6
 30
0.0
  0
INSERT
  5
B85C
330
1F
100
AcDbEntity
  8
0
100
AcDbBlockReference
  2
SAE500_100_2-ISO
 10
219.2889635435969
 20
-199.9675711466893
 30
0.0
  0
MTEXT
  5
B85D
330
1F
100
AcDbEntity
  8
0
100
AcDbMText
 10
0.0
 20
-209.2
 30
0.0
 40
16.9
 41
0.0
 71
     5
 72
     5
  1
SAE500/100/2
 73
     1
 44
1.0
1001
ACAD
1000
MTEXTBEGIN
1070
    73
1070
     1
1070
    44
1040
1.0
1070
    74
1070
     0
1000
MTEXTEND
  0
ENDSEC
  0
SECTION
  2
OBJECTS
  0
DICTIONARY
  5
C
330
0
100
AcDbDictionary
281
     1
  3
ACAD_CIP_PREVIOUS_PRODUCT_INFO
350
216
  3
ACAD_COLOR
350
6B
  3
ACAD_DETAILVIEWSTYLE
350
21B
  3
ACAD_GROUP
350
D
  3
ACAD_LAYOUT
350
1A
  3
ACAD_MATERIAL
350
6A
  3
ACAD_MLEADERSTYLE
350
12D
  3
ACAD_MLINESTYLE
350
17
  3
ACAD_PLOTSETTINGS
350
19
  3
ACAD_PLOTSTYLENAME
350
E
  3
ACAD_SCALELIST
350
10C
  3
ACAD_SECTIONVIEWSTYLE
350
219
  3
ACAD_TABLESTYLE
350
7E
  3
ACAD_VISUALSTYLE
350
EF
  3
ACDB_RECOMPOSE_DATA
350
B95E
  3
AcDbVariableDictionary
350
5E
  3
DWGPROPS
350
B95F
  0
DICTIONARY
  5
B8AE
330
8
100
AcDbDictionary
280
     1
281
     1
  0
DICTIONARY
  5
1FF
330
2
100
AcDbDictionary
280
     1
281
     1
  3
ACAD_LAYERSTATES
360
200
  0
DICTIONARY
  5
13C
330
10
100
AcDbDictionary
280
     1
281
     1
  0
DICTIONARY
  5
1CE
330
1F
100
AcDbDictionary
280
     1
281
     1
  3
ACAD_LAYOUTSELFREF
360
B8B6
  0
DICTIONARY
  5
B861
330
D2
100
AcDbDictionary
280
     1
281
     1
  3
ACAD_LAYOUTSELFREF
360
B8BF
  0
DICTIONARY
  5
B863
330
D6
100
AcDbDictionary
280
     1
281
     1
  3
ACAD_LAYOUTSELFREF
360
B8C2
  0
XRECORD
  5
216
102
{ACAD_REACTORS
330
C
102
}
330
C
100
AcDbXrecord
280
     1
300
ACD
300
2021
300
87393ACD_2021_0F
  0
DICTIONARY
  5
6B
102
{ACAD_REACTORS
330
C
102
}
330
C
100
AcDbDictionary
281
     1
  0
DICTIONARY
  5
21B
102
{ACAD_REACTORS
330
C
102
}
330
C
100
AcDbDictionary
281
     1
  3
Metric50
350
21C
  0
DICTIONARY
  5
D
102
{ACAD_REACTORS
330
C
102
}
330
C
100
AcDbDictionary
281
     1
  0
DICTIONARY
  5
1A
102
{ACAD_REACTORS
330
C
102
}
330
C
100
AcDbDictionary
281
     1
  3
Layout1
350
D3
  3
Layout2
350
D7
  3
Model
350
22
  0
DICTIONARY
  5
6A
102
{ACAD_REACTORS
330
C
102
}
330
C
100
AcDbDictionary
281
     1
  3
ByBlock
350
ED
  3
ByLayer
350
EC
  3
Global
350
EE
  0
DICTIONARY
  5
12D
102
{ACAD_REACTORS
330
C
102
}
330
C
100
AcDbDictionary
281
     1
  3
Standard
350
12E
  0
DICTIONARY
  5
17
102
{ACAD_REACTORS
330
C
102
}
330
C
100
AcDbDictionary
281
     1
  3
Standard
350
18
  0
DICTIONARY
  5
19
102
{ACAD_REACTORS
330
C
102
}
330
C
100
AcDbDictionary
281
     1
  0
ACDBDICTIONARYWDFLT
  5
E
102
{ACAD_REACTORS
330
C
102
}
330
C
100
AcDbDictionary
281
     1
  3
Normal
350
F
100
AcDbDictionaryWithDefault
340
F
  0
DICTIONARY
  5
10C
102
{ACAD_REACTORS
330
C
102
}
330
C
100
AcDbDictionary
281
     1
  3
A0
350
10D
  3
A1
350
1BE
  3
A2
350
1BF
  3
A3
350
1C0
  3
A4
350
1C1
  3
A5
350
1C2
  3
A6
350
1C3
  3
A7
350
1C4
  3
A8
350
1C5
  3
A9
350
1C6
  3
B0
350
1C7
  3
B1
350
1C8
  3
B2
350
1C9
  3
B3
350
1CA
  3
B4
350
1CB
  3
B5
350
1CC
  3
B6
350
1CD
  0
DICTIONARY
  5
219
102
{ACAD_REACTORS
330
C
102
}
330
C
100
AcDbDictionary
281
     1
  3
Metric50
350
21A
  0
DICTIONARY
  5
7E
102
{ACAD_REACTORS
330
C
102
}
330
C
100
AcDbDictionary
281
     1
  3
Standard
350
7F
  0
DICTIONARY
  5
EF
102
{ACAD_REACTORS
330
C
102
}
330
C
100
AcDbDictionary
281
     1
  3
2dWireframe
350
F5
  3
Basic
350
F4
  3
Brighten
350
FB
  3
ColorChange
350
FF
  3
Conceptual
350
F8
  3
Dim
350
FA
  3
EdgeColorOff
350
1E6
  3
Facepattern
350
FE
  3
Flat
350
F0
  3
FlatWithEdges
350
F1
  3
Gouraud
350
F2
  3
GouraudWithEdges
350
F3
  3
Hidden
350
F7
  3
JitterOff
350
1E4
  3
Linepattern
350
FD
  3
OverhangOff
350
1E5
  3
Realistic
350
F9
  3
Shaded
350
1F3
  3
Shaded with edges
350
1F2
  3
Shades of Gray
350
1EF
  3
Sketchy
350
1F0
  3
Thicken
350
FC
  3
Wireframe
350
F6
  3
X-Ray
350
1F1
  0
XRECORD
  5
B95E
102
{ACAD_REACTORS
330
C
102
}
330
C
100
AcDbXrecord
280
     1
 90
        1
330
7F
  0
DICTIONARY
  5
5E
102
{ACAD_REACTORS
330
C
102
}
330
C
100
AcDbDictionary
281
     1
  3
CANNOSCALE
350
146
  3
CENTEREXE
350
259
  3
CENTERLTYPEFILE
350
25A
  3
CMLEADERSTYLE
350
145
  3
CTABLESTYLE
350
84
  3
CVIEWDETAILSTYLE
350
227
  3
CVIEWSECTIONSTYLE
350
228
  3
DIMASSOC
350
5F
  3
HIDETEXT
350
63
  3
INDEXCTL
350
B90B
  3
LAYEREVAL
350
1AE
  3
LAYERNOTIFY
350
1AF
  3
LIGHTINGUNITS
350
B909
  3
MSLTSCALE
350
B908
  3
PSOLHEIGHT
350
B95B
  3
PSOLWIDTH
350
B95A
  3
SORTENTS
350
B90A
  3
XCLIPFRAME
350
B95C
  0
XRECORD
  5
B95F
102
{ACAD_REACTORS
330
C
102
}
330
C
100
AcDbXrecord
280
     1
  1
DWGPROPS COOKIE
  2

  3

  4

  6

  7

  8
truole
  9

300
=
301
=
302
=
303
=
304
=
305
=
306
=
307
=
308
=
309
=
 40
0.0079513888888889
 41
2460398.356956019
 42
2460398.376006945
  1

 90
        0
  0
DICTIONARY
  5
200
102
{ACAD_REACTORS
330
1FF
102
}
330
1FF
100
AcDbDictionary
281
     1
  0
XRECORD
  5
B8B6
102
{ACAD_REACTORS
330
1CE
102
}
330
1CE
100
AcDbXrecord
280
     1
340
1F
  0
XRECORD
  5
B8BF
102
{ACAD_REACTORS
330
B861
102
}
330
B861
100
AcDbXrecord
280
     1
340
D2
  0
XRECORD
  5
B8C2
102
{ACAD_REACTORS
330
B863
102
}
330
B863
100
AcDbXrecord
280
     1
340
D6
  0
ACDBDETAILVIEWSTYLE
  5
21C
102
{ACAD_XDICTIONARY
360
B99E
102
}
102
{ACAD_REACTORS
330
21B
102
}
330
21B
100
AcDbModelDocViewStyle
 70
     0
  3
Metric50
290
     0
100
AcDbDetailViewStyle
 70
     0
 71
     0
 90
        3
 71
     1
340
11
 40
5.0
340
0
 40
5.0
300

 40
0.0
280
     1
 71
     2
340
16
 90
       25
 71
     3
340
11
 40
5.0
 90
        0
 40
15.0
 90
        1
300
%<\AcVar ViewDetailId>% (%<\AcVar ViewScale \f "%sn">%)
 71
     4
340
16
 90
       25
340
16
 90
       25
280
     0
  0
LAYOUT
  5
D3
102
{ACAD_XDICTIONARY
360
B963
102
}
102
{ACAD_REACTORS
330
1A
102
}
330
1A
100
AcDbPlotSettings
  1

  2
C:\Documents and Settings\basas\Application Data\Autodesk\AutoCAD 2005\R16.1\enu\plotters\Default Windows System Printer.pc3
  4

  6

 40
0.0
 41
0.0
 42
0.0
 43
0.0
 44
0.0
 45
0.0
 46
0.0
 47
0.0
 48
0.0
 49
0.0
140
0.0
141
0.0
142
1.0
143
1.0
 70
   688
 72
     0
 73
     0
 74
     5
  7

 75
    16
147
1.0
148
0.0
149
0.0
100
AcDbLayout
  1
Layout1
 70
     1
 71
     1
 10
0.0
 20
0.0
 11
12.0
 21
9.0
 12
0.0
 22
0.0
 32
0.0
 14
0.0
 24
0.0
 34
0.0
 15
0.0
 25
0.0
 35
0.0
146
0.0
 13
0.0
 23
0.0
 33
0.0
 16
1.0
 26
0.0
 36
0.0
 17
0.0
 27
1.0
 37
0.0
 76
     0
330
D2
  0
LAYOUT
  5
D7
102
{ACAD_XDICTIONARY
360
B965
102
}
102
{ACAD_REACTORS
330
1A
102
}
330
1A
100
AcDbPlotSettings
  1

  2
C:\Documents and Settings\basas\Application Data\Autodesk\AutoCAD 2005\R16.1\enu\plotters\Default Windows System Printer.pc3
  4

  6

 40
0.0
 41
0.0
 42
0.0
 43
0.0
 44
0.0
 45
0.0
 46
0.0
 47
0.0
 48
0.0
 49
0.0
140
0.0
141
0.0
142
1.0
143
1.0
 70
   688
 72
     0
 73
     0
 74
     5
  7

 75
    16
147
1.0
148
0.0
149
0.0
100
AcDbLayout
  1
Layout2
 70
     1
 71
     2
 10
0.0
 20
0.0
 11
12.0
 21
9.0
 12
0.0
 22
0.0
 32
0.0
 14
0.0
 24
0.0
 34
0.0
 15
0.0
 25
0.0
 35
0.0
146
0.0
 13
0.0
 23
0.0
 33
0.0
 16
1.0
 26
0.0
 36
0.0
 17
0.0
 27
1.0
 37
0.0
 76
     0
330
D6
  0
LAYOUT
  5
22
102
{ACAD_XDICTIONARY
360
B960
102
}
102
{ACAD_REACTORS
330
1A
102
}
330
1A
100
AcDbPlotSettings
  1

  2
none_device
  4
ISO_A4_(210.00_x_297.00_MM)
  6

 40
7.5
 41
20.0
 42
7.5
 43
20.0
 44
210.0
 45
297.0
 46
11.54999923706054
 47
-13.65000009536743
 48
0.0
 49
0.0
140
0.0
141
0.0
142
1.0
143
8.704084754739808
 70
 11952
 72
     1
 73
     0
 74
     0
  7

 75
     0
147
0.1148885871608098
148
0.0
149
0.0
100
AcDbLayout
  1
Model
 70
     1
 71
     0
 10
0.0
 20
0.0
 11
12.0
 21
9.0
 12
0.0
 22
0.0
 32
0.0
 14
0.0
 24
0.0
 34
0.0
 15
0.0
 25
0.0
 35
0.0
146
0.0
 13
0.0
 23
0.0
 33
0.0
 16
1.0
 26
0.0
 36
0.0
 17
0.0
 27
1.0
 37
0.0
 76
     0
330
1F
331
EA
1001
ACAD_PSEXT
1000
None
1000
None
1000
Not applicable
1000
The layout will not be plotted unless a new plotter configuration name is selected.
1070
     0
  0
MATERIAL
  5
ED
102
{ACAD_XDICTIONARY
360
1F9
102
}
102
{ACAD_REACTORS
330
6A
102
}
330
6A
100
AcDbMaterial
  1
ByBlock
  0
MATERIAL
  5
EC
102
{ACAD_XDICTIONARY
360
1F7
102
}
102
{ACAD_REACTORS
330
6A
102
}
330
6A
100
AcDbMaterial
  1
ByLayer
  0
MATERIAL
  5
EE
102
{ACAD_XDICTIONARY
360
173
102
}
102
{ACAD_REACTORS
330
6A
102
}
330
6A
100
AcDbMaterial
  1
Global
 43
0.0007999999797903
 43
0.0
 43
0.0
 43
0.0
 43
0.0
 43
0.0007999999797903
 43
0.0
 43
0.0
 43
0.0
 43
0.0
 43
1.0
 43
0.0
 43
0.0
 43
0.0
 43
0.0
 43
1.0
 49
0.0007999999797903
 49
0.0
 49
0.0
 49
0.0
 49
0.0
 49
0.0007999999797903
 49
0.0
 49
0.0
 49
0.0
 49
0.0
 49
1.0
 49
0.0
 49
0.0
 49
0.0
 49
0.0
 49
1.0
142
0.0007999999797903
142
0.0
142
0.0
142
0.0
142
0.0
142
0.0007999999797903
142
0.0
142
0.0
142
0.0
142
0.0
142
1.0
142
0.0
142
0.0
142
0.0
142
0.0
142
1.0
144
0.0007999999797903
144
0.0
144
0.0
144
0.0
144
0.0
144
0.0007999999797903
144
0.0
144
0.0
144
0.0
144
0.0
144
1.0
144
0.0
144
0.0
144
0.0
144
0.0
144
1.0
1001
ACAD
1070
    -1
1070
     3
1070
     0
1000

1071
        0
1070
     0
  0
MLEADERSTYLE
  5
12E
102
{ACAD_XDICTIONARY
360
B98A
102
}
102
{ACAD_REACTORS
330
12D
102
}
330
12D
100
AcDbMLeaderStyle
170
     2
171
     1
172
     0
 90
        2
 40
0.0
 41
0.0
173
     1
 91
-1056964608
340
14
 92
       -2
290
     1
 42
2.0
291
     1
 43
8.0
  3
Standard
 44
4.0
300

342
11
174
     1
178
     1
175
     1
176
     0
 93
-1056964608
 45
4.0
292
     0
297
     0
 46
4.0
 94
-1056964608
 47
1.0
 49
1.0
140
1.0
293
     1
141
0.0
294
     1
177
     0
142
1.0
295
     0
296
     0
143
3.75
1001
ACAD_MLEADERVER
1070
     2
  0
MLINESTYLE
  5
18
102
{ACAD_REACTORS
330
17
102
}
330
17
100
AcDbMlineStyle
  2
STANDARD
 70
     0
  3

 62
   256
 51
90.0
 52
90.0
 71
     2
 49
0.5
 62
   256
  6
BYLAYER
 49
-0.5
 62
   256
  6
BYLAYER
  0
ACDBPLACEHOLDER
  5
F
102
{ACAD_REACTORS
330
E
102
}
330
E
  0
SCALE
  5
10D
102
{ACAD_REACTORS
330
10C
102
}
330
10C
100
AcDbScale
 70
     0
300
1:1
140
1.0
141
1.0
290
     1
  0
SCALE
  5
1BE
102
{ACAD_REACTORS
330
10C
102
}
330
10C
100
AcDbScale
 70
     0
300
1:2
140
1.0
141
2.0
290
     0
  0
SCALE
  5
1BF
102
{ACAD_REACTORS
330
10C
102
}
330
10C
100
AcDbScale
 70
     0
300
1:4
140
1.0
141
4.0
290
     0
  0
SCALE
  5
1C0
102
{ACAD_REACTORS
330
10C
102
}
330
10C
100
AcDbScale
 70
     0
300
1:5
140
1.0
141
5.0
290
     0
  0
SCALE
  5
1C1
102
{ACAD_REACTORS
330
10C
102
}
330
10C
100
AcDbScale
 70
     0
300
1:8
140
1.0
141
8.0
290
     0
  0
SCALE
  5
1C2
102
{ACAD_REACTORS
330
10C
102
}
330
10C
100
AcDbScale
 70
     0
300
1:10
140
1.0
141
10.0
290
     0
  0
SCALE
  5
1C3
102
{ACAD_REACTORS
330
10C
102
}
330
10C
100
AcDbScale
 70
     0
300
1:16
140
1.0
141
16.0
290
     0
  0
SCALE
  5
1C4
102
{ACAD_REACTORS
330
10C
102
}
330
10C
100
AcDbScale
 70
     0
300
1:20
140
1.0
141
20.0
290
     0
  0
SCALE
  5
1C5
102
{ACAD_REACTORS
330
10C
102
}
330
10C
100
AcDbScale
 70
     0
300
1:30
140
1.0
141
30.0
290
     0
  0
SCALE
  5
1C6
102
{ACAD_REACTORS
330
10C
102
}
330
10C
100
AcDbScale
 70
     0
300
1:40
140
1.0
141
40.0
290
     0
  0
SCALE
  5
1C7
102
{ACAD_REACTORS
330
10C
102
}
330
10C
100
AcDbScale
 70
     0
300
1:50
140
1.0
141
50.0
290
     0
  0
SCALE
  5
1C8
102
{ACAD_REACTORS
330
10C
102
}
330
10C
100
AcDbScale
 70
     0
300
1:100
140
1.0
141
100.0
290
     0
  0
SCALE
  5
1C9
102
{ACAD_REACTORS
330
10C
102
}
330
10C
100
AcDbScale
 70
     0
300
2:1
140
2.0
141
1.0
290
     0
  0
SCALE
  5
1CA
102
{ACAD_REACTORS
330
10C
102
}
330
10C
100
AcDbScale
 70
     0
300
4:1
140
4.0
141
1.0
290
     0
  0
SCALE
  5
1CB
102
{ACAD_REACTORS
330
10C
102
}
330
10C
100
AcDbScale
 70
     0
300
8:1
140
8.0
141
1.0
290
     0
  0
SCALE
  5
1CC
102
{ACAD_REACTORS
330
10C
102
}
330
10C
100
AcDbScale
 70
     0
300
10:1
140
10.0
141
1.0
290
     0
  0
SCALE
  5
1CD
102
{ACAD_REACTORS
330
10C
102
}
330
10C
100
AcDbScale
 70
     0
300
100:1
140
100.0
141
1.0
290
     0
  0
ACDBSECTIONVIEWSTYLE
  5
21A
102
{ACAD_XDICTIONARY
360
B99C
102
}
102
{ACAD_REACTORS
330
219
102
}
330
219
100
AcDbModelDocViewStyle
 70
     0
  3
Metric50
290
     0
100
AcDbSectionViewStyle
 70
     0
 71
     0
 90
      102
 71
     1
340
11
 40
5.0
340
0
340
0
 40
5.0
300
I, O, Q, S, X, Z
 40
10.0
 90
        0
 40
2.5
 90
        0
 71
     2
340
16
 90
       25
340
16
 90
       50
 40
5.0
 40
2.5
 40
5.0
 71
     3
340
11
 40
5.0
 90
        0
 40
15.0
 90
        1
300
%<\AcVar ViewSectionStartId>%-%<\AcVar ViewSectionEndId>% (%<\AcVar ViewScale \f "%sn">%)
 71
     4
300
ANSI31
 40
1.0
 90
        0
290
     0
290
     0
 90
        6
 40
0.0
 40
1.570796326794896
 40
0.2617993877991494
 40
1.308996938995747
 40
-0.2617993877991494
 40
1.832595714594046
  0
TABLESTYLE
  5
7F
102
{ACAD_XDICTIONARY
360
162
102
}
102
{ACAD_REACTORS
330
7E
102
}
330
7E
100
AcDbTableStyle
  3
Standard
 70
     0
 71
     0
 40
1.5
 41
1.5
280
     0
281
     0
  7
Standard
140
4.5
170
     2
 62
     0
 63
     7
283
     0
274
    -2
284
     1
 64
     0
275
    -2
285
     1
 65
     0
276
    -2
286
     1
 66
     0
277
    -2
287
     1
 67
     0
278
    -2
288
     1
 68
     0
279
    -2
289
     1
 69
     0
  7
Standard
140
6.0
170
     5
 62
     0
 63
     7
283
     0
274
    -2
284
     1
 64
     0
275
    -2
285
     1
 65
     0
276
    -2
286
     1
 66
     0
277
    -2
287
     1
 67
     0
278
    -2
288
     1
 68
     0
279
    -2
289
     1
 69
     0
  7
Standard
140
4.5
170
     5
 62
     0
 63
     7
283
     0
274
    -2
284
     1
 64
     0
275
    -2
285
     1
 65
     0
276
    -2
286
     1
 66
     0
277
    -2
287
     1
 67
     0
278
    -2
288
     1
 68
     0
279
    -2
289
     1
 69
     0
  0
VISUALSTYLE
  5
F5
102
{ACAD_XDICTIONARY
360
B974
102
}
102
{ACAD_REACTORS
330
EF
102
}
330
EF
100
AcDbVisualStyle
  2
2dWireframe
 70
     4
 71
     0
 72
     2
 73
     1
 90
        0
 40
-0.6
 41
-30.0
 62
     5
 63
     7
 74
     1
 91
        4
 64
     7
 65
   257
 75
     1
175
     1
 42
1.0
 92
        0
 66
   257
 43
1.0
 76
     1
 77
     6
 78
     2
 67
     7
 79
     5
170
     0
171
     0
290
     0
174
     0
 93
        1
 44
0.0
173
     0
291
     0
 45
0.0
1001
ACAD
1000
AcDbSavedByObjectVersion
1070
     0
  0
VISUALSTYLE
  5
F4
102
{ACAD_XDICTIONARY
360
B972
102
}
102
{ACAD_REACTORS
330
EF
102
}
330
EF
100
AcDbVisualStyle
  2
Basic
 70
     7
 71
     1
 72
     0
 73
     1
 90
        0
 40
-0.6
 41
-30.0
 62
     5
 63
     7
 74
     0
 91
        4
 64
     7
 65
   257
 75
     1
175
     1
 42
1.0
 92
        8
 66
     7
 43
1.0
 76
     1
 77
     6
 78
     2
 67
     7
 79
     5
170
     0
171
     0
290
     0
174
     0
 93
        1
 44
0.0
173
     0
291
     1
 45
0.0
1001
ACAD
1000
AcDbSavedByObjectVersion
1070
     0
  0
VISUALSTYLE
  5
FB
102
{ACAD_XDICTIONARY
360
B980
102
}
102
{ACAD_REACTORS
330
EF
102
}
330
EF
100
AcDbVisualStyle
  2
Brighten
 70
    12
 71
     2
 72
     2
 73
     1
 90
        0
 40
-0.6
 41
-30.0
 62
     5
 63
     7
 74
     1
 91
        4
 64
     7
 65
   257
 75
     1
175
     1
 42
1.0
 92
        8
 66
     7
 43
1.0
 76
     1
 77
     6
 78
     2
 67
     7
 79
     5
170
     0
171
     0
290
     0
174
     0
 93
        1
 44
50.0
173
     0
291
     1
 45
0.0
1001
ACAD
1000
AcDbSavedByObjectVersion
1070
     0
  0
VISUALSTYLE
  5
FF
102
{ACAD_XDICTIONARY
360
B988
102
}
102
{ACAD_REACTORS
330
EF
102
}
330
EF
100
AcDbVisualStyle
  2
ColorChange
 70
    16
 71
     2
 72
     2
 73
     3
 90
        0
 40
-0.6
 41
-30.0
 62
     5
 63
     8
 74
     1
 91
        4
 64
     7
 65
   257
 75
     1
175
     1
 42
1.0
 92
        8
 66
     8
 43
1.0
 76
     1
 77
     6
 78
     2
 67
     7
 79
     5
170
     0
171
     0
290
     0
174
     0
 93
        1
 44
0.0
173
     0
291
     1
 45
0.0
1001
ACAD
1000
AcDbSavedByObjectVersion
1070
     0
  0
VISUALSTYLE
  5
F8
102
{ACAD_XDICTIONARY
360
B97A
102
}
102
{ACAD_REACTORS
330
EF
102
}
330
EF
100
AcDbVisualStyle
  2
Conceptual
 70
     9
 71
     3
 72
     2
 73
     1
 90
        0
 40
-0.6
 41
-30.0
 62
     5
 63
     7
 74
     2
 91
        2
 64
     7
 65
   257
 75
     1
175
     1
 42
40.0
 92
        8
 66
     7
 43
1.0
 76
     1
 77
     6
 78
     2
 67
     7
 79
     3
170
     0
171
     0
290
     0
174
     0
 93
        1
 44
0.0
173
     0
291
     0
 45
0.0
1001
ACAD
1000
AcDbSavedByObjectVersion
1070
     0
  0
VISUALSTYLE
  5
FA
102
{ACAD_XDICTIONARY
360
B97E
102
}
102
{ACAD_REACTORS
330
EF
102
}
330
EF
100
AcDbVisualStyle
  2
Dim
 70
    11
 71
     2
 72
     2
 73
     1
 90
        0
 40
-0.6
 41
-30.0
 62
     5
 63
     7
 74
     1
 91
        4
 64
     7
 65
   257
 75
     1
175
     1
 42
1.0
 92
        8
 66
     7
 43
1.0
 76
     1
 77
     6
 78
     2
 67
     7
 79
     5
170
     0
171
     0
290
     0
174
     0
 93
        1
 44
-50.0
173
     0
291
     1
 45
0.0
1001
ACAD
1000
AcDbSavedByObjectVersion
1070
     0
  0
VISUALSTYLE
  5
1E6
102
{ACAD_XDICTIONARY
360
B990
102
}
102
{ACAD_REACTORS
330
EF
102
}
330
EF
100
AcDbVisualStyle
  2
EdgeColorOff
 70
    22
 71
     2
 72
     2
 73
     0
 90
        0
 40
-0.6
 41
-30.0
 62
     5
 63
     7
 74
     1
 91
        4
 64
     7
 65
   257
 75
     1
175
     1
 42
1.0
 92
        8
 66
     7
 43
1.0
 76
     1
 77
     6
 78
     2
 67
     7
 79
     5
170
     0
171
     0
290
     0
174
     0
 93
        1
 44
0.0
173
     0
291
     1
 45
0.0
1001
ACAD
1000
AcDbSavedByObjectVersion
1070
     0
  0
VISUALSTYLE
  5
FE
102
{ACAD_XDICTIONARY
360
B986
102
}
102
{ACAD_REACTORS
330
EF
102
}
330
EF
100
AcDbVisualStyle
  2
Facepattern
 70
    15
 71
     2
 72
     2
 73
     1
 90
        0
 40
-0.6
 41
-30.0
 62
     5
 63
     7
 74
     1
 91
        4
 64
     7
 65
   257
 75
     1
175
     1
 42
1.0
 92
        8
 66
     7
 43
1.0
 76
     1
 77
     6
 78
     2
 67
     7
 79
     5
170
     0
171
     0
290
     0
174
     0
 93
        1
 44
0.0
173
     0
291
     1
 45
0.0
1001
ACAD
1000
AcDbSavedByObjectVersion
1070
     0
  0
VISUALSTYLE
  5
F0
102
{ACAD_XDICTIONARY
360
B96A
102
}
102
{ACAD_REACTORS
330
EF
102
}
330
EF
100
AcDbVisualStyle
  2
Flat
 70
     0
 71
     2
 72
     1
 73
     1
 90
        2
 40
-0.6
 41
30.0
 62
     5
 63
     7
 74
     0
 91
        0
 64
     7
 65
   257
 75
     1
175
     1
 42
1.0
 92
        8
 66
     7
 43
1.0
 76
     1
 77
     6
 78
     2
 67
     7
 79
     5
170
     0
171
     0
290
     0
174
     0
 93
       13
 44
0.0
173
     0
291
     1
 45
0.0
1001
ACAD
1000
AcDbSavedByObjectVersion
1070
     0
  0
VISUALSTYLE
  5
F1
102
{ACAD_XDICTIONARY
360
B96C
102
}
102
{ACAD_REACTORS
330
EF
102
}
330
EF
100
AcDbVisualStyle
  2
FlatWithEdges
 70
     1
 71
     2
 72
     1
 73
     1
 90
        2
 40
-0.6
 41
30.0
 62
     5
 63
     7
 74
     1
 91
        0
 64
     7
 65
   257
 75
     1
175
     1
 42
1.0
 92
        0
 66
   257
 43
1.0
 76
     1
 77
     6
 78
     2
 67
     7
 79
     5
170
     0
171
     0
290
     0
174
     0
 93
       13
 44
0.0
173
     0
291
     1
 45
0.0
1001
ACAD
1000
AcDbSavedByObjectVersion
1070
     0
  0
VISUALSTYLE
  5
F2
102
{ACAD_XDICTIONARY
360
B96E
102
}
102
{ACAD_REACTORS
330
EF
102
}
330
EF
100
AcDbVisualStyle
  2
Gouraud
 70
     2
 71
     2
 72
     2
 73
     1
 90
        2
 40
-0.6
 41
30.0
 62
     5
 63
     7
 74
     0
 91
        0
 64
     7
 65
   257
 75
     1
175
     1
 42
1.0
 92
        0
 66
     7
 43
1.0
 76
     1
 77
     6
 78
     2
 67
     7
 79
     5
170
     0
171
     0
290
     0
174
     0
 93
       13
 44
0.0
173
     0
291
     1
 45
0.0
1001
ACAD
1000
AcDbSavedByObjectVersion
1070
     0
  0
VISUALSTYLE
  5
F3
102
{ACAD_XDICTIONARY
360
B970
102
}
102
{ACAD_REACTORS
330
EF
102
}
330
EF
100
AcDbVisualStyle
  2
GouraudWithEdges
 70
     3
 71
     2
 72
     2
 73
     1
 90
        2
 40
-0.6
 41
30.0
 62
     5
 63
     7
 74
     1
 91
        0
 64
     7
 65
   257
 75
     1
175
     1
 42
1.0
 92
        0
 66
   257
 43
1.0
 76
     1
 77
     6
 78
     2
 67
     7
 79
     5
170
     0
171
     0
290
     0
174
     0
 93
       13
 44
0.0
173
     0
291
     1
 45
0.0
1001
ACAD
1000
AcDbSavedByObjectVersion
1070
     0
  0
VISUALSTYLE
  5
F7
102
{ACAD_XDICTIONARY
360
B978
102
}
102
{ACAD_REACTORS
330
EF
102
}
330
EF
100
AcDbVisualStyle
  2
Hidden
 70
     6
 71
     1
 72
     2
 73
     2
 90
        0
 40
-0.6
 41
-30.0
 62
     5
 63
     7
 74
     2
 91
        2
 64
     7
 65
   257
 75
     2
175
     1
 42
40.0
 92
        0
 66
   257
 43
1.0
 76
     1
 77
     6
 78
     2
 67
     7
 79
     3
170
     0
171
     0
290
     0
174
     0
 93
        1
 44
0.0
173
     0
291
     0
 45
0.0
1001
ACAD
1000
AcDbSavedByObjectVersion
1070
     0
  0
VISUALSTYLE
  5
1E4
102
{ACAD_XDICTIONARY
360
B98C
102
}
102
{ACAD_REACTORS
330
EF
102
}
330
EF
100
AcDbVisualStyle
  2
JitterOff
 70
    20
 71
     2
 72
     2
 73
     0
 90
        0
 40
-0.6
 41
-30.0
 62
     5
 63
     7
 74
     1
 91
        4
 64
     7
 65
   257
 75
     1
175
     1
 42
1.0
 92
       10
 66
     7
 43
1.0
 76
     1
 77
     6
 78
     2
 67
     7
 79
     5
170
     0
171
     0
290
     0
174
     0
 93
        1
 44
0.0
173
     0
291
     1
 45
0.0
1001
ACAD
1000
AcDbSavedByObjectVersion
1070
     0
  0
VISUALSTYLE
  5
FD
102
{ACAD_XDICTIONARY
360
B984
102
}
102
{ACAD_REACTORS
330
EF
102
}
330
EF
100
AcDbVisualStyle
  2
Linepattern
 70
    14
 71
     2
 72
     2
 73
     1
 90
        0
 40
-0.6
 41
-30.0
 62
     5
 63
     7
 74
     1
 91
        4
 64
     7
 65
   257
 75
     7
175
     7
 42
1.0
 92
        8
 66
     7
 43
1.0
 76
     1
 77
     6
 78
     2
 67
     7
 79
     5
170
     0
171
     0
290
     0
174
     0
 93
        1
 44
0.0
173
     0
291
     1
 45
0.0
1001
ACAD
1000
AcDbSavedByObjectVersion
1070
     0
  0
VISUALSTYLE
  5
1E5
102
{ACAD_XDICTIONARY
360
B98E
102
}
102
{ACAD_REACTORS
330
EF
102
}
330
EF
100
AcDbVisualStyle
  2
OverhangOff
 70
    21
 71
     2
 72
     2
 73
     0
 90
        0
 40
-0.6
 41
-30.0
 62
     5
 63
     7
 74
     1
 91
        4
 64
     7
 65
   257
 75
     1
175
     1
 42
1.0
 92
        9
 66
     7
 43
1.0
 76
     1
 77
     6
 78
     2
 67
     7
 79
     5
170
     0
171
     0
290
     0
174
     0
 93
        1
 44
0.0
173
     0
291
     1
 45
0.0
1001
ACAD
1000
AcDbSavedByObjectVersion
1070
     0
  0
VISUALSTYLE
  5
F9
102
{ACAD_XDICTIONARY
360
B97C
102
}
102
{ACAD_REACTORS
330
EF
102
}
330
EF
100
AcDbVisualStyle
  2
Realistic
 70
     8
 71
     2
 72
     2
 73
     0
 90
        2
 40
-0.6
 41
30.0
 62
     5
 63
     7
 74
     0
 91
        0
 64
     7
 65
   257
 75
     1
175
     1
 42
1.0
 92
        8
 66
   257
 43
1.0
 76
     1
 77
     6
 78
     2
 67
     7
 79
     3
170
     0
171
     0
290
     0
174
     0
 93
       13
 44
0.0
173
     0
291
     0
 45
0.0
1001
ACAD
1000
AcDbSavedByObjectVersion
1070
     0
  0
VISUALSTYLE
  5
1F3
102
{ACAD_XDICTIONARY
360
B99A
102
}
102
{ACAD_REACTORS
330
EF
102
}
330
EF
100
AcDbVisualStyle
  2
Shaded
 70
    27
 71
     2
 72
     2
 73
     1
 90
        2
 40
-0.6
 41
30.0
 62
     5
 63
     7
 74
     0
 91
        4
 64
     7
 65
   257
 75
     1
175
     1
 42
1.0
 92
        8
 66
   257
 43
1.0
 76
     1
 77
     6
 78
     2
 67
     8
 79
     3
170
     0
171
     0
290
     0
174
     0
 93
        5
 44
0.0
173
     0
291
     0
 45
0.0
1001
ACAD
1000
AcDbSavedByObjectVersion
1070
     0
  0
VISUALSTYLE
  5
1F2
102
{ACAD_XDICTIONARY
360
B998
102
}
102
{ACAD_REACTORS
330
EF
102
}
330
EF
100
AcDbVisualStyle
  2
Shaded with edges
 70
    26
 71
     2
 72
     2
 73
     1
 90
        2
 40
-0.6
 41
30.0
 62
     5
 63
     7
 74
     1
 91
        2
 64
     7
 65
   257
 75
     2
175
     1
 42
1.0
 92
        8
 66
   257
 43
1.0
 76
     1
 77
     6
 78
     2
 67
     7
 79
     3
170
     0
171
     0
290
     0
174
     0
 93
        5
 44
0.0
173
     0
291
     0
 45
0.0
1001
ACAD
1000
AcDbSavedByObjectVersion
1070
     0
  0
VISUALSTYLE
  5
1EF
102
{ACAD_XDICTIONARY
360
B992
102
}
102
{ACAD_REACTORS
330
EF
102
}
330
EF
100
AcDbVisualStyle
  2
Shades of Gray
 70
    23
 71
     2
 72
     2
 73
     3
 90
        0
 40
-0.6
 41
-30.0
 62
     5
 63
     7
 74
     2
 91
        2
 64
     7
 65
     7
 75
     1
175
     1
 42
40.0
 92
        8
 66
     7
 43
1.0
 76
     1
 77
     6
 78
     2
 67
     7
 79
     3
170
     0
171
     0
290
     0
174
     0
 93
        1
 44
0.0
173
     0
291
     0
 45
0.0
1001
ACAD
1000
AcDbSavedByObjectVersion
1070
     0
  0
VISUALSTYLE
  5
1F0
102
{ACAD_XDICTIONARY
360
B994
102
}
102
{ACAD_REACTORS
330
EF
102
}
330
EF
100
AcDbVisualStyle
  2
Sketchy
 70
    24
 71
     1
 72
     2
 73
     2
 90
        0
 40
-0.6
 41
-30.0
 62
     5
 63
     7
 74
     2
 91
        2
 64
     7
 65
     7
 75
     1
175
     1
 42
40.0
 92
       11
 66
     7
 43
1.0
 76
     1
 77
     6
 78
     2
 67
     7
 79
     6
170
     0
171
     0
290
     0
174
     0
 93
        1
 44
0.0
173
     0
291
     0
 45
0.0
1001
ACAD
1000
AcDbSavedByObjectVersion
1070
     0
  0
VISUALSTYLE
  5
FC
102
{ACAD_XDICTIONARY
360
B982
102
}
102
{ACAD_REACTORS
330
EF
102
}
330
EF
100
AcDbVisualStyle
  2
Thicken
 70
    13
 71
     2
 72
     2
 73
     1
 90
        0
 40
-0.6
 41
-30.0
 62
     5
 63
     7
 74
     1
 91
        4
 64
     7
 65
   257
 75
     1
175
     1
 42
1.0
 92
       12
 66
     7
 43
1.0
 76
     1
 77
     6
 78
     2
 67
     7
 79
     5
170
     0
171
     0
290
     0
174
     0
 93
        1
 44
0.0
173
     0
291
     1
 45
0.0
1001
ACAD
1000
AcDbSavedByObjectVersion
1070
     0
  0
VISUALSTYLE
  5
F6
102
{ACAD_XDICTIONARY
360
B976
102
}
102
{ACAD_REACTORS
330
EF
102
}
330
EF
100
AcDbVisualStyle
  2
Wireframe
 70
     5
 71
     0
 72
     2
 73
     0
 90
        0
 40
-0.6
 41
-30.0
 62
     5
 63
     7
 74
     1
 91
        4
 64
     7
 65
   257
 75
     1
175
     1
 42
1.0
 92
        0
 66
   257
 43
1.0
 76
     1
 77
     6
 78
     2
 67
     7
 79
     3
170
     0
171
     0
290
     0
174
     0
 93
        1
 44
0.0
173
     0
291
     0
 45
0.0
1001
ACAD
1000
AcDbSavedByObjectVersion
1070
     0
  0
VISUALSTYLE
  5
1F1
102
{ACAD_XDICTIONARY
360
B996
102
}
102
{ACAD_REACTORS
330
EF
102
}
330
EF
100
AcDbVisualStyle
  2
X-Ray
 70
    25
 71
     2
 72
     2
 73
     1
 90
        1
 40
0.5
 41
-30.0
 62
     5
 63
     7
 74
     1
 91
        0
 64
     7
 65
   257
 75
     1
175
     1
 42
1.0
 92
        8
 66
     7
 43
1.0
 76
     1
 77
     6
 78
     2
 67
     7
 79
     3
170
     0
171
     0
290
     0
174
     0
 93
       13
 44
0.0
173
     0
291
     0
 45
0.0
1001
ACAD
1000
AcDbSavedByObjectVersion
1070
     0
  0
DICTIONARYVAR
  5
146
102
{ACAD_REACTORS
330
5E
102
}
330
5E
100
DictionaryVariables
280
     0
  1
1:1
  0
DICTIONARYVAR
  5
259
102
{ACAD_REACTORS
330
5E
102
}
330
5E
100
DictionaryVariables
280
     0
  1
3.500000
  0
DICTIONARYVAR
  5
25A
102
{ACAD_REACTORS
330
5E
102
}
330
5E
100
DictionaryVariables
280
     0
  1
acadiso.lin
  0
DICTIONARYVAR
  5
145
102
{ACAD_REACTORS
330
5E
102
}
330
5E
100
DictionaryVariables
280
     0
  1
STANDARD
  0
DICTIONARYVAR
  5
84
102
{ACAD_REACTORS
330
5E
102
}
330
5E
100
DictionaryVariables
280
     0
  1
STANDARD
  0
DICTIONARYVAR
  5
227
102
{ACAD_REACTORS
330
5E
102
}
330
5E
100
DictionaryVariables
280
     0
  1
Metric50
  0
DICTIONARYVAR
  5
228
102
{ACAD_REACTORS
330
5E
102
}
330
5E
100
DictionaryVariables
280
     0
  1
Metric50
  0
DICTIONARYVAR
  5
5F
102
{ACAD_REACTORS
330
5E
102
}
330
5E
100
DictionaryVariables
280
     0
  1
2
  0
DICTIONARYVAR
  5
63
102
{ACAD_REACTORS
330
5E
102
}
330
5E
100
DictionaryVariables
280
     0
  1
1
  0
DICTIONARYVAR
  5
B90B
102
{ACAD_REACTORS
330
5E
102
}
330
5E
100
DictionaryVariables
280
     0
  1
0
  0
DICTIONARYVAR
  5
1AE
102
{ACAD_REACTORS
330
5E
102
}
330
5E
100
DictionaryVariables
280
     0
  1
0
  0
DICTIONARYVAR
  5
1AF
102
{ACAD_REACTORS
330
5E
102
}
330
5E
100
DictionaryVariables
280
     0
  1
0
  0
DICTIONARYVAR
  5
B909
102
{ACAD_REACTORS
330
5E
102
}
330
5E
100
DictionaryVariables
280
     0
  1
2
  0
DICTIONARYVAR
  5
B908
102
{ACAD_REACTORS
330
5E
102
}
330
5E
100
DictionaryVariables
280
     0
  1
1
  0
DICTIONARYVAR
  5
B95B
102
{ACAD_REACTORS
330
5E
102
}
330
5E
100
DictionaryVariables
280
     0
  1
80.000000
  0
DICTIONARYVAR
  5
B95A
102
{ACAD_REACTORS
330
5E
102
}
330
5E
100
DictionaryVariables
280
     0
  1
5.000000
  0
DICTIONARYVAR
  5
B90A
102
{ACAD_REACTORS
330
5E
102
}
330
5E
100
DictionaryVariables
280
     0
  1
127
  0
DICTIONARYVAR
  5
B95C
102
{ACAD_REACTORS
330
5E
102
}
330
5E
100
DictionaryVariables
280
     0
  1
2
  0
DICTIONARY
  5
B99E
330
21C
100
AcDbDictionary
280
     1
281
     1
  3
ACAD_XREC_ROUNDTRIP
360
B99F
  0
DICTIONARY
  5
B963
330
D3
100
AcDbDictionary
280
     1
281
     1
  3
ACAD_XREC_ROUNDTRIP
360
B964
  0
DICTIONARY
  5
B965
330
D7
100
AcDbDictionary
280
     1
281
     1
  3
ACAD_XREC_ROUNDTRIP
360
B966
  0
DICTIONARY
  5
B960
330
22
100
AcDbDictionary
280
     1
281
     1
  3
ACAD_XREC_ROUNDTRIP
360
B961
  0
DICTIONARY
  5
1F9
330
ED
100
AcDbDictionary
280
     1
281
     1
  3
ACAD_XREC_ROUNDTRIP
360
B968
  3
FBXASSET
360
1FA
  0
DICTIONARY
  5
1F7
330
EC
100
AcDbDictionary
280
     1
281
     1
  3
ACAD_XREC_ROUNDTRIP
360
B967
  3
FBXASSET
360
1F8
  0
DICTIONARY
  5
173
330
EE
100
AcDbDictionary
280
     1
281
     1
  3
ACAD_XREC_ROUNDTRIP
360
B969
  3
BUMPTILE
360
175
  3
DIFFUSETILE
360
174
  3
FBXASSET
360
1FB
  3
OPACITYTILE
360
176
  3
REFLECTIONTILE
360
177
  0
DICTIONARY
  5
B98A
330
12E
100
AcDbDictionary
280
     1
281
     1
  3
ACAD_XREC_ROUNDTRIP
360
B98B
  0
DICTIONARY
  5
B99C
330
21A
100
AcDbDictionary
280
     1
281
     1
  3
ACAD_XREC_ROUNDTRIP
360
B99D
  0
DICTIONARY
  5
162
330
7F
100
AcDbDictionary
280
     1
281
     1
  3
ACAD_ROUNDTRIP_2008_TABLESTYLE_CELLSTYLEMAP
360
B95D
  3
ACAD_XREC_ROUNDTRIP
360
B962
  0
DICTIONARY
  5
B974
330
F5
100
AcDbDictionary
280
     1
281
     1
  3
ACAD_XREC_ROUNDTRIP
360
B975
  0
DICTIONARY
  5
B972
330
F4
100
AcDbDictionary
280
     1
281
     1
  3
ACAD_XREC_ROUNDTRIP
360
B973
  0
DICTIONARY
  5
B980
330
FB
100
AcDbDictionary
280
     1
281
     1
  3
ACAD_XREC_ROUNDTRIP
360
B981
  0
DICTIONARY
  5
B988
330
FF
100
AcDbDictionary
280
     1
281
     1
  3
ACAD_XREC_ROUNDTRIP
360
B989
  0
DICTIONARY
  5
B97A
330
F8
100
AcDbDictionary
280
     1
281
     1
  3
ACAD_XREC_ROUNDTRIP
360
B97B
  0
DICTIONARY
  5
B97E
330
FA
100
AcDbDictionary
280
     1
281
     1
  3
ACAD_XREC_ROUNDTRIP
360
B97F
  0
DICTIONARY
  5
B990
330
1E6
100
AcDbDictionary
280
     1
281
     1
  3
ACAD_XREC_ROUNDTRIP
360
B991
  0
DICTIONARY
  5
B986
330
FE
100
AcDbDictionary
280
     1
281
     1
  3
ACAD_XREC_ROUNDTRIP
360
B987
  0
DICTIONARY
  5
B96A
330
F0
100
AcDbDictionary
280
     1
281
     1
  3
ACAD_XREC_ROUNDTRIP
360
B96B
  0
DICTIONARY
  5
B96C
330
F1
100
AcDbDictionary
280
     1
281
     1
  3
ACAD_XREC_ROUNDTRIP
360
B96D
  0
DICTIONARY
  5
B96E
330
F2
100
AcDbDictionary
280
     1
281
     1
  3
ACAD_XREC_ROUNDTRIP
360
B96F
  0
DICTIONARY
  5
B970
330
F3
100
AcDbDictionary
280
     1
281
     1
  3
ACAD_XREC_ROUNDTRIP
360
B971
  0
DICTIONARY
  5
B978
330
F7
100
AcDbDictionary
280
     1
281
     1
  3
ACAD_XREC_ROUNDTRIP
360
B979
  0
DICTIONARY
  5
B98C
330
1E4
100
AcDbDictionary
280
     1
281
     1
  3
ACAD_XREC_ROUNDTRIP
360
B98D
  0
DICTIONARY
  5
B984
330
FD
100
AcDbDictionary
280
     1
281
     1
  3
ACAD_XREC_ROUNDTRIP
360
B985
  0
DICTIONARY
  5
B98E
330
1E5
100
AcDbDictionary
280
     1
281
     1
  3
ACAD_XREC_ROUNDTRIP
360
B98F
  0
DICTIONARY
  5
B97C
330
F9
100
AcDbDictionary
280
     1
281
     1
  3
ACAD_XREC_ROUNDTRIP
360
B97D
  0
DICTIONARY
  5
B99A
330
1F3
100
AcDbDictionary
280
     1
281
     1
  3
ACAD_XREC_ROUNDTRIP
360
B99B
  0
DICTIONARY
  5
B998
330
1F2
100
AcDbDictionary
280
     1
281
     1
  3
ACAD_XREC_ROUNDTRIP
360
B999
  0
DICTIONARY
  5
B992
330
1EF
100
AcDbDictionary
280
     1
281
     1
  3
ACAD_XREC_ROUNDTRIP
360
B993
  0
DICTIONARY
  5
B994
330
1F0
100
AcDbDictionary
280
     1
281
     1
  3
ACAD_XREC_ROUNDTRIP
360
B995
  0
DICTIONARY
  5
B982
330
FC
100
AcDbDictionary
280
     1
281
     1
  3
ACAD_XREC_ROUNDTRIP
360
B983
  0
DICTIONARY
  5
B976
330
F6
100
AcDbDictionary
280
     1
281
     1
  3
ACAD_XREC_ROUNDTRIP
360
B977
  0
DICTIONARY
  5
B996
330
1F1
100
AcDbDictionary
280
     1
281
     1
  3
ACAD_XREC_ROUNDTRIP
360
B997
  0
XRECORD
  5
B99F
102
{ACAD_REACTORS
330
B99E
102
}
330
B99E
100
AcDbXrecord
280
     1
102
DISPLAYNAME
  1
Metric50
102
FLAGS
 90
        0
  0
XRECORD
  5
B964
102
{ACAD_REACTORS
330
B963
102
}
330
B963
100
AcDbXrecord
280
     1
102
SHADEPLOT
 70
     0
102
SHADEPLOTRESLEVEL
 70
     2
102
SHADEPLOTCUSTOMDPI
 70
   300
  0
XRECORD
  5
B966
102
{ACAD_REACTORS
330
B965
102
}
330
B965
100
AcDbXrecord
280
     1
102
SHADEPLOT
 70
     0
102
SHADEPLOTRESLEVEL
 70
     2
102
SHADEPLOTCUSTOMDPI
 70
   300
  0
XRECORD
  5
B961
102
{ACAD_REACTORS
330
B960
102
}
330
B960
100
AcDbXrecord
280
     1
102
SHADEPLOT
 70
     0
102
SHADEPLOTRESLEVEL
 70
     2
102
SHADEPLOTCUSTOMDPI
 70
   300
  0
XRECORD
  5
B968
102
{ACAD_REACTORS
330
1F9
102
}
330
1F9
100
AcDbXrecord
280
     1
102
MATERIAL
148
0.0
149
0.0
149
0.0
 93
        0
 94
       63
282
     0
 72
     1
 77
     1
171
     1
175
     1
179
     1
273
     0
  0
XRECORD
  5
1FA
102
{ACAD_REACTORS
330
1F9
102
}
330
1F9
100
AcDbXrecord
280
     1
 70
     1
 90
429727718
  1
D62C5603-E3A1-4AEA-B7FB-FE5D8D0755AF
310
504B03040A0000080000CC70623B3DEE336E79000000790000001B0000006175746F6465736B2D64657369676E2D7061636B6167652E786D6C3C3F786D6C2076657273696F6E3D22312E302220656E636F64696E673D227574662D3822203F3E3C666F726D6174733E3C666F726D61743E687474703A2F2F736368656D612E
310
6175746F6465736B2E636F6D2F64657369676E2D7061636B6167652F323030393C2F666F726D61743E3C2F666F726D6174733E504B0304140006080800CC70623BD486FD9CA0000000F4000000130000005B436F6E74656E745F54797065735D2E786D6C7D8EC10E82300C865F65E91D8A1E8C310C0EEA1BF002731658846E
310
D98AC1B77784ABF1D8FE5FBFBF75BBCE937A534CCEB38643598122B6FEE978D0B0485F9C41B54DDD7D022595594E1A469170414C76A4D9A4D207E29CF43ECE46F218070CC6BECC4078ACAA135ACF422C856C0E68EA1BF5669944DDD7BCDE7B1F8E415D77AECB980613C2E4AC91FC167A2B244592486606FC29C8FD7F045B9A
310
EF7053A7E60B504B0304140006080800CC70623B853B8169EB0000007C01000008000000636F72652E786D6C8D90416EC3201045AF62CDB6C206821CC7C244919D9CA01740401C94182C03558F5F9C3852BBEB6A467FFE9B197D7EFC9E1EC5975982F5AE035262288C535E5B377690E21535501C055FBC8FBF6C503839990E
310
5619041F179FE64D52DE45E362569DD7661365082642A11EB9E920A89B99642953CC8E702F67A9EE7234257977194EC9EAE275C4EABCCF5EAD5940D4AC6F0E35A568B8F43562CD7046CD199FD07E60174276A7BE677B5EADB0E0D14EEFFB6A31321A0D82627C4084204C3F096B71DD52F6819B16635EADF63F509AF53FA164
310
5DDCD1EDDD17164090FCC8732078B56691CB33A85CD7DCC40F504B0304140006080800CC70623B55019EA25F0000007C00000007000000636E782E786D6C4DCB3B0E80201045D1AD90E915ED2CF8AC45050C11660C8261F98AB1B07AC9C97D42D718D865D3E909258CFD00CCE24AC6E326A164D74DC0B4128928FF32603847
310
2BA13128B1252AC747C6BAB984FC68F0B87FE8960A5C09FE86CFB69FBA01504B0304140006080800CC70623BDBABAAF470010000D40300000C0000006662782F636F72652E786D6CC553D16E823014FD95A6AF4B694182CC941A83FA05FB810A9511A125A5257EFE2E82712ECEB8A7F100CD39F7F69E734AF9FADC366850B6
310
AF8DCE7018308C942E4C59EB2AC3DE1D498AD15A706B8CFB56869196ADCAF00863C12B6B7C374385D14E6907A836A59A41D9F7CA615434B0C8705F7CAA5606D23BA8E84F41278B93AC54100640439DE0BDB320004D43C63716C7C399D30917DCFBBA9CD9BA8469F5B156168B24CED3F7248AC8769F27244EB73B92EED8862C
310
B7F13E0C179B3C8F979C8ECD82BBBABDAA2BAC924E9558448CBD9330242CFA08E3154B5651FCC6D215639C8EE5774DBE2B5F6CF2B5768B68963BB5F5588420E442FC700B1139D4CB01F450C1E918227C2E09DF070D8140C84E1E9AAB8F1340832A9CB13130A5F1376A908D57309505ECF2A0DF179C4E9D30F5B239B87E3823
310
7A79C6F31DE1A8A5AEC08474B03C7837EAE4938639B44E5932B833D2C6B6B279CDC613877FA26EE21F4A2A4C63EC7F29A2F301D1F9F7A0E37D145F504B0304140006080800CC70623B9C113CC27E0000009D0000000B0000006662782F636E782E786D6C4DCCDF0A83201C86E15B91DFB94BFB330DD428C8FB886521330DA7
310
6397BF1A1DECE883878F57749FCDA1B7892F1BBC047A23808C7F84D9FA55424E0BE6803A256208E9EF06C84F9B91703228B1C690F78B66B34CD9A5439DF5CF0BFBF65E35BCA1B8D6A5C6F540381E886698B5741C695F9503EBA150A2F8958E3DC3EA0B504B0304140006080800CC70623B7DF2F77C2A010000120200003100
310
00006662782F41393633353835312D344632462D344230382D423046372D3739314545314133324237412F636F72652E786D6C8D51DB8EC22014FC15C2939B0D2DB4B45643319AE817EC0F6041255A68B86CFCFC856D4D76DF7CE190393373060EDB3DC707F856CE6B6B7A480A0C81328395DA5C7B18C3057510EC3873D686
310
3F34088C18550F330C39BB3A1BA7051AAC09CA84841A2BD5020AEF55806078A44B0FFD7053A328440C89E1EFC52486BBB8AA8214A99D789CF9E05200300FC927E4FB4D5B375D43103D5527440FB843077C5AA3F5861C8F645F5787F59E95B390B318B55CE45AA638FAA2957BD7248B390B7A7CC51F9C124149C82B8C378810
310
84AB2F42B7B8DD56F413775B8C5999E9FF4471926F8AA236A1AE96B8B3CC434E5839373893369E1FAF30EA395917409EB7F26AF8801C171837A4A6AC9C89E9F9C9B1A58BA30FD6A5EF5DDDCF894B9AD9B6A59C957943A9FCAE2FD5BC4DFE03504B0304140006080800CC70623BAD7543B64E01000033030000300000006662
310
782F41393633353835312D344632462D344230382D423046372D3739314545314133324237412F636E782E786D6CD593CD6EC32010845F0571AD6CE3D48AD20813A9873E410FBD12D82434182C7EAAE6EDBB2424CD25871E7B41D6EC30B3FA84F9E67BB2E40B4234DE8DB46F1925E094D7C6ED479AD3AE5951B2113C789FEE
310
6C943839C1488B4C05DF079FE72A69D8C96C13AAD6B8631503449F83828872B949AC57D26200B826A308D316B4064D6E46FCDA41C05550DC9E483A00797BFD207EFB092A45DE9514C1BBD22178396BD39D891265658C238DEA00936C654E5E433CB65A26D9F6EDB5EBC14EBF49A45CB856E66048291F6939A9A81BB5C89177
310
38143CA680F4AA299D66A042CEB3354A2684DC9D8D178FE0D9B8B41CAAD720F880EE7EF93C0C18769E099ECC04D5A102C8049A8A05632F4DDF376CF1DE0F6BB65C2F8627B65A33C6BB62177CEBBDAD973006829F89F22E814B54F4BC2BE347F8AA8F681390B50FA73F804400B5F542E796F19FF974E7F78DB802FE05E20750
310
4B0304140006080800CC70623BE75B7789680500003C100000340000006662782F41393633353835312D344632462D344230382D423046372D3739314545314133324237412F6F626A656374732E786D6CAD575B8F9B3818FD2B887D06C22499CB8AA1CA655245D5B455A356FB305264C061D8018C6C3393D95FBFC7600890
310
A4CD5EF210B0B1BFEBF98E3F7B1FF6596ABC522E1296DF9BAE3D320D9A872C4AF2F8DE2CE5CEBA358D0FBEC719939D65A691938CDE9B6ADAF4BD98B3B2D05311DD91329583D9D5FC0F438434A7A611A644887B5384CF34233629258BA878B12322891DEFF6B66BD70BFB62634E8AE781D082709A4B588AF91C528CDA28B73F
310
1C998EEF39EABBEFA97FBD6A7C7E9553F9D3D79FE442923C3C523610337627CB87ABE99D359D4CC6D6E4FACAB5E6ABF9D2726FC6A3C5F56271377BB88362213924694B38DD99FE47C48627A1E7D49F5A8BB5E1A74C0A599ED3B0F21F1E56366B89112D681E218F0915D0D6F17AD41FBA2A369DCF6335D62ABBD39779D5DDD1
310
11D4D8DE3CBB96B2E04FB8202E41051754A1AA8E8F76B4C6DFE810B580B1547F4B84911149794252234D024EF8BBE963A95AE27B3D310A9D5C215C7960FAEE415ED75694C6AFB17BCACA5D99A60A9AA65F217B0BFC53292ACB92BF283FAD0D3621576592CB5BED907C2FA8E9DF794E35E97BEA31BED21FEB401ABB94C44839
310
DCACBF0E1C5DA8DA5B2F4DFFD32AD86F543D9E565E7056502E157C00AD2671CD534549AB752FCA9CDA00677A313F04E51B22FF19E57B300579E3C97EB29F682D92935CEC18CF901B7B54FD8C51F362B56FC72FE0B3C1EAE335EDCCBF5AEC39ADB17DC238973F804BA5E6F6BFE7AF1FB32E523BE9F3BD571418E3631DCA4D48
310
5250CF639223210A9446CA30052EDF057BD35F8329C1ECD84552BF0DC8D18BE7BCE23BFE6BD960AB4A7DE79923A103BEBD80F911CBAA2C60DB19B01CF164A5583B772EE6D3FFA56666CBCDA74DC97724A48F9A58967497E489C4D979006FD7A05E227A1EBDD0F737C623387A9C844D3709995625106D157315F8B8392CD4E0
310
A0B9A720C4BE9829CEF37EA1E13111214D53925356365ADA634861B52519DD27A00AEB808EAF0628E6F435519D446F45CF2C9CF5214F0A15B2F6D06B79DA3EE3CBF7F56780D2F4E7EF73A0F5E5B02A38D07DC852C6B7C1FBB6664213E0C39E3EBA7FF4E1AD23EA2829407C85E586727488B751B2DB9502BC7B228A3FD68B6E
310
A65A22397E690AA8D158D7E404EC8CDA235CC3B7D1898680131CEC2CDF2638C65196279577750F15884AEE19F94199155B92B13297978469D4F8D358DF0AEF7631E28DC8F0D9F437D5D39A83B2231A1D52D543813A824EF8D44BCFF2FA6A31BD1E8DAD87F1CCB526B3879935BF59CDADD5C37479BB1CDD4CA7B3556B516589
310
EF352754B706114D9C885EC9131DE6EFEB43D99AFE2391C2F958179413D7CFEF6B1B6DB1E7600F00DE6E5C67454A339A4BA2E0FBA85ED26F045D454F463DBFCE484C2F90F2E5E3666003662ED8F755951A7D1BECD5B30B550B2785C8E7320B7292A4838DDA71BBC863ED7613CAF659337A3354231D4FF4A182A54904C2898C
310
98B28C4AD0CE056CCF332A80986E571EE9DBC305BB5FEB7E509220A58D25CF042D712A806AC0AD0C657FDEF80D2D9CEAA2EE4D1C76F60BFE74219A06527D6F82DF6412526107381E55E353090704D085B52408A8913C4ED159D79BDA71BB4BC506F4831350EB6F975CD22D69BF7AC49B91A2C0A9DDA3D5CA36AD20FC478E37
310
E61844E2352865EBCB61A275A65283CAAA9DD27703B4102F5AF51EF5F573B75CBB5AD38BC845F7A49F82A0966A49C2E3EA5EA0ECD326CD965F1DB402C6FA8B51A4658C5C5E2EC9E214602E55810345408596591009A82E7E7FFACA19EEA299B14A0081A705CB3296EBC14CDF658DCD336EA6D1136881AAEB87B81AB9EE53D5
310
F5EB8BC8362082DA24122F98680A4E7930C01A0079749CEA14382A0783E5EBA5A10F8C098456A03D6A4AEB6BB881E2513747552A5DB22C7EDAF83BD5528081A365F7FF06504B0304140006080000CC70623B000000000000000000000000350000006662782F41393633353835312D344632462D344230382D423046372D37
310
39314545314133324237412F76657274696365732E62696E504B0304140006080800CC70623BF270F1330600000004000000360000006662782F41393633353835312D344632462D344230382D423046372D3739314545314133324237412F747269616E676C65732E62696E636660600000504B0304140006080000CC7062
310
3B000000000000000000000000370000006662782F41393633353835312D344632462D344230382D423046372D3739314545314133324237412F617474726962757465732E62696E504B0304140006080800CC70623B08DA0BD19000000041010000360000006662782F41393633353835312D344632462D344230382D4230
310
46372D3739314545314133324237412F6469726563746F72792E786D6C858F410AC3201045AF22B36F53E9A60B35CBEEBAE80D244E44489C6234F4F835464A48035D0DF398FF9F8AF63D0E6CC63039F212F8F9020C7D47C6792B21C5FE7403D62A1188E2E60C98D7234A5830286103A55745067B9D86B8A3CF9C7F90C11DE6
310
07FB144396D7B6A82D282E9A152AD114D5EF2CB866EEE831B8EEA07A7BB5A8D7D61A2BAAEB7FD5F70921FF497D00504B0304140006080800CC70623BEDD1DC58FD000000A00100003B0000006662782F41393633353835312D344632462D344230382D423046372D3739314545314133324237412F7265736F75726365732F
310
636F72652E786D6C8D504B6E833010BD0A9A6D65B00922041947112427E8052C33A156828DFCA97AFC9A40A576D7CDCCE87D344F8F9FBFE667F689CE6B6B3A6039850C8DB2A336530731DC4903D95970676DF82583CCC8193B5861107C72362E3BA4AC096842428D1D7107A5F7182053CF7474E0D507CE32973124857FE48B
310
540F3961CEF244279DE03EB81420DB9EAC1384436FA353E879B1B182C7A8C75DA3C7F453DF353A1075D537A7BA6464B8F535A99AE14A9A2BBD90E350DD183B5CFABE3AF262350B1EF4FC9351399401471025A527C218A1E53BAB5A5AB765F5469B96525EACF23FA6B88CFF34456DC2A1DCE36E360F82A5202F42F062ED2BAD
310
579969AFDD8A6F504B010214000A0000080000CC70623B3DEE336E79000000790000001B00000000000000000000000000000000006175746F6465736B2D64657369676E2D7061636B6167652E786D6C504B01021400140006080800CC70623BD486FD9CA0000000F40000001300000000000000000000000000B20000005B
310
436F6E74656E745F54797065735D2E786D6C504B01021400140006080800CC70623B853B8169EB0000007C010000080000000000000000000000000083010000636F72652E786D6C504B01021400140006080800CC70623B55019EA25F0000007C000000070000000000000000000000000094020000636E782E786D6C504B
310
01021400140006080800CC70623BDBABAAF470010000D40300000C00000000000000000000000000180300006662782F636F72652E786D6C504B01021400140006080800CC70623B9C113CC27E0000009D0000000B00000000000000000000000000B20400006662782F636E782E786D6C504B01021400140006080800CC70
310
623B7DF2F77C2A010000120200003100000000000000000000000000590500006662782F41393633353835312D344632462D344230382D423046372D3739314545314133324237412F636F72652E786D6C504B01021400140006080800CC70623BAD7543B64E010000330300003000000000000000000000000000D2060000
310
6662782F41393633353835312D344632462D344230382D423046372D3739314545314133324237412F636E782E786D6C504B01021400140006080800CC70623BE75B7789680500003C10000034000000000000000000000000006E0800006662782F41393633353835312D344632462D344230382D423046372D3739314545
310
314133324237412F6F626A656374732E786D6C504B01021400140006080000CC70623B0000000000000000000000003500000000000000000000000000280E00006662782F41393633353835312D344632462D344230382D423046372D3739314545314133324237412F76657274696365732E62696E504B01021400140006
310
080800CC70623BF270F133060000000400000036000000000000000000000000007B0E00006662782F41393633353835312D344632462D344230382D423046372D3739314545314133324237412F747269616E676C65732E62696E504B01021400140006080000CC70623B0000000000000000000000003700000000000000
310
000000000000D50E00006662782F41393633353835312D344632462D344230382D423046372D3739314545314133324237412F617474726962757465732E62696E504B01021400140006080800CC70623B08DA0BD1900000004101000036000000000000000000000000002A0F00006662782F41393633353835312D344632
310
462D344230382D423046372D3739314545314133324237412F6469726563746F72792E786D6C504B01021400140006080800CC70623BEDD1DC58FD000000A00100003B000000000000000000000000000E1000006662782F41393633353835312D344632462D344230382D423046372D3739314545314133324237412F7265
310
736F75726365732F636F72652E786D6C504B0506000000000E000E0080040000641100000000
  0
XRECORD
  5
B967
102
{ACAD_REACTORS
330
1F7
102
}
330
1F7
100
AcDbXrecord
280
     1
102
MATERIAL
148
0.0
149
0.0
149
0.0
 93
        0
 94
       63
282
     0
 72
     1
 77
     1
171
     1
175
     1
179
     1
273
     0
  0
XRECORD
  5
1F8
102
{ACAD_REACTORS
330
1F7
102
}
330
1F7
100
AcDbXrecord
280
     1
 70
     1
 90
429727718
  1
30362254-06B7-45E0-A893-8CFA70E3D6BC
310
504B03040A0000080000CC70623B3DEE336E79000000790000001B0000006175746F6465736B2D64657369676E2D7061636B6167652E786D6C3C3F786D6C2076657273696F6E3D22312E302220656E636F64696E673D227574662D3822203F3E3C666F726D6174733E3C666F726D61743E687474703A2F2F736368656D612E
310
6175746F6465736B2E636F6D2F64657369676E2D7061636B6167652F323030393C2F666F726D61743E3C2F666F726D6174733E504B0304140006080800CC70623BD486FD9CA0000000F4000000130000005B436F6E74656E745F54797065735D2E786D6C7D8EC10E82300C865F65E91D8A1E8C310C0EEA1BF002731658846E
310
D98AC1B77784ABF1D8FE5FBFBF75BBCE937A534CCEB38643598122B6FEE978D0B0485F9C41B54DDD7D022595594E1A469170414C76A4D9A4D207E29CF43ECE46F218070CC6BECC4078ACAA135ACF422C856C0E68EA1BF5669944DDD7BCDE7B1F8E415D77AECB980613C2E4AC91FC167A2B244592486606FC29C8FD7F045B9A
310
EF7053A7E60B504B0304140006080800CC70623B1EC5D7A3EB0000007C01000008000000636F72652E786D6C8D90416EC3201045AF82665B6103C6756C6122AB4D4ED00B204C5C94182C03558F5F9C3852BBEB6A467FFE9B197D71FC9E6FE8CBACC17AD7032D0820E3B41FAD9B7A48F1820F808E52ACDEC75F36404ECDA687
310
4D0629A6D5A76597B477D1B89855E747B38B2A041301E95B6E7A08FAD3CCAA50296647B8168BD2573599823EBB0CA76447F43862C7BCCF5EAC59410E4DDD9C7973C2755553CCCFA4C603E3040F1565ED3B1FDE4E432BCA0D9622DAF9795FAF464533826484B498524CD807E51D79ED187F21878E10516EF63F505AC67F42C9
310
BA58B1FDDD071640D2FCC87D2045B96591CB3DA85CB7DCE40F504B0304140006080800CC70623B55019EA25F0000007C00000007000000636E782E786D6C4DCB3B0E80201045D1AD90E915ED2CF8AC45050C11660C8261F98AB1B07AC9C97D42D718D865D3E909258CFD00CCE24AC6E326A164D74DC0B4128928FF32603847
310
2BA13128B1252AC747C6BAB984FC68F0B87FE8960A5C09FE86CFB69FBA01504B0304140006080800CC70623B8C9102E971010000D40300000C0000006662782F636F72652E786D6CC5535B6E833010BC8AE5DF0A6C08340F1947A84D4ED00B38C6A128602363A31CBFCB234A53A551FA553EC09AD9F5CE8C31DB9E9B1AF5CA
310
7695D1198E428A91D2D214952E33ECDD315861B4E5CC1AE3BE9561A445A3323CC098B3D21ADFCE9034DA29ED00D5A6503328BA4E398C640D8B0C77F253352214DE4145770A5B214FA2546114020D759C75CE8200340D19DE981F0F6746269C33EFAB6266AB02A655C74A59CCF365BADC27CB5D902ED22848F6340DF238A141
310
BE88E2F57B92BFEDF23523433367AE6A2EEAA455C2A902F398D2751045018D3FA264435F3771F242571B4A1919CA6F9A7C5B3CD9E42BED16F12C776AEB308F40C848FC700B1139D4891EF410CEC810227CC6846F8386402064270EF5C5C709A05E49676C024C61FC95EA45ED154CA5211D1FF4FB8291A913A68E9B83EBBB33
310
E2A7673CDE118E5AE8124C0807CB8377834E366998436B950D7A7746DAD846D4CFD978E0F04FD455FC5D49D2D4C6FE9722321F10997F0F32DC47FE05504B0304140006080800CC70623BFFEA85907E0000009D0000000B0000006662782F636E782E786D6C4DCCD10A83201886E15B91FFDC95D95A811AB6F23E625948A6C3
310
E9D8E5AF46073BFAE0E1E365ED67B3E8ADC3CB78C7815C7240DA3DFC64DCC221C519D7805AC182F7F1EF06C88D9BE6703008B6049F9E274D7A1E938DBB5AE3D6131B2589BA0D3D965551E0B2EA732C9B9A624AAEB41E3A557677029960D9AFB4EF11165F504B0304140006080800CC70623B4FEEA4082C0100001202000031
310
0000006662782F39464131463745442D413632322D343644302D413938332D3331353338454246344243312F636F72652E786D6C8D515B6EC32010BC0AE2AB55850DD871ED0813254D72825EC00192A2C460F1A872FC42ED48ED5F7E00CDCECCCEB26C731F6FE05B39AFADE921293004CA082BB5B9F43086336A21D870E6AC
310
0D7F68109861543DCC30E4ECE26C9C164858139409093556AA051CBC570102714B8F1E7AF1A5C6A11862480C7F2DA6415C878B2A4891CA89C7990F2E050073937C42DE1DB7E4F87ED8A36D4329AA9B3D46DBAEAD504556557BD81DEBDD0761E52CE42C462D17B996298E3E6BE59E35C962CE821E1FF18553435012728A7187
310
0841987E927A8D9B35ADDF70BBC6989599FE4F1427F9A4286A132ABAC49D651EF234CD5CE04CDA78BA3DC2A8FB645D00B9DF8B57E215725C60BCA2A463E54C4CE327C7A65E1C7DB02E7DEFCBF594B864C5CA6CDBD49C957943E9FA5D5FBAF336F90F504B0304140006080800CC70623BAD7543B64E01000033030000300000
310
006662782F39464131463745442D413632322D343644302D413938332D3331353338454246344243312F636E782E786D6CD593CD6EC32010845F0571AD6CE3D48AD20813A9873E410FBD12D82434182C7EAAE6EDBB2424CD25871E7B41D6EC30B3FA84F9E67BB2E40B4234DE8DB46F1925E094D7C6ED479AD3AE5951B2113C
310
789FEE6C943839C1488B4C05DF079FE72A69D8C96C13AAD6B8631503449F83828872B949AC57D26200B826A308D316B4064D6E46FCDA41C05550DC9E483A00797BFD207EFB092A45DE9514C1BBD22178396BD39D891265658C238DEA00936C654E5E433CB65A26D9F6EDB5EBC14EBF49A45CB856E66048291F6939A9A81BB5
310
C8917738143CA680F4AA299D66A042CEB3354A2684DC9D8D178FE0D9B8B41CAAD720F880EE7EF93C0C18769E099ECC04D5A102C8049A8A05632F4DDF376CF1DE0F6BB65C2F8627B65A33C6BB62177CEBBDAD973006829F89F22E814B54F4BC2BE347F8AA8F681390B50FA73F804400B5F542E796F19FF974E7F78DB802FE05
310
E207504B0304140006080800CC70623B16AB87BA640500003C100000340000006662782F39464131463745442D413632322D343644302D413938332D3331353338454246344243312F6F626A656374732E786D6CAD575B6FA33818FD2B887DE6924B3BED8A326A92B68A663B534DD4D13E548A0C38942D60649B369D5FBFC7
310
600890A493BDE42160637FD7F31D7FF63E6FB3D478A55C242CBF3247B66B1A340F5994E4F19559CA8D75611A9F7D8F33263BCB4C232719BD32D5B4E97B316765A1A722BA21652A07B3B7B33F0D11D29C9A46981221AE4C113ED38CD8A4942CA2E2C58E882476BCD9DA23BB5ED8171B73523C0F841684D35CC252CCE79062D4
310
468DFA43D7747CCF51DF7D4FFDEB5593E3AB9CCA9FBEFE241792E4E19EB28198C968BAB8199F5D5A67D3E9C49A9E8F47D6EC76B6B0469F26EEFC7C3EBFBCBEB98462213924694B38DD98FE1D62C393D073EA4FADC5DAF04326852CCF6958F90F0F2B9BB5C48816348F90C7840A68EB78EDF68723159BCEE7891A6B95DDE9D3
310
BCEAEEE8086A6C6F9E5D4B59F0175C10A7A0820BAA5055C7473B5AE3CFDD452D602CD5DF12616444529E90D448938013FE6EFA58AA96F85E4F8C42275708571E98FE6827AF6B2B4AE3D7D83D64E5A64C53054DD3AF90BD06FEA9149565C94FCA0F6B834DC85599E4F2423B24DF0B6AFA979E534DFA9E7A4CC6FA631D486393
310
921829879BF5D781A373557BCB85E97FB90DB62B558F8795179C15944B051F40AB495CF35451D26A4727654E6D8033BD98EF82F21D91FF8AF2DD9982BCF1643BDD4EB516C9492E368C67C88DED563FC36D5EACF66DFF057C3658BDBFA69DF9578B3DA735B64F18C7F20770A9D45CFCF7FCF563D6456A277DBEF78A02637CA2
310
43B90A490AEAB94F72244481D24819A6C0E59B606BFA4B3025981DBB48EAB701D97BF19C577CC77F2D1B6C55A9EF3C732474C0B727303F625995056C3B02963D9EAC146BE78EC5FCEC7FA999EBC5EACBAAE41B12D27B4D2C0BBA49F244E2ECDC81B76B502F113D8F5EE8FB1BE3111CDD4FC2AA9B844CAB1288B68AB90A7CDC
310
1C166AB0D3DC5310625FCC14E779BFD0709F8890A629C9292B1B2DED31A4B0DA928CEE135085754027E3018A397D4D5427D15BD1330B677DC8934285AC3DF45A9EB68FF8F2B8FC0A509AFEECFD0FF2DE25CC6047F7214B195F07EFEB9A094D800F7BFAE8FED187B78EA8A3A400F115961BCAD1215E47C966530AF0EE8128FE
310
58CEBB996A8964FFA529A046635D9353B0336A8F700DDF46271A024E70B0B37C9DE01847591E54DED53D54202AB947E4076556AC49C6CA5C9E1226B7F1A7B1BE15DEED62C41B91E1B3E9AFAAA735036547343A925075041DF0A9979E893B391F8FCFA6967B3EFB644DCF6E5CEBFAE272625DCC6FAF3FB93793C5F90CE1EF57
310
407342756B10D1C489E8953CD1617E5CEECAD6F4EF8914CE5D5D504E5C3F1F9736DA62CFC11E00BCDDB8CC8A9466349744C1F75EBDA4DF09BA8A9E8C7A7E9991989E20E5DBDD6A6003664ED8F7A04A8DBE0DF6EAD9B9AA858342E47399053949D2C146EDB85DE4B176BB0965FBAC19BD19AA918E27FA50C1D22402E144464C
310
59462568E704B6E71915404CB72B8FF4EDE184DDAF753F284990D2C6926782963815403548A70C657FDEF80D2D9CEAA2AE4C1C76F60BFE74219A06527D6582DF6412526107381E55E353090704D085B52408D0933C4ED159D79BDA71BB4BC506F4831350EB6F979CD22D69BF7AC49B91A2C0A9DDA3D5CA36AD20FC478E37E6
310
1844E2352865EBCB6EA275A652E3836BE04EFB400BF1A2556F515F1FBB35B2AB35BD889C744FFA1004B5544B121E57F70215746DD2F5E2C1412B602CBF19455AC6C8E5E9922C4E01E65215385004546899059180EAFCF7A707CE7017CD8CDB0410789AB32C63B91E5CEBBBACB17AC6CD347A022D5075FD106377347AAABA7E
310
7D11590744509B44E205134DC1290F06580320F78E537D3D73540E06CB970B431F185308AD40BBD794D6D77003C5A36E8EAA54BA64597CD8F83BD552A080A365F7FF06504B0304140006080000CC70623B000000000000000000000000350000006662782F39464131463745442D413632322D343644302D413938332D3331
310
353338454246344243312F76657274696365732E62696E504B0304140006080800CC70623BF270F1330600000004000000360000006662782F39464131463745442D413632322D343644302D413938332D3331353338454246344243312F747269616E676C65732E62696E636660600000504B0304140006080000CC70623B
310
000000000000000000000000370000006662782F39464131463745442D413632322D343644302D413938332D3331353338454246344243312F617474726962757465732E62696E504B0304140006080800CC70623B08DA0BD19000000041010000360000006662782F39464131463745442D413632322D343644302D413938
310
332D3331353338454246344243312F6469726563746F72792E786D6C858F410AC3201045AF22B36F53E9A60B35CBEEBAE80D244E44489C6234F4F835464A48035D0DF398FF9F8AF63D0E6CC63039F212F8F9020C7D47C6792B21C5FE7403D62A1188E2E60C98D7234A5830286103A55745067B9D86B8A3CF9C7F90C11DE607
310
FB144396D7B6A82D282E9A152AD114D5EF2CB866EEE831B8EEA07A7BB5A8D7D61A2BAAEB7FD5F70921FF497D00504B0304140006080800CC70623B0D6EF93BFE000000A00100003B0000006662782F39464131463745442D413632322D343644302D413938332D3331353338454246344243312F7265736F75726365732F63
310
6F72652E786D6C8D50596E833010BD0A9ADFCA60B334011947A8694ED00B586642AC041B79A97AFC9A40A5F6AF3F33A3B7689E1E3F7DCD8FEC139DD7D6F4C0720A191A65476DA61E62B892236427C19DB5E1970C322367EC618541F0C9D9B8EC90B226A009093576C41D94DE63804C3DD2D18357379C652E63480A7FCF17A9
310
EE72C29CE5894E3AC17D702940B63D59270887DE46A7D0F36263058F518FBB468FE9A7BE6A7420864373B8D4873369AA8691FA421B3294352543C5CAF65C0F6FEF43CB8BD52C78D0F34F46E550061C419494B6843142CB0F5677F4B52BEB177AEC28E5C52AFF638ACBF84F53D42654E51E77B379102C05791282176B5F693D
310
CB4C7BED567C03504B010214000A0000080000CC70623B3DEE336E79000000790000001B00000000000000000000000000000000006175746F6465736B2D64657369676E2D7061636B6167652E786D6C504B01021400140006080800CC70623BD486FD9CA0000000F40000001300000000000000000000000000B20000005B
310
436F6E74656E745F54797065735D2E786D6C504B01021400140006080800CC70623B1EC5D7A3EB0000007C010000080000000000000000000000000083010000636F72652E786D6C504B01021400140006080800CC70623B55019EA25F0000007C000000070000000000000000000000000094020000636E782E786D6C504B
310
01021400140006080800CC70623B8C9102E971010000D40300000C00000000000000000000000000180300006662782F636F72652E786D6C504B01021400140006080800CC70623BFFEA85907E0000009D0000000B00000000000000000000000000B30400006662782F636E782E786D6C504B01021400140006080800CC70
310
623B4FEEA4082C0100001202000031000000000000000000000000005A0500006662782F39464131463745442D413632322D343644302D413938332D3331353338454246344243312F636F72652E786D6C504B01021400140006080800CC70623BAD7543B64E010000330300003000000000000000000000000000D5060000
310
6662782F39464131463745442D413632322D343644302D413938332D3331353338454246344243312F636E782E786D6C504B01021400140006080800CC70623B16AB87BA640500003C1000003400000000000000000000000000710800006662782F39464131463745442D413632322D343644302D413938332D3331353338
310
454246344243312F6F626A656374732E786D6C504B01021400140006080000CC70623B0000000000000000000000003500000000000000000000000000270E00006662782F39464131463745442D413632322D343644302D413938332D3331353338454246344243312F76657274696365732E62696E504B01021400140006
310
080800CC70623BF270F133060000000400000036000000000000000000000000007A0E00006662782F39464131463745442D413632322D343644302D413938332D3331353338454246344243312F747269616E676C65732E62696E504B01021400140006080000CC70623B0000000000000000000000003700000000000000
310
000000000000D40E00006662782F39464131463745442D413632322D343644302D413938332D3331353338454246344243312F617474726962757465732E62696E504B01021400140006080800CC70623B08DA0BD190000000410100003600000000000000000000000000290F00006662782F39464131463745442D413632
310
322D343644302D413938332D3331353338454246344243312F6469726563746F72792E786D6C504B01021400140006080800CC70623B0D6EF93BFE000000A00100003B000000000000000000000000000D1000006662782F39464131463745442D413632322D343644302D413938332D3331353338454246344243312F7265
310
736F75726365732F636F72652E786D6C504B0506000000000E000E0080040000641100000000
  0
XRECORD
  5
B969
102
{ACAD_REACTORS
330
173
102
}
330
173
100
AcDbXrecord
280
     1
102
MATERIAL
148
0.0
149
0.0
149
0.0
 93
        0
 94
       63
282
     0
 72
     1
 77
     1
171
     1
175
     1
179
     1
273
     0
  0
XRECORD
  5
175
102
{ACAD_REACTORS
330
173
102
}
330
173
100
AcDbXrecord
280
     1
270
     1
271
     1
  0
XRECORD
  5
174
102
{ACAD_REACTORS
330
173
102
}
330
173
100
AcDbXrecord
280
     1
270
     1
271
     1
  0
XRECORD
  5
1FB
102
{ACAD_REACTORS
330
173
102
}
330
173
100
AcDbXrecord
280
     1
 70
     0
 90
1673772943
  1
ECE7A1D2-D628-4531-984C-D00F80459256
310
504B03040A0000080000CC70623B3DEE336E79000000790000001B0000006175746F6465736B2D64657369676E2D7061636B6167652E786D6C3C3F786D6C2076657273696F6E3D22312E302220656E636F64696E673D227574662D3822203F3E3C666F726D6174733E3C666F726D61743E687474703A2F2F736368656D612E
310
6175746F6465736B2E636F6D2F64657369676E2D7061636B6167652F323030393C2F666F726D61743E3C2F666F726D6174733E504B0304140006080800CC70623BD486FD9CA0000000F4000000130000005B436F6E74656E745F54797065735D2E786D6C7D8EC10E82300C865F65E91D8A1E8C310C0EEA1BF002731658846E
310
D98AC1B77784ABF1D8FE5FBFBF75BBCE937A534CCEB38643598122B6FEE978D0B0485F9C41B54DDD7D022595594E1A469170414C76A4D9A4D207E29CF43ECE46F218070CC6BECC4078ACAA135ACF422C856C0E68EA1BF5669944DDD7BCDE7B1F8E415D77AECB980613C2E4AC91FC167A2B244592486606FC29C8FD7F045B9A
310
EF7053A7E60B504B0304140006080800CC70623BD9DDAED0EC0000007C01000008000000636F72652E786D6C8D90416EC3201045AF82665B61836D9CD8C2444DD39CA01740405C94182C03558F5F9C3852BBEB6A467FFE9B197D7EF89E6EE8CB2CC17A37002D0820E394D7D68D03A478C17B4007C117EFE32F1B20272733C0
310
2A83E0E3E2D3BC49CABB685CCCAAF3DA6CA20CC14440EA969B0182FA34932C648AD911AEC52CD5558EA6A0CF2EC329598D1E47ACCEFBECC59A050463A7EA5833865FEBDD0E37353BE3EE8DBDE3F6786A48D375FBF6CC78B9C282473B3DEFABC5C86834888A900E538A49F5419B9EB47DD5BC907D4F082F57FB1F28CDFA9F50
310
B22ED6D5F6EE030B20687EE43E10BC5CB3C8E51E54AE6B6EE207504B0304140006080800CC70623B55019EA25F0000007C00000007000000636E782E786D6C4DCB3B0E80201045D1AD90E915ED2CF8AC45050C11660C8261F98AB1B07AC9C97D42D718D865D3E909258CFD00CCE24AC6E326A164D74DC0B4128928FF326038
310
472BA13128B1252AC747C6BAB984FC68F0B87FE8960A5C09FE86CFB69FBA01504B0304140006080800CC70623BA24EB22D72010000D40300000C0000006662782F636F72652E786D6CC5535B6E833010BC8AE5DF0A6C5E49888CA3A6694ED00B38E05014B091B1518EDFE511A5A9D228FD2A1F60CDEC7A67C6986DCE4D8D7A
310
69BA4AAB0C073EC548AA5C17952A33ECECD15B61B4E1CC686DBF9561A44423333CC098B3D268D7CE50AE9595CA02AA74216750749DB418E5352C32DCE59FB211BE70162ABA93DF8AFC244AE9073ED050C759670D0840D390E18DF9F1706664C23973AE2A66B62A605A75ACA4C13C4976E1364A12EF355A2EBD384AF65EFA96
310
BC7B8BED2EA6719AAE16FB8491A199335B351775B991C2CA02F390D2D40B028F861F41BCA68B7518BFD0D59A524686F29B26D7164F36B94AD9289CE54E6D1DE6010819891F6E21228B3AD1831EC219194284CF98F06DD01008846CC5A1BEF83801D4CBDC6A1303536877A57A513B0953A94FC707FDBE6064EA84A9E3E6E0FA
310
EE8CF0E9198F7784A316AA0413C2C2F2E0ECA0934D1AE6D05A69BCDE9E91D2A611F573361E38FC1375157F5752AE6B6DFE4B11990F88CCBF0719EE23FF02504B0304140006080800CC70623B408A7D3B7C0000009D0000000B0000006662782F636E782E786D6C4DCCD10A83201886E15B91FFDC552A92A0064DBC8F581632
310
D3703A76F9ABD1C18E3E78F878E5F0D9027ABBFCF2292AE86E2D20171F69F6715550CB827B40839639A5F2770314A7CD293819B45C73AAFB45B35BA61ACAA1C1C7E7855C58C15BC331339661262CC762340413D68D77DA5B42298546CBE6573AF60CEB2F504B0304140006080800CC70623B449FB9BD290100001202000031
310
0000006662782F36394639363044362D344446342D343946362D394244322D3234314243333846323333332F636F72652E786D6C8D515B6EC32010BC0AE22B55850D98B871848994463E412FE002495162B07854397EA176A4F62F3F2C9A9D991D587EB84F37F0AD7D30CEF6905418026DA553C65E7A98E219ED203808EE9D
310
8B7F6810D871D23D2C3014FCE25D9A57483A1BB58D19B54EE9151C43D0110279CB971E06F9A5A7B11A53CC8C70ADE6515EC78BAE4895DB992778883E0700CB907242D17643D7E2538BD869608875438BBAE38922CAC8F1BDD90DB4691A5E2F42C153326A951B95E398B3D1FE599322163C9AE9115F7A3D46ADA0A018778810
310
84E907617BDCEE297BC5BB3DC6BC2EF47FA234AB2745C9D8D8D035EE220B50105E2F0DC1954B9FB747187D9F9D8FA0CCDB042D5FA0C015C65B42DF78BD10F3F3B363CB56C7109DCFDFBBB97E662ED92EB62D13BC2E1BCAE5777DB9966D8A1F504B0304140006080800CC70623BAD7543B64E01000033030000300000006662
310
782F36394639363044362D344446342D343946362D394244322D3234314243333846323333332F636E782E786D6CD593CD6EC32010845F0571AD6CE3D48AD20813A9873E410FBD12D82434182C7EAAE6EDBB2424CD25871E7B41D6EC30B3FA84F9E67BB2E40B4234DE8DB46F1925E094D7C6ED479AD3AE5951B2113C789FEE
310
6C943839C1488B4C05DF079FE72A69D8C96C13AAD6B8631503449F83828872B949AC57D26200B826A308D316B4064D6E46FCDA41C05550DC9E483A00797BFD207EFB092A45DE9514C1BBD22178396BD39D891265658C238DEA00936C654E5E433CB65A26D9F6EDB5EBC14EBF49A45CB856E66048291F6939A9A81BB5C89177
310
38143CA680F4AA299D66A042CEB3354A2684DC9D8D178FE0D9B8B41CAAD720F880EE7EF93C0C18769E099ECC04D5A102C8049A8A05632F4DDF376CF1DE0F6BB65C2F8627B65A33C6BB62177CEBBDAD973006829F89F22E814B54F4BC2BE347F8AA8F681390B50FA73F804400B5F542E796F19FF974E7F78DB802FE05E20750
310
4B0304140006080800CC70623B8D05915C650500003B100000340000006662782F36394639363044362D344446342D343946362D394244322D3234314243333846323333332F6F626A656374732E786D6CAD575B6FA33814FE2B887D06429276DA1565D4266D158D3A339A6846FB502932E050B66023DB74D2FDF5FB190C01
310
9276B2973C046C8ECFF53B17071F77456EBD502133CEAE6CDF9DD81665314F32965ED995DA3A17B6F5310C04E7AA47665B8C14F4CAD6DB7618A48257A5D94AE89654B91AEDDEDDFC61C998326A5B714EA4BCB265FC440BE2924AF184CA6737218AB8E976E7FA6E4338649B0A523E8D98964450A6A029F619B8588D52FE7039
310
B1BD30F0F4F730D0FF866AF6369557DB33949F31A9088B0F848DD8CCFCF9F2767A76E99CCDE733677E3EF59D9BBB9BA5E37F984D16E78BC5E5F5ED25044B25C0C96822E8D60EEFE11B91C581D77CEA34368A1F5329E68CD1B8B61F16D63A1B8E092D294B10C78C4A48EB593D192E7DED9BDEE7995E1B91FDEDD3ACEA9FE831
310
6A756F9F7D4D79F4274C90A7A04248AA51D5F8C718DAE06FB2F75AC4796EBE65D22A88A22223B995679120E2D50E41AA49C260C046A35368846B0BECD0DFF3EBEB8AD4F835768F69B9ADF25C43D30E6B646F807FAA64AD59F61715C7A54127C4AACA98BA3006A9D792DAE165E0D59B61A01FB3A9F9D838D2DAE62445C86166
310
F37564E842E7DE6A69879FEEA2DD5AE7E371E1A5E025154AC307D06A03D73EB5978C58FFA4C8E9033066E0F3BD53BEC1F39F91BE7B55103791EDE6BBB991A2046172CB4581D8B893FA674DDA17A77B3B7C413D1B511FD2743BFF8A38F03A658705E3ADF8015C3A3417FF3D7E439FF591DA0B5F18BC20C1B8981957AE6392A3
310
F43C640C01D1A0B4728E2DD4F26DB4B3C3152A252A3B4E913CEC1C72F012782FF88EFF8637AA552DBEF76408E8A8DE9E50F9E1CB3A2DA0DB1B6039A893B56063DC5B3E3FFB5F72E67AB9FEB4AEC496C4F4C1149625DD662C53E89D7BF0F6151A046260D1337DFDC94502430F83B0EE07A130A224BCAD7DAE1D9FB6CD422FF6
310
920702629C4BB9AE79C12F243C6432A6794E18E5552BA56B431AAB5D91317302B2B071E86C3A42B1A02F999E24061403B5D0EB639195DA655DD3EBEAB4FB862DDF579F014AD0E73C22F99E28DA57FB98E75C6CA2D74D53086D600F4786E0FE3144B771A8A7B900F03594DB8A633CBC49B2EDB69228BB479CF863B5E807AAAB
310
23872F6DFEB4129B949CA33823F58830E86D65621E10047D9DB34D862E8EAC3C2ABC2F7B2C40D67CDFE01F5545B92105AF983AC54D93D69E56FB8E797F88913F898A9FEC705D3F9D1B54EC8426FB500D40A03BD0119B06E1B95DDC7EB8F6975367793EBD70E66733DFB9BC982F9CE564727731999F5D4ECFCE3B8D6A4DC2A0
310
6D50FD148437D110834A64C6CDDF57FBACB5C307A2A477DFE4939736CFEF2B175371E0E10CF0DD1D5C15654E0BCA14D1E87DD02FF93782A162C0A3D95F1524A52770F972BF1EE9809D13CE7DD599467F8ECE9ADD85CE85A34CD45355448C64F9E8A031DC2D596ACC6E5DD93D9B82DE2EF5CAF81363A8E47996A0DE24564A79
310
4115AACE09C55E14540231FDA13C319787134EBF34E3A022514E5B4D9E0826E25C02D5805B15ABE1BEF51B26383D445DD9E875EE33FE4C22DA16427D65A3BCA92CA6D28DD01DF5DC53330704308475351050232CCD31583787BA75774AFB06E5070DD0C8EF484E19968C5D83BA5B90B244D31E54D55A372320FE4786B7EA58
310
44E135AA5467CB7EA333A61683CC6A8C3257034C10CF46F40EF9F5BE59BE5BD30C3C72D235E95D10345C1D45445A5F0BB47E46A5EBE5570F9380B5FA629579952296A773720405982B9DE04011506178964401AA8BDF1FBF0A8EAB6861DD6580C0E38217056766716DAEB2D6FA0917D3E4116581EADB879C4E7CFFB11EFACD
310
3D641311495D92C8676CB409A72D18610D803CE8A626049E8EC1887CB5B44CC39883690DDA8399B4B9855B481E7D71D4A9D22F96E5BB73BF5793020C02137BF837504B0304140006080000CC70623B000000000000000000000000350000006662782F36394639363044362D344446342D343946362D394244322D32343142
310
43333846323333332F76657274696365732E62696E504B0304140006080800CC70623BF270F1330600000004000000360000006662782F36394639363044362D344446342D343946362D394244322D3234314243333846323333332F747269616E676C65732E62696E636660600000504B0304140006080000CC70623B0000
310
00000000000000000000370000006662782F36394639363044362D344446342D343946362D394244322D3234314243333846323333332F617474726962757465732E62696E504B0304140006080800CC70623B08DA0BD19000000041010000360000006662782F36394639363044362D344446342D343946362D394244322D
310
3234314243333846323333332F6469726563746F72792E786D6C858F410AC3201045AF22B36F53E9A60B35CBEEBAE80D244E44489C6234F4F835464A48035D0DF398FF9F8AF63D0E6CC63039F212F8F9020C7D47C6792B21C5FE7403D62A1188E2E60C98D7234A5830286103A55745067B9D86B8A3CF9C7F90C11DE607FB14
310
4396D7B6A82D282E9A152AD114D5EF2CB866EEE831B8EEA07A7BB5A8D7D61A2BAAEB7FD5F70921FF497D00504B0304140006080800CC70623BCA768048FE000000A00100003B0000006662782F36394639363044362D344446342D343946362D394244322D3234314243333846323333332F7265736F75726365732F636F72
310
652E786D6C8D50596E833010BD0A9ADFCA60D600328E9AA639412F609909B1126CE4A5EAF16B0295DABFFECC8CDEA2797AECF8353F924FB44E193D409E5248504B332A3D0D10FC95B4901C39B3C6F85F3248B49871801506CE266BC2B243D2688FDA47549B11775038871E12F988C7004EDE7016A9083E2ADC3D5D84BC8B09
310
D33C8D74D471E6BC8D0192EDC93A815B742658898E651BCB59086ADC356A8C3FD555A1055ED7E7E254D615792D0F075295F585746FF53B694EE78A565DD736979A65AB9933AFE69F8CD2A2F038022F28ED489E135A7CE4554F9BBEA85E68DB53CAB255FEC71496F19FA6A0B42F8B3DEE6673C0F318E4497096AD7DC5F52C33
310
EEB55BFE0D504B010214000A0000080000CC70623B3DEE336E79000000790000001B00000000000000000000000000000000006175746F6465736B2D64657369676E2D7061636B6167652E786D6C504B01021400140006080800CC70623BD486FD9CA0000000F40000001300000000000000000000000000B20000005B436F
310
6E74656E745F54797065735D2E786D6C504B01021400140006080800CC70623BD9DDAED0EC0000007C010000080000000000000000000000000083010000636F72652E786D6C504B01021400140006080800CC70623B55019EA25F0000007C000000070000000000000000000000000095020000636E782E786D6C504B0102
310
1400140006080800CC70623BA24EB22D72010000D40300000C00000000000000000000000000190300006662782F636F72652E786D6C504B01021400140006080800CC70623B408A7D3B7C0000009D0000000B00000000000000000000000000B50400006662782F636E782E786D6C504B01021400140006080800CC70623B
310
449FB9BD290100001202000031000000000000000000000000005A0500006662782F36394639363044362D344446342D343946362D394244322D3234314243333846323333332F636F72652E786D6C504B01021400140006080800CC70623BAD7543B64E010000330300003000000000000000000000000000D20600006662
310
782F36394639363044362D344446342D343946362D394244322D3234314243333846323333332F636E782E786D6C504B01021400140006080800CC70623B8D05915C650500003B10000034000000000000000000000000006E0800006662782F36394639363044362D344446342D343946362D394244322D32343142433338
310
46323333332F6F626A656374732E786D6C504B01021400140006080000CC70623B0000000000000000000000003500000000000000000000000000250E00006662782F36394639363044362D344446342D343946362D394244322D3234314243333846323333332F76657274696365732E62696E504B010214001400060808
310
00CC70623BF270F13306000000040000003600000000000000000000000000780E00006662782F36394639363044362D344446342D343946362D394244322D3234314243333846323333332F747269616E676C65732E62696E504B01021400140006080000CC70623B00000000000000000000000037000000000000000000
310
00000000D20E00006662782F36394639363044362D344446342D343946362D394244322D3234314243333846323333332F617474726962757465732E62696E504B01021400140006080800CC70623B08DA0BD190000000410100003600000000000000000000000000270F00006662782F36394639363044362D344446342D
310
343946362D394244322D3234314243333846323333332F6469726563746F72792E786D6C504B01021400140006080800CC70623BCA768048FE000000A00100003B000000000000000000000000000B1000006662782F36394639363044362D344446342D343946362D394244322D3234314243333846323333332F7265736F
310
75726365732F636F72652E786D6C504B0506000000000E000E0080040000621100000000
  0
XRECORD
  5
176
102
{ACAD_REACTORS
330
173
102
}
330
173
100
AcDbXrecord
280
     1
270
     1
271
     1
  0
XRECORD
  5
177
102
{ACAD_REACTORS
330
173
102
}
330
173
100
AcDbXrecord
280
     1
270
     1
271
     1
  0
XRECORD
  5
B98B
102
{ACAD_REACTORS
330
B98A
102
}
330
B98A
100
AcDbXrecord
280
     1
102
ACAD_ROUNDTRIP_2012_MLEADER_STYLE
298
     1
  0
XRECORD
  5
B99D
102
{ACAD_REACTORS
330
B99C
102
}
330
B99C
100
AcDbXrecord
280
     1
102
DISPLAYNAME
  1
Metric50
102
FLAGS
 90
        0
  0
CELLSTYLEMAP
  5
B95D
102
{ACAD_REACTORS
330
162
102
}
330
162
100
AcDbCellStyleMap
 90
        3
300
CELLSTYLE
  1
TABLEFORMAT_BEGIN
 90
        5
170
     1
 91
        0
 92
    32768
 62
   257
 93
        1
300
CONTENTFORMAT
  1
CONTENTFORMAT_BEGIN
 90
        0
 91
        0
 92
      512
 93
        0
300

 40
0.0
140
1.0
 94
        5
 62
     0
340
11
144
6.0
309
CONTENTFORMAT_END
171
     1
301
MARGIN
  1
CELLMARGIN_BEGIN
 40
1.5
 40
1.5
 40
1.5
 40
1.5
 40
4.5
 40
4.5
309
CELLMARGIN_END
 94
        6
 95
        1
302
GRIDFORMAT
  1
GRIDFORMAT_BEGIN
 90
        0
 91
        1
 62
     0
 92
       -2
340
14
 93
        0
 40
1.125
309
GRIDFORMAT_END
 95
        2
302
GRIDFORMAT
  1
GRIDFORMAT_BEGIN
 90
        0
 91
        1
 62
     0
 92
       -2
340
14
 93
        0
 40
1.125
309
GRIDFORMAT_END
 95
        4
302
GRIDFORMAT
  1
GRIDFORMAT_BEGIN
 90
        0
 91
        1
 62
     0
 92
       -2
340
14
 93
        0
 40
1.125
309
GRIDFORMAT_END
 95
        8
302
GRIDFORMAT
  1
GRIDFORMAT_BEGIN
 90
        0
 91
        1
 62
     0
 92
       -2
340
14
 93
        0
 40
1.125
309
GRIDFORMAT_END
 95
       16
302
GRIDFORMAT
  1
GRIDFORMAT_BEGIN
 90
        0
 91
        1
 62
     0
 92
       -2
340
14
 93
        0
 40
1.125
309
GRIDFORMAT_END
 95
       32
302
GRIDFORMAT
  1
GRIDFORMAT_BEGIN
 90
        0
 91
        1
 62
     0
 92
       -2
340
14
 93
        0
 40
1.125
309
GRIDFORMAT_END
309
TABLEFORMAT_END
  1
CELLSTYLE_BEGIN
 90
        1
 91
        1
300
_TITLE
309
CELLSTYLE_END
300
CELLSTYLE
  1
TABLEFORMAT_BEGIN
 90
        5
170
     1
 91
        0
 92
        0
 62
   257
 93
        1
300
CONTENTFORMAT
  1
CONTENTFORMAT_BEGIN
 90
        0
 91
        0
 92
      512
 93
        0
300

 40
0.0
140
1.0
 94
        5
 62
     0
340
11
144
4.5
309
CONTENTFORMAT_END
171
     1
301
MARGIN
  1
CELLMARGIN_BEGIN
 40
1.5
 40
1.5
 40
1.5
 40
1.5
 40
4.5
 40
4.5
309
CELLMARGIN_END
 94
        6
 95
        1
302
GRIDFORMAT
  1
GRIDFORMAT_BEGIN
 90
        0
 91
        1
 62
     0
 92
       -2
340
14
 93
        0
 40
1.125
309
GRIDFORMAT_END
 95
        2
302
GRIDFORMAT
  1
GRIDFORMAT_BEGIN
 90
        0
 91
        1
 62
     0
 92
       -2
340
14
 93
        0
 40
1.125
309
GRIDFORMAT_END
 95
        4
302
GRIDFORMAT
  1
GRIDFORMAT_BEGIN
 90
        0
 91
        1
 62
     0
 92
       -2
340
14
 93
        0
 40
1.125
309
GRIDFORMAT_END
 95
        8
302
GRIDFORMAT
  1
GRIDFORMAT_BEGIN
 90
        0
 91
        1
 62
     0
 92
       -2
340
14
 93
        0
 40
1.125
309
GRIDFORMAT_END
 95
       16
302
GRIDFORMAT
  1
GRIDFORMAT_BEGIN
 90
        0
 91
        1
 62
     0
 92
       -2
340
14
 93
        0
 40
1.125
309
GRIDFORMAT_END
 95
       32
302
GRIDFORMAT
  1
GRIDFORMAT_BEGIN
 90
        0
 91
        1
 62
     0
 92
       -2
340
14
 93
        0
 40
1.125
309
GRIDFORMAT_END
309
TABLEFORMAT_END
  1
CELLSTYLE_BEGIN
 90
        2
 91
        1
300
_HEADER
309
CELLSTYLE_END
300
CELLSTYLE
  1
TABLEFORMAT_BEGIN
 90
        5
170
     1
 91
        0
 92
        0
 62
   257
 93
        1
300
CONTENTFORMAT
  1
CONTENTFORMAT_BEGIN
 90
        0
 91
        0
 92
      512
 93
        0
300

 40
0.0
140
1.0
 94
        2
 62
     0
340
11
144
4.5
309
CONTENTFORMAT_END
171
     1
301
MARGIN
  1
CELLMARGIN_BEGIN
 40
1.5
 40
1.5
 40
1.5
 40
1.5
 40
4.5
 40
4.5
309
CELLMARGIN_END
 94
        6
 95
        1
302
GRIDFORMAT
  1
GRIDFORMAT_BEGIN
 90
        0
 91
        1
 62
     0
 92
       -2
340
14
 93
        0
 40
1.125
309
GRIDFORMAT_END
 95
        2
302
GRIDFORMAT
  1
GRIDFORMAT_BEGIN
 90
        0
 91
        1
 62
     0
 92
       -2
340
14
 93
        0
 40
1.125
309
GRIDFORMAT_END
 95
        4
302
GRIDFORMAT
  1
GRIDFORMAT_BEGIN
 90
        0
 91
        1
 62
     0
 92
       -2
340
14
 93
        0
 40
1.125
309
GRIDFORMAT_END
 95
        8
302
GRIDFORMAT
  1
GRIDFORMAT_BEGIN
 90
        0
 91
        1
 62
     0
 92
       -2
340
14
 93
        0
 40
1.125
309
GRIDFORMAT_END
 95
       16
302
GRIDFORMAT
  1
GRIDFORMAT_BEGIN
 90
        0
 91
        1
 62
     0
 92
       -2
340
14
 93
        0
 40
1.125
309
GRIDFORMAT_END
 95
       32
302
GRIDFORMAT
  1
GRIDFORMAT_BEGIN
 90
        0
 91
        1
 62
     0
 92
       -2
340
14
 93
        0
 40
1.125
309
GRIDFORMAT_END
309
TABLEFORMAT_END
  1
CELLSTYLE_BEGIN
 90
        3
 91
        2
300
_DATA
309
CELLSTYLE_END
  0
XRECORD
  5
B962
102
{ACAD_REACTORS
330
162
102
}
330
162
100
AcDbXrecord
280
     1
102
ACAD_ROUNDTRIP_PRE2007_TABLESTYLE
 90
      512
 91
        0
  1

 92
      512
 93
        0
  2

 94
      512
 95
        0
  3

  0
XRECORD
  5
B975
102
{ACAD_REACTORS
330
B974
102
}
330
B974
100
AcDbXrecord
280
     1
102
RTVSPost2010Prop28
280
     1
102
RTVSPost2010PropOp28
 70
     1
102
RTVSPost2010Prop29
280
     1
102
RTVSPost2010PropOp29
 70
     1
102
RTVSPost2010Prop30
280
     0
102
RTVSPost2010PropOp30
 70
     1
102
RTVSPost2010Prop31
280
     0
102
RTVSPost2010PropOp31
 70
     1
102
RTVSPost2010Prop32
280
     0
102
RTVSPost2010PropOp32
 70
     1
102
RTVSPost2010Prop33
280
     0
102
RTVSPost2010PropOp33
 70
     1
102
RTVSPost2010Prop34
280
     0
102
RTVSPost2010PropOp34
 70
     1
102
RTVSPost2010Prop35
280
     0
102
RTVSPost2010PropOp35
 70
     1
102
RTVSPost2010Prop36
280
     0
102
RTVSPost2010PropOp36
 70
     1
102
RTVSPost2010Prop37
 90
       50
102
RTVSPost2010PropOp37
 70
     1
102
RTVSPost2010Prop38
140
0.0
102
RTVSPost2010PropOp38
 70
     1
102
RTVSPost2010Prop39
140
1.0
102
RTVSPost2010PropOp39
 70
     1
102
RTVSPost2010Prop40
 90
        0
102
RTVSPost2010PropOp40
 70
     1
102
RTVSPost2010Prop41ColorIndex
 90
       18
102
RTVSPost2010Prop41ColorRGB
 90
        0
102
RTVSPost2010PropOp41
 70
     1
102
RTVSPost2010Prop42
 90
       50
102
RTVSPost2010PropOp42
 70
     1
102
RTVSPost2010Prop43
 90
        3
102
RTVSPost2010PropOp43
 70
     1
102
RTVSPost2010Prop44ColorIndex
 90
        5
102
RTVSPost2010Prop44ColorRGB
 90
      255
102
RTVSPost2010PropOp44
 70
     1
102
RTVSPost2010Prop45
280
     0
102
RTVSPost2010PropOp45
 70
     1
102
RTVSPost2010Prop46
 90
       50
102
RTVSPost2010PropOp46
 70
     1
102
RTVSPost2010Prop47
 90
       50
102
RTVSPost2010PropOp47
 70
     1
102
RTVSPost2010Prop48
 90
       50
102
RTVSPost2010PropOp48
 70
     1
102
RTVSPost2010Prop49
280
     0
102
RTVSPost2010PropOp49
 70
     1
102
RTVSPost2010Prop50
 90
       50
102
RTVSPost2010PropOp50
 70
     1
102
RTVSPost2010Prop51ColorIndex
 90
      256
102
RTVSPost2010Prop51ColorRGB
 90
-16777216
102
RTVSPost2010PropOp51
 70
     0
102
RTVSPost2010Prop52
140
1.0
102
RTVSPost2010PropOp52
 70
     0
102
RTVSPost2010Prop53
 90
        2
102
RTVSPost2010PropOp53
 70
     1
102
RTVSPost2010Prop54
  1
strokes_ogs.tif
102
RTVSPost2010PropOp54
 70
     1
102
RTVSPost2010Prop55
280
     0
102
RTVSPost2010PropOp55
 70
     1
102
RTVSPost2010Prop56
140
1.0
102
RTVSPost2010PropOp56
 70
     1
102
RTVSPost2010Prop57
140
1.0
102
RTVSPost2010PropOp57
 70
     1
102
RTVSPropertyOp0
 70
     1
102
RTVSPropertyOp1
 70
     1
102
RTVSPropertyOp2
 70
     1
102
RTVSPropertyOp3
 70
     1
102
RTVSPropertyOp4
 70
     1
102
RTVSPropertyOp5
 70
     1
102
RTVSPropertyOp6
 70
     1
102
RTVSPropertyOp7
 70
     1
102
RTVSPropertyOp8
 70
     1
102
RTVSPropertyOp9
 70
     1
102
RTVSPropertyOp10
 70
     1
102
RTVSPropertyOp11
 70
     1
102
RTVSPropertyOp12
 70
     1
102
RTVSPropertyOp13
 70
     1
102
RTVSPropertyOp14
 70
     1
102
RTVSPropertyOp15
 70
     1
102
RTVSPropertyOp16
 70
     1
102
RTVSPropertyOp17
 70
     1
102
RTVSPropertyOp18
 70
     1
102
RTVSPropertyOp19
 70
     1
102
RTVSPropertyOp20
 70
     1
102
RTVSPropertyOp21
 70
     1
102
RTVSPropertyOp22
 70
     1
102
RTVSPropertyOp23
 70
     1
102
RTVSPropertyOp24
 70
     1
102
RTVSPropertyOp25
 70
     1
102
RTVSPropertyOp26
 70
     1
102
RTVSPropertyOp27
 70
     1
102
RTVSPropertyOp28
 70
     1
102
RTVSPropertyOp29
 70
     1
102
RTVSPropertyOp30
 70
     1
102
RTVSPropertyOp31
 70
     1
102
RTVSPropertyOp32
 70
     1
102
RTVSPropertyOp33
 70
     1
102
RTVSPropertyOp34
 70
     1
102
RTVSPropertyOp35
 70
     1
102
RTVSPropertyOp36
 70
     1
102
RTVSPropertyOp37
 70
     1
102
RTVSPropertyOp38
 70
     1
102
RTVSPropertyOp39
 70
     1
102
RTVSPropertyOp40
 70
     1
102
RTVSPropertyOp41
 70
     1
102
RTVSPropertyOp42
 70
     1
102
RTVSPropertyOp43
 70
     1
102
RTVSPropertyOp44
 70
     1
102
RTVSPropertyOp45
 70
     1
102
RTVSPropertyOp46
 70
     1
102
RTVSPropertyOp47
 70
     1
102
RTVSPropertyOp48
 70
     1
102
RTVSPropertyOp49
 70
     1
102
RTVSPropertyOp50
 70
     1
102
RTVSPropertyOp51
 70
     0
102
RTVSPropertyOp52
 70
     0
102
RTVSPropertyOp53
 70
     1
102
RTVSPropertyOp54
 70
     1
102
RTVSPropertyOp55
 70
     1
102
RTVSPropertyOp56
 70
     1
102
RTVSPropertyOp57
 70
     1
102
RTVSPropertyOp58
 70
     1
102
RTVSPropertyOp59
 70
     1
102
RTVSPropertyOp60
 70
     1
102
RTVSPropertyOp61
 70
     1
102
RTVSPropertyOp62
 70
     1
  0
XRECORD
  5
B973
102
{ACAD_REACTORS
330
B972
102
}
330
B972
100
AcDbXrecord
280
     1
102
RTVSPost2010Prop28
280
     0
102
RTVSPost2010PropOp28
 70
     1
102
RTVSPost2010Prop29
280
     1
102
RTVSPost2010PropOp29
 70
     1
102
RTVSPost2010Prop30
280
     1
102
RTVSPost2010PropOp30
 70
     1
102
RTVSPost2010Prop31
280
     0
102
RTVSPost2010PropOp31
 70
     1
102
RTVSPost2010Prop32
280
     0
102
RTVSPost2010PropOp32
 70
     1
102
RTVSPost2010Prop33
280
     0
102
RTVSPost2010PropOp33
 70
     1
102
RTVSPost2010Prop34
280
     0
102
RTVSPost2010PropOp34
 70
     1
102
RTVSPost2010Prop35
280
     0
102
RTVSPost2010PropOp35
 70
     1
102
RTVSPost2010Prop36
280
     0
102
RTVSPost2010PropOp36
 70
     1
102
RTVSPost2010Prop37
 90
       50
102
RTVSPost2010PropOp37
 70
     1
102
RTVSPost2010Prop38
140
0.0
102
RTVSPost2010PropOp38
 70
     1
102
RTVSPost2010Prop39
140
1.0
102
RTVSPost2010PropOp39
 70
     1
102
RTVSPost2010Prop40
 90
        0
102
RTVSPost2010PropOp40
 70
     1
102
RTVSPost2010Prop41ColorIndex
 90
       18
102
RTVSPost2010Prop41ColorRGB
 90
        0
102
RTVSPost2010PropOp41
 70
     1
102
RTVSPost2010Prop42
 90
       50
102
RTVSPost2010PropOp42
 70
     1
102
RTVSPost2010Prop43
 90
        3
102
RTVSPost2010PropOp43
 70
     1
102
RTVSPost2010Prop44ColorIndex
 90
        5
102
RTVSPost2010Prop44ColorRGB
 90
      255
102
RTVSPost2010PropOp44
 70
     1
102
RTVSPost2010Prop45
280
     0
102
RTVSPost2010PropOp45
 70
     1
102
RTVSPost2010Prop46
 90
       50
102
RTVSPost2010PropOp46
 70
     1
102
RTVSPost2010Prop47
 90
       50
102
RTVSPost2010PropOp47
 70
     1
102
RTVSPost2010Prop48
 90
       50
102
RTVSPost2010PropOp48
 70
     1
102
RTVSPost2010Prop49
280
     0
102
RTVSPost2010PropOp49
 70
     1
102
RTVSPost2010Prop50
 90
       50
102
RTVSPost2010PropOp50
 70
     1
102
RTVSPost2010Prop51ColorIndex
 90
      256
102
RTVSPost2010Prop51ColorRGB
 90
-16777216
102
RTVSPost2010PropOp51
 70
     0
102
RTVSPost2010Prop52
140
1.0
102
RTVSPost2010PropOp52
 70
     0
102
RTVSPost2010Prop53
 90
        2
102
RTVSPost2010PropOp53
 70
     1
102
RTVSPost2010Prop54
  1
strokes_ogs.tif
102
RTVSPost2010PropOp54
 70
     1
102
RTVSPost2010Prop55
280
     0
102
RTVSPost2010PropOp55
 70
     1
102
RTVSPost2010Prop56
140
1.0
102
RTVSPost2010PropOp56
 70
     1
102
RTVSPost2010Prop57
140
1.0
102
RTVSPost2010PropOp57
 70
     1
102
RTVSPropertyOp0
 70
     1
102
RTVSPropertyOp1
 70
     1
102
RTVSPropertyOp2
 70
     1
102
RTVSPropertyOp3
 70
     1
102
RTVSPropertyOp4
 70
     1
102
RTVSPropertyOp5
 70
     1
102
RTVSPropertyOp6
 70
     1
102
RTVSPropertyOp7
 70
     1
102
RTVSPropertyOp8
 70
     1
102
RTVSPropertyOp9
 70
     1
102
RTVSPropertyOp10
 70
     1
102
RTVSPropertyOp11
 70
     1
102
RTVSPropertyOp12
 70
     1
102
RTVSPropertyOp13
 70
     1
102
RTVSPropertyOp14
 70
     1
102
RTVSPropertyOp15
 70
     1
102
RTVSPropertyOp16
 70
     1
102
RTVSPropertyOp17
 70
     1
102
RTVSPropertyOp18
 70
     1
102
RTVSPropertyOp19
 70
     1
102
RTVSPropertyOp20
 70
     1
102
RTVSPropertyOp21
 70
     1
102
RTVSPropertyOp22
 70
     1
102
RTVSPropertyOp23
 70
     1
102
RTVSPropertyOp24
 70
     1
102
RTVSPropertyOp25
 70
     1
102
RTVSPropertyOp26
 70
     1
102
RTVSPropertyOp27
 70
     1
102
RTVSPropertyOp28
 70
     1
102
RTVSPropertyOp29
 70
     1
102
RTVSPropertyOp30
 70
     1
102
RTVSPropertyOp31
 70
     1
102
RTVSPropertyOp32
 70
     1
102
RTVSPropertyOp33
 70
     1
102
RTVSPropertyOp34
 70
     1
102
RTVSPropertyOp35
 70
     1
102
RTVSPropertyOp36
 70
     1
102
RTVSPropertyOp37
 70
     1
102
RTVSPropertyOp38
 70
     1
102
RTVSPropertyOp39
 70
     1
102
RTVSPropertyOp40
 70
     1
102
RTVSPropertyOp41
 70
     1
102
RTVSPropertyOp42
 70
     1
102
RTVSPropertyOp43
 70
     1
102
RTVSPropertyOp44
 70
     1
102
RTVSPropertyOp45
 70
     1
102
RTVSPropertyOp46
 70
     1
102
RTVSPropertyOp47
 70
     1
102
RTVSPropertyOp48
 70
     1
102
RTVSPropertyOp49
 70
     1
102
RTVSPropertyOp50
 70
     1
102
RTVSPropertyOp51
 70
     0
102
RTVSPropertyOp52
 70
     0
102
RTVSPropertyOp53
 70
     1
102
RTVSPropertyOp54
 70
     1
102
RTVSPropertyOp55
 70
     1
102
RTVSPropertyOp56
 70
     1
102
RTVSPropertyOp57
 70
     1
102
RTVSPropertyOp58
 70
     1
102
RTVSPropertyOp59
 70
     1
102
RTVSPropertyOp60
 70
     1
102
RTVSPropertyOp61
 70
     1
102
RTVSPropertyOp62
 70
     1
  0
XRECORD
  5
B981
102
{ACAD_REACTORS
330
B980
102
}
330
B980
100
AcDbXrecord
280
     1
102
RTVSPost2010Prop28
280
     0
102
RTVSPost2010PropOp28
 70
     1
102
RTVSPost2010Prop29
280
     1
102
RTVSPost2010PropOp29
 70
     1
102
RTVSPost2010Prop30
280
     1
102
RTVSPost2010PropOp30
 70
     1
102
RTVSPost2010Prop31
280
     0
102
RTVSPost2010PropOp31
 70
     1
102
RTVSPost2010Prop32
280
     0
102
RTVSPost2010PropOp32
 70
     1
102
RTVSPost2010Prop33
280
     0
102
RTVSPost2010PropOp33
 70
     1
102
RTVSPost2010Prop34
280
     0
102
RTVSPost2010PropOp34
 70
     1
102
RTVSPost2010Prop35
280
     0
102
RTVSPost2010PropOp35
 70
     1
102
RTVSPost2010Prop36
280
     0
102
RTVSPost2010PropOp36
 70
     1
102
RTVSPost2010Prop37
 90
       50
102
RTVSPost2010PropOp37
 70
     1
102
RTVSPost2010Prop38
140
0.0
102
RTVSPost2010PropOp38
 70
     1
102
RTVSPost2010Prop39
140
1.0
102
RTVSPost2010PropOp39
 70
     1
102
RTVSPost2010Prop40
 90
        0
102
RTVSPost2010PropOp40
 70
     1
102
RTVSPost2010Prop41ColorIndex
 90
       18
102
RTVSPost2010Prop41ColorRGB
 90
        0
102
RTVSPost2010PropOp41
 70
     1
102
RTVSPost2010Prop42
 90
       50
102
RTVSPost2010PropOp42
 70
     1
102
RTVSPost2010Prop43
 90
        3
102
RTVSPost2010PropOp43
 70
     1
102
RTVSPost2010Prop44ColorIndex
 90
        5
102
RTVSPost2010Prop44ColorRGB
 90
      255
102
RTVSPost2010PropOp44
 70
     1
102
RTVSPost2010Prop45
280
     0
102
RTVSPost2010PropOp45
 70
     1
102
RTVSPost2010Prop46
 90
       50
102
RTVSPost2010PropOp46
 70
     1
102
RTVSPost2010Prop47
 90
       50
102
RTVSPost2010PropOp47
 70
     1
102
RTVSPost2010Prop48
 90
       50
102
RTVSPost2010PropOp48
 70
     1
102
RTVSPost2010Prop49
280
     0
102
RTVSPost2010PropOp49
 70
     1
102
RTVSPost2010Prop50
 90
       50
102
RTVSPost2010PropOp50
 70
     1
102
RTVSPost2010Prop51ColorIndex
 90
      256
102
RTVSPost2010Prop51ColorRGB
 90
-16777216
102
RTVSPost2010PropOp51
 70
     0
102
RTVSPost2010Prop52
140
1.0
102
RTVSPost2010PropOp52
 70
     0
102
RTVSPost2010Prop53
 90
        2
102
RTVSPost2010PropOp53
 70
     1
102
RTVSPost2010Prop54
  1
strokes_ogs.tif
102
RTVSPost2010PropOp54
 70
     1
102
RTVSPost2010Prop55
280
     0
102
RTVSPost2010PropOp55
 70
     1
102
RTVSPost2010Prop56
140
1.0
102
RTVSPost2010PropOp56
 70
     1
102
RTVSPost2010Prop57
140
1.0
102
RTVSPost2010PropOp57
 70
     1
102
RTVSPropertyOp0
 70
     1
102
RTVSPropertyOp1
 70
     1
102
RTVSPropertyOp2
 70
     1
102
RTVSPropertyOp3
 70
     1
102
RTVSPropertyOp4
 70
     1
102
RTVSPropertyOp5
 70
     1
102
RTVSPropertyOp6
 70
     1
102
RTVSPropertyOp7
 70
     1
102
RTVSPropertyOp8
 70
     1
102
RTVSPropertyOp9
 70
     1
102
RTVSPropertyOp10
 70
     1
102
RTVSPropertyOp11
 70
     1
102
RTVSPropertyOp12
 70
     1
102
RTVSPropertyOp13
 70
     1
102
RTVSPropertyOp14
 70
     1
102
RTVSPropertyOp15
 70
     1
102
RTVSPropertyOp16
 70
     1
102
RTVSPropertyOp17
 70
     1
102
RTVSPropertyOp18
 70
     1
102
RTVSPropertyOp19
 70
     1
102
RTVSPropertyOp20
 70
     1
102
RTVSPropertyOp21
 70
     1
102
RTVSPropertyOp22
 70
     1
102
RTVSPropertyOp23
 70
     1
102
RTVSPropertyOp24
 70
     1
102
RTVSPropertyOp25
 70
     1
102
RTVSPropertyOp26
 70
     1
102
RTVSPropertyOp27
 70
     1
102
RTVSPropertyOp28
 70
     1
102
RTVSPropertyOp29
 70
     1
102
RTVSPropertyOp30
 70
     1
102
RTVSPropertyOp31
 70
     1
102
RTVSPropertyOp32
 70
     1
102
RTVSPropertyOp33
 70
     1
102
RTVSPropertyOp34
 70
     1
102
RTVSPropertyOp35
 70
     1
102
RTVSPropertyOp36
 70
     1
102
RTVSPropertyOp37
 70
     1
102
RTVSPropertyOp38
 70
     1
102
RTVSPropertyOp39
 70
     1
102
RTVSPropertyOp40
 70
     1
102
RTVSPropertyOp41
 70
     1
102
RTVSPropertyOp42
 70
     1
102
RTVSPropertyOp43
 70
     1
102
RTVSPropertyOp44
 70
     1
102
RTVSPropertyOp45
 70
     1
102
RTVSPropertyOp46
 70
     1
102
RTVSPropertyOp47
 70
     1
102
RTVSPropertyOp48
 70
     1
102
RTVSPropertyOp49
 70
     1
102
RTVSPropertyOp50
 70
     1
102
RTVSPropertyOp51
 70
     0
102
RTVSPropertyOp52
 70
     0
102
RTVSPropertyOp53
 70
     1
102
RTVSPropertyOp54
 70
     1
102
RTVSPropertyOp55
 70
     1
102
RTVSPropertyOp56
 70
     1
102
RTVSPropertyOp57
 70
     1
102
RTVSPropertyOp58
 70
     1
102
RTVSPropertyOp59
 70
     1
102
RTVSPropertyOp60
 70
     1
102
RTVSPropertyOp61
 70
     1
102
RTVSPropertyOp62
 70
     1
  0
XRECORD
  5
B989
102
{ACAD_REACTORS
330
B988
102
}
330
B988
100
AcDbXrecord
280
     1
102
RTVSPost2010Prop28
280
     0
102
RTVSPost2010PropOp28
 70
     1
102
RTVSPost2010Prop29
280
     1
102
RTVSPost2010PropOp29
 70
     1
102
RTVSPost2010Prop30
280
     1
102
RTVSPost2010PropOp30
 70
     1
102
RTVSPost2010Prop31
280
     0
102
RTVSPost2010PropOp31
 70
     1
102
RTVSPost2010Prop32
280
     0
102
RTVSPost2010PropOp32
 70
     1
102
RTVSPost2010Prop33
280
     0
102
RTVSPost2010PropOp33
 70
     1
102
RTVSPost2010Prop34
280
     0
102
RTVSPost2010PropOp34
 70
     1
102
RTVSPost2010Prop35
280
     0
102
RTVSPost2010PropOp35
 70
     1
102
RTVSPost2010Prop36
280
     0
102
RTVSPost2010PropOp36
 70
     1
102
RTVSPost2010Prop37
 90
       50
102
RTVSPost2010PropOp37
 70
     1
102
RTVSPost2010Prop38
140
0.0
102
RTVSPost2010PropOp38
 70
     1
102
RTVSPost2010Prop39
140
1.0
102
RTVSPost2010PropOp39
 70
     1
102
RTVSPost2010Prop40
 90
        0
102
RTVSPost2010PropOp40
 70
     1
102
RTVSPost2010Prop41ColorIndex
 90
       18
102
RTVSPost2010Prop41ColorRGB
 90
        0
102
RTVSPost2010PropOp41
 70
     1
102
RTVSPost2010Prop42
 90
       50
102
RTVSPost2010PropOp42
 70
     1
102
RTVSPost2010Prop43
 90
        3
102
RTVSPost2010PropOp43
 70
     1
102
RTVSPost2010Prop44ColorIndex
 90
        5
102
RTVSPost2010Prop44ColorRGB
 90
      255
102
RTVSPost2010PropOp44
 70
     1
102
RTVSPost2010Prop45
280
     0
102
RTVSPost2010PropOp45
 70
     1
102
RTVSPost2010Prop46
 90
       50
102
RTVSPost2010PropOp46
 70
     1
102
RTVSPost2010Prop47
 90
       50
102
RTVSPost2010PropOp47
 70
     1
102
RTVSPost2010Prop48
 90
       50
102
RTVSPost2010PropOp48
 70
     1
102
RTVSPost2010Prop49
280
     0
102
RTVSPost2010PropOp49
 70
     1
102
RTVSPost2010Prop50
 90
       50
102
RTVSPost2010PropOp50
 70
     1
102
RTVSPost2010Prop51ColorIndex
 90
      256
102
RTVSPost2010Prop51ColorRGB
 90
-16777216
102
RTVSPost2010PropOp51
 70
     0
102
RTVSPost2010Prop52
140
1.0
102
RTVSPost2010PropOp52
 70
     0
102
RTVSPost2010Prop53
 90
        2
102
RTVSPost2010PropOp53
 70
     1
102
RTVSPost2010Prop54
  1
strokes_ogs.tif
102
RTVSPost2010PropOp54
 70
     1
102
RTVSPost2010Prop55
280
     0
102
RTVSPost2010PropOp55
 70
     1
102
RTVSPost2010Prop56
140
1.0
102
RTVSPost2010PropOp56
 70
     1
102
RTVSPost2010Prop57
140
1.0
102
RTVSPost2010PropOp57
 70
     1
102
RTVSPropertyOp0
 70
     1
102
RTVSPropertyOp1
 70
     1
102
RTVSPropertyOp2
 70
     1
102
RTVSPropertyOp3
 70
     1
102
RTVSPropertyOp4
 70
     1
102
RTVSPropertyOp5
 70
     1
102
RTVSPropertyOp6
 70
     1
102
RTVSPropertyOp7
 70
     1
102
RTVSPropertyOp8
 70
     1
102
RTVSPropertyOp9
 70
     1
102
RTVSPropertyOp10
 70
     1
102
RTVSPropertyOp11
 70
     1
102
RTVSPropertyOp12
 70
     1
102
RTVSPropertyOp13
 70
     1
102
RTVSPropertyOp14
 70
     1
102
RTVSPropertyOp15
 70
     1
102
RTVSPropertyOp16
 70
     1
102
RTVSPropertyOp17
 70
     1
102
RTVSPropertyOp18
 70
     1
102
RTVSPropertyOp19
 70
     1
102
RTVSPropertyOp20
 70
     1
102
RTVSPropertyOp21
 70
     1
102
RTVSPropertyOp22
 70
     1
102
RTVSPropertyOp23
 70
     1
102
RTVSPropertyOp24
 70
     1
102
RTVSPropertyOp25
 70
     1
102
RTVSPropertyOp26
 70
     1
102
RTVSPropertyOp27
 70
     1
102
RTVSPropertyOp28
 70
     1
102
RTVSPropertyOp29
 70
     1
102
RTVSPropertyOp30
 70
     1
102
RTVSPropertyOp31
 70
     1
102
RTVSPropertyOp32
 70
     1
102
RTVSPropertyOp33
 70
     1
102
RTVSPropertyOp34
 70
     1
102
RTVSPropertyOp35
 70
     1
102
RTVSPropertyOp36
 70
     1
102
RTVSPropertyOp37
 70
     1
102
RTVSPropertyOp38
 70
     1
102
RTVSPropertyOp39
 70
     1
102
RTVSPropertyOp40
 70
     1
102
RTVSPropertyOp41
 70
     1
102
RTVSPropertyOp42
 70
     1
102
RTVSPropertyOp43
 70
     1
102
RTVSPropertyOp44
 70
     1
102
RTVSPropertyOp45
 70
     1
102
RTVSPropertyOp46
 70
     1
102
RTVSPropertyOp47
 70
     1
102
RTVSPropertyOp48
 70
     1
102
RTVSPropertyOp49
 70
     1
102
RTVSPropertyOp50
 70
     1
102
RTVSPropertyOp51
 70
     0
102
RTVSPropertyOp52
 70
     0
102
RTVSPropertyOp53
 70
     1
102
RTVSPropertyOp54
 70
     1
102
RTVSPropertyOp55
 70
     1
102
RTVSPropertyOp56
 70
     1
102
RTVSPropertyOp57
 70
     1
102
RTVSPropertyOp58
 70
     1
102
RTVSPropertyOp59
 70
     1
102
RTVSPropertyOp60
 70
     1
102
RTVSPropertyOp61
 70
     1
102
RTVSPropertyOp62
 70
     1
  0
XRECORD
  5
B97B
102
{ACAD_REACTORS
330
B97A
102
}
330
B97A
100
AcDbXrecord
280
     1
102
RTVSPost2010Prop28
280
     0
102
RTVSPost2010PropOp28
 70
     1
102
RTVSPost2010Prop29
280
     1
102
RTVSPost2010PropOp29
 70
     1
102
RTVSPost2010Prop30
280
     1
102
RTVSPost2010PropOp30
 70
     1
102
RTVSPost2010Prop31
280
     0
102
RTVSPost2010PropOp31
 70
     1
102
RTVSPost2010Prop32
280
     0
102
RTVSPost2010PropOp32
 70
     1
102
RTVSPost2010Prop33
280
     0
102
RTVSPost2010PropOp33
 70
     1
102
RTVSPost2010Prop34
280
     0
102
RTVSPost2010PropOp34
 70
     1
102
RTVSPost2010Prop35
280
     0
102
RTVSPost2010PropOp35
 70
     1
102
RTVSPost2010Prop36
280
     0
102
RTVSPost2010PropOp36
 70
     1
102
RTVSPost2010Prop37
 90
       50
102
RTVSPost2010PropOp37
 70
     1
102
RTVSPost2010Prop38
140
0.0
102
RTVSPost2010PropOp38
 70
     1
102
RTVSPost2010Prop39
140
1.0
102
RTVSPost2010PropOp39
 70
     1
102
RTVSPost2010Prop40
 90
        0
102
RTVSPost2010PropOp40
 70
     1
102
RTVSPost2010Prop41ColorIndex
 90
       18
102
RTVSPost2010Prop41ColorRGB
 90
        0
102
RTVSPost2010PropOp41
 70
     1
102
RTVSPost2010Prop42
 90
       50
102
RTVSPost2010PropOp42
 70
     1
102
RTVSPost2010Prop43
 90
        3
102
RTVSPost2010PropOp43
 70
     1
102
RTVSPost2010Prop44ColorIndex
 90
        5
102
RTVSPost2010Prop44ColorRGB
 90
      255
102
RTVSPost2010PropOp44
 70
     1
102
RTVSPost2010Prop45
280
     0
102
RTVSPost2010PropOp45
 70
     1
102
RTVSPost2010Prop46
 90
       50
102
RTVSPost2010PropOp46
 70
     1
102
RTVSPost2010Prop47
 90
       50
102
RTVSPost2010PropOp47
 70
     1
102
RTVSPost2010Prop48
 90
       50
102
RTVSPost2010PropOp48
 70
     1
102
RTVSPost2010Prop49
280
     0
102
RTVSPost2010PropOp49
 70
     1
102
RTVSPost2010Prop50
 90
       50
102
RTVSPost2010PropOp50
 70
     1
102
RTVSPost2010Prop51ColorIndex
 90
      256
102
RTVSPost2010Prop51ColorRGB
 90
-16777216
102
RTVSPost2010PropOp51
 70
     0
102
RTVSPost2010Prop52
140
1.0
102
RTVSPost2010PropOp52
 70
     0
102
RTVSPost2010Prop53
 90
        2
102
RTVSPost2010PropOp53
 70
     1
102
RTVSPost2010Prop54
  1
strokes_ogs.tif
102
RTVSPost2010PropOp54
 70
     1
102
RTVSPost2010Prop55
280
     0
102
RTVSPost2010PropOp55
 70
     1
102
RTVSPost2010Prop56
140
1.0
102
RTVSPost2010PropOp56
 70
     1
102
RTVSPost2010Prop57
140
1.0
102
RTVSPost2010PropOp57
 70
     1
102
RTVSPropertyOp0
 70
     1
102
RTVSPropertyOp1
 70
     1
102
RTVSPropertyOp2
 70
     1
102
RTVSPropertyOp3
 70
     1
102
RTVSPropertyOp4
 70
     1
102
RTVSPropertyOp5
 70
     1
102
RTVSPropertyOp6
 70
     1
102
RTVSPropertyOp7
 70
     1
102
RTVSPropertyOp8
 70
     1
102
RTVSPropertyOp9
 70
     1
102
RTVSPropertyOp10
 70
     1
102
RTVSPropertyOp11
 70
     1
102
RTVSPropertyOp12
 70
     1
102
RTVSPropertyOp13
 70
     1
102
RTVSPropertyOp14
 70
     1
102
RTVSPropertyOp15
 70
     1
102
RTVSPropertyOp16
 70
     1
102
RTVSPropertyOp17
 70
     1
102
RTVSPropertyOp18
 70
     1
102
RTVSPropertyOp19
 70
     1
102
RTVSPropertyOp20
 70
     1
102
RTVSPropertyOp21
 70
     1
102
RTVSPropertyOp22
 70
     1
102
RTVSPropertyOp23
 70
     1
102
RTVSPropertyOp24
 70
     1
102
RTVSPropertyOp25
 70
     1
102
RTVSPropertyOp26
 70
     1
102
RTVSPropertyOp27
 70
     1
102
RTVSPropertyOp28
 70
     1
102
RTVSPropertyOp29
 70
     1
102
RTVSPropertyOp30
 70
     1
102
RTVSPropertyOp31
 70
     1
102
RTVSPropertyOp32
 70
     1
102
RTVSPropertyOp33
 70
     1
102
RTVSPropertyOp34
 70
     1
102
RTVSPropertyOp35
 70
     1
102
RTVSPropertyOp36
 70
     1
102
RTVSPropertyOp37
 70
     1
102
RTVSPropertyOp38
 70
     1
102
RTVSPropertyOp39
 70
     1
102
RTVSPropertyOp40
 70
     1
102
RTVSPropertyOp41
 70
     1
102
RTVSPropertyOp42
 70
     1
102
RTVSPropertyOp43
 70
     1
102
RTVSPropertyOp44
 70
     1
102
RTVSPropertyOp45
 70
     1
102
RTVSPropertyOp46
 70
     1
102
RTVSPropertyOp47
 70
     1
102
RTVSPropertyOp48
 70
     1
102
RTVSPropertyOp49
 70
     1
102
RTVSPropertyOp50
 70
     1
102
RTVSPropertyOp51
 70
     0
102
RTVSPropertyOp52
 70
     0
102
RTVSPropertyOp53
 70
     1
102
RTVSPropertyOp54
 70
     1
102
RTVSPropertyOp55
 70
     1
102
RTVSPropertyOp56
 70
     1
102
RTVSPropertyOp57
 70
     1
102
RTVSPropertyOp58
 70
     1
102
RTVSPropertyOp59
 70
     1
102
RTVSPropertyOp60
 70
     1
102
RTVSPropertyOp61
 70
     1
102
RTVSPropertyOp62
 70
     1
  0
XRECORD
  5
B97F
102
{ACAD_REACTORS
330
B97E
102
}
330
B97E
100
AcDbXrecord
280
     1
102
RTVSPost2010Prop28
280
     0
102
RTVSPost2010PropOp28
 70
     1
102
RTVSPost2010Prop29
280
     1
102
RTVSPost2010PropOp29
 70
     1
102
RTVSPost2010Prop30
280
     1
102
RTVSPost2010PropOp30
 70
     1
102
RTVSPost2010Prop31
280
     0
102
RTVSPost2010PropOp31
 70
     1
102
RTVSPost2010Prop32
280
     0
102
RTVSPost2010PropOp32
 70
     1
102
RTVSPost2010Prop33
280
     0
102
RTVSPost2010PropOp33
 70
     1
102
RTVSPost2010Prop34
280
     0
102
RTVSPost2010PropOp34
 70
     1
102
RTVSPost2010Prop35
280
     0
102
RTVSPost2010PropOp35
 70
     1
102
RTVSPost2010Prop36
280
     0
102
RTVSPost2010PropOp36
 70
     1
102
RTVSPost2010Prop37
 90
       50
102
RTVSPost2010PropOp37
 70
     1
102
RTVSPost2010Prop38
140
0.0
102
RTVSPost2010PropOp38
 70
     1
102
RTVSPost2010Prop39
140
1.0
102
RTVSPost2010PropOp39
 70
     1
102
RTVSPost2010Prop40
 90
        0
102
RTVSPost2010PropOp40
 70
     1
102
RTVSPost2010Prop41ColorIndex
 90
       18
102
RTVSPost2010Prop41ColorRGB
 90
        0
102
RTVSPost2010PropOp41
 70
     1
102
RTVSPost2010Prop42
 90
       50
102
RTVSPost2010PropOp42
 70
     1
102
RTVSPost2010Prop43
 90
        3
102
RTVSPost2010PropOp43
 70
     1
102
RTVSPost2010Prop44ColorIndex
 90
        5
102
RTVSPost2010Prop44ColorRGB
 90
      255
102
RTVSPost2010PropOp44
 70
     1
102
RTVSPost2010Prop45
280
     0
102
RTVSPost2010PropOp45
 70
     1
102
RTVSPost2010Prop46
 90
       50
102
RTVSPost2010PropOp46
 70
     1
102
RTVSPost2010Prop47
 90
       50
102
RTVSPost2010PropOp47
 70
     1
102
RTVSPost2010Prop48
 90
       50
102
RTVSPost2010PropOp48
 70
     1
102
RTVSPost2010Prop49
280
     0
102
RTVSPost2010PropOp49
 70
     1
102
RTVSPost2010Prop50
 90
       50
102
RTVSPost2010PropOp50
 70
     1
102
RTVSPost2010Prop51ColorIndex
 90
      256
102
RTVSPost2010Prop51ColorRGB
 90
-16777216
102
RTVSPost2010PropOp51
 70
     0
102
RTVSPost2010Prop52
140
1.0
102
RTVSPost2010PropOp52
 70
     0
102
RTVSPost2010Prop53
 90
        2
102
RTVSPost2010PropOp53
 70
     1
102
RTVSPost2010Prop54
  1
strokes_ogs.tif
102
RTVSPost2010PropOp54
 70
     1
102
RTVSPost2010Prop55
280
     0
102
RTVSPost2010PropOp55
 70
     1
102
RTVSPost2010Prop56
140
1.0
102
RTVSPost2010PropOp56
 70
     1
102
RTVSPost2010Prop57
140
1.0
102
RTVSPost2010PropOp57
 70
     1
102
RTVSPropertyOp0
 70
     1
102
RTVSPropertyOp1
 70
     1
102
RTVSPropertyOp2
 70
     1
102
RTVSPropertyOp3
 70
     1
102
RTVSPropertyOp4
 70
     1
102
RTVSPropertyOp5
 70
     1
102
RTVSPropertyOp6
 70
     1
102
RTVSPropertyOp7
 70
     1
102
RTVSPropertyOp8
 70
     1
102
RTVSPropertyOp9
 70
     1
102
RTVSPropertyOp10
 70
     1
102
RTVSPropertyOp11
 70
     1
102
RTVSPropertyOp12
 70
     1
102
RTVSPropertyOp13
 70
     1
102
RTVSPropertyOp14
 70
     1
102
RTVSPropertyOp15
 70
     1
102
RTVSPropertyOp16
 70
     1
102
RTVSPropertyOp17
 70
     1
102
RTVSPropertyOp18
 70
     1
102
RTVSPropertyOp19
 70
     1
102
RTVSPropertyOp20
 70
     1
102
RTVSPropertyOp21
 70
     1
102
RTVSPropertyOp22
 70
     1
102
RTVSPropertyOp23
 70
     1
102
RTVSPropertyOp24
 70
     1
102
RTVSPropertyOp25
 70
     1
102
RTVSPropertyOp26
 70
     1
102
RTVSPropertyOp27
 70
     1
102
RTVSPropertyOp28
 70
     1
102
RTVSPropertyOp29
 70
     1
102
RTVSPropertyOp30
 70
     1
102
RTVSPropertyOp31
 70
     1
102
RTVSPropertyOp32
 70
     1
102
RTVSPropertyOp33
 70
     1
102
RTVSPropertyOp34
 70
     1
102
RTVSPropertyOp35
 70
     1
102
RTVSPropertyOp36
 70
     1
102
RTVSPropertyOp37
 70
     1
102
RTVSPropertyOp38
 70
     1
102
RTVSPropertyOp39
 70
     1
102
RTVSPropertyOp40
 70
     1
102
RTVSPropertyOp41
 70
     1
102
RTVSPropertyOp42
 70
     1
102
RTVSPropertyOp43
 70
     1
102
RTVSPropertyOp44
 70
     1
102
RTVSPropertyOp45
 70
     1
102
RTVSPropertyOp46
 70
     1
102
RTVSPropertyOp47
 70
     1
102
RTVSPropertyOp48
 70
     1
102
RTVSPropertyOp49
 70
     1
102
RTVSPropertyOp50
 70
     1
102
RTVSPropertyOp51
 70
     0
102
RTVSPropertyOp52
 70
     0
102
RTVSPropertyOp53
 70
     1
102
RTVSPropertyOp54
 70
     1
102
RTVSPropertyOp55
 70
     1
102
RTVSPropertyOp56
 70
     1
102
RTVSPropertyOp57
 70
     1
102
RTVSPropertyOp58
 70
     1
102
RTVSPropertyOp59
 70
     1
102
RTVSPropertyOp60
 70
     1
102
RTVSPropertyOp61
 70
     1
102
RTVSPropertyOp62
 70
     1
  0
XRECORD
  5
B991
102
{ACAD_REACTORS
330
B990
102
}
330
B990
100
AcDbXrecord
280
     1
102
RTVSPost2010Prop28
280
     0
102
RTVSPost2010PropOp28
 70
     1
102
RTVSPost2010Prop29
280
     1
102
RTVSPost2010PropOp29
 70
     1
102
RTVSPost2010Prop30
280
     1
102
RTVSPost2010PropOp30
 70
     1
102
RTVSPost2010Prop31
280
     0
102
RTVSPost2010PropOp31
 70
     1
102
RTVSPost2010Prop32
280
     0
102
RTVSPost2010PropOp32
 70
     1
102
RTVSPost2010Prop33
280
     0
102
RTVSPost2010PropOp33
 70
     1
102
RTVSPost2010Prop34
280
     0
102
RTVSPost2010PropOp34
 70
     1
102
RTVSPost2010Prop35
280
     0
102
RTVSPost2010PropOp35
 70
     1
102
RTVSPost2010Prop36
280
     0
102
RTVSPost2010PropOp36
 70
     1
102
RTVSPost2010Prop37
 90
       50
102
RTVSPost2010PropOp37
 70
     1
102
RTVSPost2010Prop38
140
0.0
102
RTVSPost2010PropOp38
 70
     1
102
RTVSPost2010Prop39
140
1.0
102
RTVSPost2010PropOp39
 70
     1
102
RTVSPost2010Prop40
 90
        0
102
RTVSPost2010PropOp40
 70
     1
102
RTVSPost2010Prop41ColorIndex
 90
       18
102
RTVSPost2010Prop41ColorRGB
 90
        0
102
RTVSPost2010PropOp41
 70
     1
102
RTVSPost2010Prop42
 90
       50
102
RTVSPost2010PropOp42
 70
     1
102
RTVSPost2010Prop43
 90
        3
102
RTVSPost2010PropOp43
 70
     1
102
RTVSPost2010Prop44ColorIndex
 90
        5
102
RTVSPost2010Prop44ColorRGB
 90
      255
102
RTVSPost2010PropOp44
 70
     1
102
RTVSPost2010Prop45
280
     0
102
RTVSPost2010PropOp45
 70
     1
102
RTVSPost2010Prop46
 90
       50
102
RTVSPost2010PropOp46
 70
     1
102
RTVSPost2010Prop47
 90
       50
102
RTVSPost2010PropOp47
 70
     1
102
RTVSPost2010Prop48
 90
       50
102
RTVSPost2010PropOp48
 70
     1
102
RTVSPost2010Prop49
280
     0
102
RTVSPost2010PropOp49
 70
     1
102
RTVSPost2010Prop50
 90
       50
102
RTVSPost2010PropOp50
 70
     1
102
RTVSPost2010Prop51ColorIndex
 90
      256
102
RTVSPost2010Prop51ColorRGB
 90
-16777216
102
RTVSPost2010PropOp51
 70
     0
102
RTVSPost2010Prop52
140
1.0
102
RTVSPost2010PropOp52
 70
     0
102
RTVSPost2010Prop53
 90
        2
102
RTVSPost2010PropOp53
 70
     1
102
RTVSPost2010Prop54
  1
strokes_ogs.tif
102
RTVSPost2010PropOp54
 70
     1
102
RTVSPost2010Prop55
280
     0
102
RTVSPost2010PropOp55
 70
     1
102
RTVSPost2010Prop56
140
1.0
102
RTVSPost2010PropOp56
 70
     1
102
RTVSPost2010Prop57
140
1.0
102
RTVSPost2010PropOp57
 70
     1
102
RTVSPropertyOp0
 70
     0
102
RTVSPropertyOp1
 70
     0
102
RTVSPropertyOp2
 70
     0
102
RTVSPropertyOp3
 70
     0
102
RTVSPropertyOp4
 70
     0
102
RTVSPropertyOp5
 70
     0
102
RTVSPropertyOp6
 70
     0
102
RTVSPropertyOp7
 70
     0
102
RTVSPropertyOp8
 70
     0
102
RTVSPropertyOp9
 70
     0
102
RTVSPropertyOp10
 70
     0
102
RTVSPropertyOp11
 70
     0
102
RTVSPropertyOp12
 70
     0
102
RTVSPropertyOp13
 70
     0
102
RTVSPropertyOp14
 70
     2
102
RTVSPropertyOp15
 70
     0
102
RTVSPropertyOp16
 70
     0
102
RTVSPropertyOp17
 70
     0
102
RTVSPropertyOp18
 70
     0
102
RTVSPropertyOp19
 70
     0
102
RTVSPropertyOp20
 70
     0
102
RTVSPropertyOp21
 70
     0
102
RTVSPropertyOp22
 70
     0
102
RTVSPropertyOp23
 70
     0
102
RTVSPropertyOp24
 70
     0
102
RTVSPropertyOp25
 70
     0
102
RTVSPropertyOp26
 70
     0
102
RTVSPropertyOp27
 70
     0
102
RTVSPropertyOp28
 70
     1
102
RTVSPropertyOp29
 70
     1
102
RTVSPropertyOp30
 70
     1
102
RTVSPropertyOp31
 70
     1
102
RTVSPropertyOp32
 70
     1
102
RTVSPropertyOp33
 70
     1
102
RTVSPropertyOp34
 70
     1
102
RTVSPropertyOp35
 70
     1
102
RTVSPropertyOp36
 70
     1
102
RTVSPropertyOp37
 70
     1
102
RTVSPropertyOp38
 70
     1
102
RTVSPropertyOp39
 70
     1
102
RTVSPropertyOp40
 70
     1
102
RTVSPropertyOp41
 70
     1
102
RTVSPropertyOp42
 70
     1
102
RTVSPropertyOp43
 70
     1
102
RTVSPropertyOp44
 70
     1
102
RTVSPropertyOp45
 70
     1
102
RTVSPropertyOp46
 70
     1
102
RTVSPropertyOp47
 70
     1
102
RTVSPropertyOp48
 70
     1
102
RTVSPropertyOp49
 70
     1
102
RTVSPropertyOp50
 70
     1
102
RTVSPropertyOp51
 70
     0
102
RTVSPropertyOp52
 70
     0
102
RTVSPropertyOp53
 70
     1
102
RTVSPropertyOp54
 70
     1
102
RTVSPropertyOp55
 70
     1
102
RTVSPropertyOp56
 70
     1
102
RTVSPropertyOp57
 70
     1
102
RTVSPropertyOp58
 70
     1
102
RTVSPropertyOp59
 70
     1
102
RTVSPropertyOp60
 70
     1
102
RTVSPropertyOp61
 70
     1
102
RTVSPropertyOp62
 70
     1
  0
XRECORD
  5
B987
102
{ACAD_REACTORS
330
B986
102
}
330
B986
100
AcDbXrecord
280
     1
102
RTVSPost2010Prop28
280
     0
102
RTVSPost2010PropOp28
 70
     1
102
RTVSPost2010Prop29
280
     1
102
RTVSPost2010PropOp29
 70
     1
102
RTVSPost2010Prop30
280
     1
102
RTVSPost2010PropOp30
 70
     1
102
RTVSPost2010Prop31
280
     0
102
RTVSPost2010PropOp31
 70
     1
102
RTVSPost2010Prop32
280
     0
102
RTVSPost2010PropOp32
 70
     1
102
RTVSPost2010Prop33
280
     0
102
RTVSPost2010PropOp33
 70
     1
102
RTVSPost2010Prop34
280
     0
102
RTVSPost2010PropOp34
 70
     1
102
RTVSPost2010Prop35
280
     0
102
RTVSPost2010PropOp35
 70
     1
102
RTVSPost2010Prop36
280
     0
102
RTVSPost2010PropOp36
 70
     1
102
RTVSPost2010Prop37
 90
       50
102
RTVSPost2010PropOp37
 70
     1
102
RTVSPost2010Prop38
140
0.0
102
RTVSPost2010PropOp38
 70
     1
102
RTVSPost2010Prop39
140
1.0
102
RTVSPost2010PropOp39
 70
     1
102
RTVSPost2010Prop40
 90
        0
102
RTVSPost2010PropOp40
 70
     1
102
RTVSPost2010Prop41ColorIndex
 90
       18
102
RTVSPost2010Prop41ColorRGB
 90
        0
102
RTVSPost2010PropOp41
 70
     1
102
RTVSPost2010Prop42
 90
       50
102
RTVSPost2010PropOp42
 70
     1
102
RTVSPost2010Prop43
 90
        3
102
RTVSPost2010PropOp43
 70
     1
102
RTVSPost2010Prop44ColorIndex
 90
        5
102
RTVSPost2010Prop44ColorRGB
 90
      255
102
RTVSPost2010PropOp44
 70
     1
102
RTVSPost2010Prop45
280
     0
102
RTVSPost2010PropOp45
 70
     1
102
RTVSPost2010Prop46
 90
       50
102
RTVSPost2010PropOp46
 70
     1
102
RTVSPost2010Prop47
 90
       50
102
RTVSPost2010PropOp47
 70
     1
102
RTVSPost2010Prop48
 90
       50
102
RTVSPost2010PropOp48
 70
     1
102
RTVSPost2010Prop49
280
     0
102
RTVSPost2010PropOp49
 70
     1
102
RTVSPost2010Prop50
 90
       50
102
RTVSPost2010PropOp50
 70
     1
102
RTVSPost2010Prop51ColorIndex
 90
      256
102
RTVSPost2010Prop51ColorRGB
 90
-16777216
102
RTVSPost2010PropOp51
 70
     0
102
RTVSPost2010Prop52
140
1.0
102
RTVSPost2010PropOp52
 70
     0
102
RTVSPost2010Prop53
 90
        2
102
RTVSPost2010PropOp53
 70
     1
102
RTVSPost2010Prop54
  1
strokes_ogs.tif
102
RTVSPost2010PropOp54
 70
     1
102
RTVSPost2010Prop55
280
     0
102
RTVSPost2010PropOp55
 70
     1
102
RTVSPost2010Prop56
140
1.0
102
RTVSPost2010PropOp56
 70
     1
102
RTVSPost2010Prop57
140
1.0
102
RTVSPost2010PropOp57
 70
     1
102
RTVSPropertyOp0
 70
     1
102
RTVSPropertyOp1
 70
     1
102
RTVSPropertyOp2
 70
     1
102
RTVSPropertyOp3
 70
     1
102
RTVSPropertyOp4
 70
     1
102
RTVSPropertyOp5
 70
     1
102
RTVSPropertyOp6
 70
     1
102
RTVSPropertyOp7
 70
     1
102
RTVSPropertyOp8
 70
     1
102
RTVSPropertyOp9
 70
     1
102
RTVSPropertyOp10
 70
     1
102
RTVSPropertyOp11
 70
     1
102
RTVSPropertyOp12
 70
     1
102
RTVSPropertyOp13
 70
     1
102
RTVSPropertyOp14
 70
     1
102
RTVSPropertyOp15
 70
     1
102
RTVSPropertyOp16
 70
     1
102
RTVSPropertyOp17
 70
     1
102
RTVSPropertyOp18
 70
     1
102
RTVSPropertyOp19
 70
     1
102
RTVSPropertyOp20
 70
     1
102
RTVSPropertyOp21
 70
     1
102
RTVSPropertyOp22
 70
     1
102
RTVSPropertyOp23
 70
     1
102
RTVSPropertyOp24
 70
     1
102
RTVSPropertyOp25
 70
     1
102
RTVSPropertyOp26
 70
     1
102
RTVSPropertyOp27
 70
     1
102
RTVSPropertyOp28
 70
     1
102
RTVSPropertyOp29
 70
     1
102
RTVSPropertyOp30
 70
     1
102
RTVSPropertyOp31
 70
     1
102
RTVSPropertyOp32
 70
     1
102
RTVSPropertyOp33
 70
     1
102
RTVSPropertyOp34
 70
     1
102
RTVSPropertyOp35
 70
     1
102
RTVSPropertyOp36
 70
     1
102
RTVSPropertyOp37
 70
     1
102
RTVSPropertyOp38
 70
     1
102
RTVSPropertyOp39
 70
     1
102
RTVSPropertyOp40
 70
     1
102
RTVSPropertyOp41
 70
     1
102
RTVSPropertyOp42
 70
     1
102
RTVSPropertyOp43
 70
     1
102
RTVSPropertyOp44
 70
     1
102
RTVSPropertyOp45
 70
     1
102
RTVSPropertyOp46
 70
     1
102
RTVSPropertyOp47
 70
     1
102
RTVSPropertyOp48
 70
     1
102
RTVSPropertyOp49
 70
     1
102
RTVSPropertyOp50
 70
     1
102
RTVSPropertyOp51
 70
     0
102
RTVSPropertyOp52
 70
     0
102
RTVSPropertyOp53
 70
     1
102
RTVSPropertyOp54
 70
     1
102
RTVSPropertyOp55
 70
     1
102
RTVSPropertyOp56
 70
     1
102
RTVSPropertyOp57
 70
     1
102
RTVSPropertyOp58
 70
     1
102
RTVSPropertyOp59
 70
     1
102
RTVSPropertyOp60
 70
     1
102
RTVSPropertyOp61
 70
     1
102
RTVSPropertyOp62
 70
     1
  0
XRECORD
  5
B96B
102
{ACAD_REACTORS
330
B96A
102
}
330
B96A
100
AcDbXrecord
280
     1
102
RTVSPost2010Prop28
280
     0
102
RTVSPost2010PropOp28
 70
     1
102
RTVSPost2010Prop29
280
     1
102
RTVSPost2010PropOp29
 70
     1
102
RTVSPost2010Prop30
280
     1
102
RTVSPost2010PropOp30
 70
     1
102
RTVSPost2010Prop31
280
     0
102
RTVSPost2010PropOp31
 70
     1
102
RTVSPost2010Prop32
280
     0
102
RTVSPost2010PropOp32
 70
     1
102
RTVSPost2010Prop33
280
     0
102
RTVSPost2010PropOp33
 70
     1
102
RTVSPost2010Prop34
280
     0
102
RTVSPost2010PropOp34
 70
     1
102
RTVSPost2010Prop35
280
     0
102
RTVSPost2010PropOp35
 70
     1
102
RTVSPost2010Prop36
280
     0
102
RTVSPost2010PropOp36
 70
     1
102
RTVSPost2010Prop37
 90
       50
102
RTVSPost2010PropOp37
 70
     1
102
RTVSPost2010Prop38
140
0.0
102
RTVSPost2010PropOp38
 70
     1
102
RTVSPost2010Prop39
140
1.0
102
RTVSPost2010PropOp39
 70
     1
102
RTVSPost2010Prop40
 90
        0
102
RTVSPost2010PropOp40
 70
     1
102
RTVSPost2010Prop41ColorIndex
 90
       18
102
RTVSPost2010Prop41ColorRGB
 90
        0
102
RTVSPost2010PropOp41
 70
     1
102
RTVSPost2010Prop42
 90
       50
102
RTVSPost2010PropOp42
 70
     1
102
RTVSPost2010Prop43
 90
        3
102
RTVSPost2010PropOp43
 70
     1
102
RTVSPost2010Prop44ColorIndex
 90
        5
102
RTVSPost2010Prop44ColorRGB
 90
      255
102
RTVSPost2010PropOp44
 70
     1
102
RTVSPost2010Prop45
280
     0
102
RTVSPost2010PropOp45
 70
     1
102
RTVSPost2010Prop46
 90
       50
102
RTVSPost2010PropOp46
 70
     1
102
RTVSPost2010Prop47
 90
       50
102
RTVSPost2010PropOp47
 70
     1
102
RTVSPost2010Prop48
 90
       50
102
RTVSPost2010PropOp48
 70
     1
102
RTVSPost2010Prop49
280
     0
102
RTVSPost2010PropOp49
 70
     1
102
RTVSPost2010Prop50
 90
       50
102
RTVSPost2010PropOp50
 70
     1
102
RTVSPost2010Prop51ColorIndex
 90
      256
102
RTVSPost2010Prop51ColorRGB
 90
-16777216
102
RTVSPost2010PropOp51
 70
     0
102
RTVSPost2010Prop52
140
1.0
102
RTVSPost2010PropOp52
 70
     0
102
RTVSPost2010Prop53
 90
        2
102
RTVSPost2010PropOp53
 70
     1
102
RTVSPost2010Prop54
  1
strokes_ogs.tif
102
RTVSPost2010PropOp54
 70
     1
102
RTVSPost2010Prop55
280
     0
102
RTVSPost2010PropOp55
 70
     1
102
RTVSPost2010Prop56
140
1.0
102
RTVSPost2010PropOp56
 70
     1
102
RTVSPost2010Prop57
140
1.0
102
RTVSPost2010PropOp57
 70
     1
102
RTVSPropertyOp0
 70
     1
102
RTVSPropertyOp1
 70
     1
102
RTVSPropertyOp2
 70
     1
102
RTVSPropertyOp3
 70
     1
102
RTVSPropertyOp4
 70
     1
102
RTVSPropertyOp5
 70
     1
102
RTVSPropertyOp6
 70
     1
102
RTVSPropertyOp7
 70
     1
102
RTVSPropertyOp8
 70
     1
102
RTVSPropertyOp9
 70
     1
102
RTVSPropertyOp10
 70
     1
102
RTVSPropertyOp11
 70
     1
102
RTVSPropertyOp12
 70
     1
102
RTVSPropertyOp13
 70
     1
102
RTVSPropertyOp14
 70
     1
102
RTVSPropertyOp15
 70
     1
102
RTVSPropertyOp16
 70
     1
102
RTVSPropertyOp17
 70
     1
102
RTVSPropertyOp18
 70
     1
102
RTVSPropertyOp19
 70
     1
102
RTVSPropertyOp20
 70
     1
102
RTVSPropertyOp21
 70
     1
102
RTVSPropertyOp22
 70
     1
102
RTVSPropertyOp23
 70
     1
102
RTVSPropertyOp24
 70
     1
102
RTVSPropertyOp25
 70
     1
102
RTVSPropertyOp26
 70
     1
102
RTVSPropertyOp27
 70
     1
102
RTVSPropertyOp28
 70
     1
102
RTVSPropertyOp29
 70
     1
102
RTVSPropertyOp30
 70
     1
102
RTVSPropertyOp31
 70
     1
102
RTVSPropertyOp32
 70
     1
102
RTVSPropertyOp33
 70
     1
102
RTVSPropertyOp34
 70
     1
102
RTVSPropertyOp35
 70
     1
102
RTVSPropertyOp36
 70
     1
102
RTVSPropertyOp37
 70
     1
102
RTVSPropertyOp38
 70
     1
102
RTVSPropertyOp39
 70
     1
102
RTVSPropertyOp40
 70
     1
102
RTVSPropertyOp41
 70
     1
102
RTVSPropertyOp42
 70
     1
102
RTVSPropertyOp43
 70
     1
102
RTVSPropertyOp44
 70
     1
102
RTVSPropertyOp45
 70
     1
102
RTVSPropertyOp46
 70
     1
102
RTVSPropertyOp47
 70
     1
102
RTVSPropertyOp48
 70
     1
102
RTVSPropertyOp49
 70
     1
102
RTVSPropertyOp50
 70
     1
102
RTVSPropertyOp51
 70
     0
102
RTVSPropertyOp52
 70
     0
102
RTVSPropertyOp53
 70
     1
102
RTVSPropertyOp54
 70
     1
102
RTVSPropertyOp55
 70
     1
102
RTVSPropertyOp56
 70
     1
102
RTVSPropertyOp57
 70
     1
102
RTVSPropertyOp58
 70
     1
102
RTVSPropertyOp59
 70
     1
102
RTVSPropertyOp60
 70
     1
102
RTVSPropertyOp61
 70
     1
102
RTVSPropertyOp62
 70
     1
  0
XRECORD
  5
B96D
102
{ACAD_REACTORS
330
B96C
102
}
330
B96C
100
AcDbXrecord
280
     1
102
RTVSPost2010Prop28
280
     0
102
RTVSPost2010PropOp28
 70
     1
102
RTVSPost2010Prop29
280
     1
102
RTVSPost2010PropOp29
 70
     1
102
RTVSPost2010Prop30
280
     1
102
RTVSPost2010PropOp30
 70
     1
102
RTVSPost2010Prop31
280
     0
102
RTVSPost2010PropOp31
 70
     1
102
RTVSPost2010Prop32
280
     0
102
RTVSPost2010PropOp32
 70
     1
102
RTVSPost2010Prop33
280
     0
102
RTVSPost2010PropOp33
 70
     1
102
RTVSPost2010Prop34
280
     0
102
RTVSPost2010PropOp34
 70
     1
102
RTVSPost2010Prop35
280
     0
102
RTVSPost2010PropOp35
 70
     1
102
RTVSPost2010Prop36
280
     0
102
RTVSPost2010PropOp36
 70
     1
102
RTVSPost2010Prop37
 90
       50
102
RTVSPost2010PropOp37
 70
     1
102
RTVSPost2010Prop38
140
0.0
102
RTVSPost2010PropOp38
 70
     1
102
RTVSPost2010Prop39
140
1.0
102
RTVSPost2010PropOp39
 70
     1
102
RTVSPost2010Prop40
 90
        0
102
RTVSPost2010PropOp40
 70
     1
102
RTVSPost2010Prop41ColorIndex
 90
       18
102
RTVSPost2010Prop41ColorRGB
 90
        0
102
RTVSPost2010PropOp41
 70
     1
102
RTVSPost2010Prop42
 90
       50
102
RTVSPost2010PropOp42
 70
     1
102
RTVSPost2010Prop43
 90
        3
102
RTVSPost2010PropOp43
 70
     1
102
RTVSPost2010Prop44ColorIndex
 90
        5
102
RTVSPost2010Prop44ColorRGB
 90
      255
102
RTVSPost2010PropOp44
 70
     1
102
RTVSPost2010Prop45
280
     0
102
RTVSPost2010PropOp45
 70
     1
102
RTVSPost2010Prop46
 90
       50
102
RTVSPost2010PropOp46
 70
     1
102
RTVSPost2010Prop47
 90
       50
102
RTVSPost2010PropOp47
 70
     1
102
RTVSPost2010Prop48
 90
       50
102
RTVSPost2010PropOp48
 70
     1
102
RTVSPost2010Prop49
280
     0
102
RTVSPost2010PropOp49
 70
     1
102
RTVSPost2010Prop50
 90
       50
102
RTVSPost2010PropOp50
 70
     1
102
RTVSPost2010Prop51ColorIndex
 90
      256
102
RTVSPost2010Prop51ColorRGB
 90
-16777216
102
RTVSPost2010PropOp51
 70
     0
102
RTVSPost2010Prop52
140
1.0
102
RTVSPost2010PropOp52
 70
     0
102
RTVSPost2010Prop53
 90
        2
102
RTVSPost2010PropOp53
 70
     1
102
RTVSPost2010Prop54
  1
strokes_ogs.tif
102
RTVSPost2010PropOp54
 70
     1
102
RTVSPost2010Prop55
280
     0
102
RTVSPost2010PropOp55
 70
     1
102
RTVSPost2010Prop56
140
1.0
102
RTVSPost2010PropOp56
 70
     1
102
RTVSPost2010Prop57
140
1.0
102
RTVSPost2010PropOp57
 70
     1
102
RTVSPropertyOp0
 70
     1
102
RTVSPropertyOp1
 70
     1
102
RTVSPropertyOp2
 70
     1
102
RTVSPropertyOp3
 70
     1
102
RTVSPropertyOp4
 70
     1
102
RTVSPropertyOp5
 70
     1
102
RTVSPropertyOp6
 70
     1
102
RTVSPropertyOp7
 70
     1
102
RTVSPropertyOp8
 70
     1
102
RTVSPropertyOp9
 70
     1
102
RTVSPropertyOp10
 70
     1
102
RTVSPropertyOp11
 70
     1
102
RTVSPropertyOp12
 70
     1
102
RTVSPropertyOp13
 70
     1
102
RTVSPropertyOp14
 70
     1
102
RTVSPropertyOp15
 70
     1
102
RTVSPropertyOp16
 70
     1
102
RTVSPropertyOp17
 70
     1
102
RTVSPropertyOp18
 70
     1
102
RTVSPropertyOp19
 70
     1
102
RTVSPropertyOp20
 70
     1
102
RTVSPropertyOp21
 70
     1
102
RTVSPropertyOp22
 70
     1
102
RTVSPropertyOp23
 70
     1
102
RTVSPropertyOp24
 70
     1
102
RTVSPropertyOp25
 70
     1
102
RTVSPropertyOp26
 70
     1
102
RTVSPropertyOp27
 70
     1
102
RTVSPropertyOp28
 70
     1
102
RTVSPropertyOp29
 70
     1
102
RTVSPropertyOp30
 70
     1
102
RTVSPropertyOp31
 70
     1
102
RTVSPropertyOp32
 70
     1
102
RTVSPropertyOp33
 70
     1
102
RTVSPropertyOp34
 70
     1
102
RTVSPropertyOp35
 70
     1
102
RTVSPropertyOp36
 70
     1
102
RTVSPropertyOp37
 70
     1
102
RTVSPropertyOp38
 70
     1
102
RTVSPropertyOp39
 70
     1
102
RTVSPropertyOp40
 70
     1
102
RTVSPropertyOp41
 70
     1
102
RTVSPropertyOp42
 70
     1
102
RTVSPropertyOp43
 70
     1
102
RTVSPropertyOp44
 70
     1
102
RTVSPropertyOp45
 70
     1
102
RTVSPropertyOp46
 70
     1
102
RTVSPropertyOp47
 70
     1
102
RTVSPropertyOp48
 70
     1
102
RTVSPropertyOp49
 70
     1
102
RTVSPropertyOp50
 70
     1
102
RTVSPropertyOp51
 70
     0
102
RTVSPropertyOp52
 70
     0
102
RTVSPropertyOp53
 70
     1
102
RTVSPropertyOp54
 70
     1
102
RTVSPropertyOp55
 70
     1
102
RTVSPropertyOp56
 70
     1
102
RTVSPropertyOp57
 70
     1
102
RTVSPropertyOp58
 70
     1
102
RTVSPropertyOp59
 70
     1
102
RTVSPropertyOp60
 70
     1
102
RTVSPropertyOp61
 70
     1
102
RTVSPropertyOp62
 70
     1
  0
XRECORD
  5
B96F
102
{ACAD_REACTORS
330
B96E
102
}
330
B96E
100
AcDbXrecord
280
     1
102
RTVSPost2010Prop28
280
     0
102
RTVSPost2010PropOp28
 70
     1
102
RTVSPost2010Prop29
280
     1
102
RTVSPost2010PropOp29
 70
     1
102
RTVSPost2010Prop30
280
     1
102
RTVSPost2010PropOp30
 70
     1
102
RTVSPost2010Prop31
280
     0
102
RTVSPost2010PropOp31
 70
     1
102
RTVSPost2010Prop32
280
     0
102
RTVSPost2010PropOp32
 70
     1
102
RTVSPost2010Prop33
280
     0
102
RTVSPost2010PropOp33
 70
     1
102
RTVSPost2010Prop34
280
     0
102
RTVSPost2010PropOp34
 70
     1
102
RTVSPost2010Prop35
280
     0
102
RTVSPost2010PropOp35
 70
     1
102
RTVSPost2010Prop36
280
     0
102
RTVSPost2010PropOp36
 70
     1
102
RTVSPost2010Prop37
 90
       50
102
RTVSPost2010PropOp37
 70
     1
102
RTVSPost2010Prop38
140
0.0
102
RTVSPost2010PropOp38
 70
     1
102
RTVSPost2010Prop39
140
1.0
102
RTVSPost2010PropOp39
 70
     1
102
RTVSPost2010Prop40
 90
        0
102
RTVSPost2010PropOp40
 70
     1
102
RTVSPost2010Prop41ColorIndex
 90
       18
102
RTVSPost2010Prop41ColorRGB
 90
        0
102
RTVSPost2010PropOp41
 70
     1
102
RTVSPost2010Prop42
 90
       50
102
RTVSPost2010PropOp42
 70
     1
102
RTVSPost2010Prop43
 90
        3
102
RTVSPost2010PropOp43
 70
     1
102
RTVSPost2010Prop44ColorIndex
 90
        5
102
RTVSPost2010Prop44ColorRGB
 90
      255
102
RTVSPost2010PropOp44
 70
     1
102
RTVSPost2010Prop45
280
     0
102
RTVSPost2010PropOp45
 70
     1
102
RTVSPost2010Prop46
 90
       50
102
RTVSPost2010PropOp46
 70
     1
102
RTVSPost2010Prop47
 90
       50
102
RTVSPost2010PropOp47
 70
     1
102
RTVSPost2010Prop48
 90
       50
102
RTVSPost2010PropOp48
 70
     1
102
RTVSPost2010Prop49
280
     0
102
RTVSPost2010PropOp49
 70
     1
102
RTVSPost2010Prop50
 90
       50
102
RTVSPost2010PropOp50
 70
     1
102
RTVSPost2010Prop51ColorIndex
 90
      256
102
RTVSPost2010Prop51ColorRGB
 90
-16777216
102
RTVSPost2010PropOp51
 70
     0
102
RTVSPost2010Prop52
140
1.0
102
RTVSPost2010PropOp52
 70
     0
102
RTVSPost2010Prop53
 90
        2
102
RTVSPost2010PropOp53
 70
     1
102
RTVSPost2010Prop54
  1
strokes_ogs.tif
102
RTVSPost2010PropOp54
 70
     1
102
RTVSPost2010Prop55
280
     0
102
RTVSPost2010PropOp55
 70
     1
102
RTVSPost2010Prop56
140
1.0
102
RTVSPost2010PropOp56
 70
     1
102
RTVSPost2010Prop57
140
1.0
102
RTVSPost2010PropOp57
 70
     1
102
RTVSPropertyOp0
 70
     1
102
RTVSPropertyOp1
 70
     1
102
RTVSPropertyOp2
 70
     1
102
RTVSPropertyOp3
 70
     1
102
RTVSPropertyOp4
 70
     1
102
RTVSPropertyOp5
 70
     1
102
RTVSPropertyOp6
 70
     1
102
RTVSPropertyOp7
 70
     1
102
RTVSPropertyOp8
 70
     1
102
RTVSPropertyOp9
 70
     1
102
RTVSPropertyOp10
 70
     1
102
RTVSPropertyOp11
 70
     1
102
RTVSPropertyOp12
 70
     1
102
RTVSPropertyOp13
 70
     1
102
RTVSPropertyOp14
 70
     1
102
RTVSPropertyOp15
 70
     1
102
RTVSPropertyOp16
 70
     1
102
RTVSPropertyOp17
 70
     1
102
RTVSPropertyOp18
 70
     1
102
RTVSPropertyOp19
 70
     1
102
RTVSPropertyOp20
 70
     1
102
RTVSPropertyOp21
 70
     1
102
RTVSPropertyOp22
 70
     1
102
RTVSPropertyOp23
 70
     1
102
RTVSPropertyOp24
 70
     1
102
RTVSPropertyOp25
 70
     1
102
RTVSPropertyOp26
 70
     1
102
RTVSPropertyOp27
 70
     1
102
RTVSPropertyOp28
 70
     1
102
RTVSPropertyOp29
 70
     1
102
RTVSPropertyOp30
 70
     1
102
RTVSPropertyOp31
 70
     1
102
RTVSPropertyOp32
 70
     1
102
RTVSPropertyOp33
 70
     1
102
RTVSPropertyOp34
 70
     1
102
RTVSPropertyOp35
 70
     1
102
RTVSPropertyOp36
 70
     1
102
RTVSPropertyOp37
 70
     1
102
RTVSPropertyOp38
 70
     1
102
RTVSPropertyOp39
 70
     1
102
RTVSPropertyOp40
 70
     1
102
RTVSPropertyOp41
 70
     1
102
RTVSPropertyOp42
 70
     1
102
RTVSPropertyOp43
 70
     1
102
RTVSPropertyOp44
 70
     1
102
RTVSPropertyOp45
 70
     1
102
RTVSPropertyOp46
 70
     1
102
RTVSPropertyOp47
 70
     1
102
RTVSPropertyOp48
 70
     1
102
RTVSPropertyOp49
 70
     1
102
RTVSPropertyOp50
 70
     1
102
RTVSPropertyOp51
 70
     0
102
RTVSPropertyOp52
 70
     0
102
RTVSPropertyOp53
 70
     1
102
RTVSPropertyOp54
 70
     1
102
RTVSPropertyOp55
 70
     1
102
RTVSPropertyOp56
 70
     1
102
RTVSPropertyOp57
 70
     1
102
RTVSPropertyOp58
 70
     1
102
RTVSPropertyOp59
 70
     1
102
RTVSPropertyOp60
 70
     1
102
RTVSPropertyOp61
 70
     1
102
RTVSPropertyOp62
 70
     1
  0
XRECORD
  5
B971
102
{ACAD_REACTORS
330
B970
102
}
330
B970
100
AcDbXrecord
280
     1
102
RTVSPost2010Prop28
280
     0
102
RTVSPost2010PropOp28
 70
     1
102
RTVSPost2010Prop29
280
     1
102
RTVSPost2010PropOp29
 70
     1
102
RTVSPost2010Prop30
280
     1
102
RTVSPost2010PropOp30
 70
     1
102
RTVSPost2010Prop31
280
     0
102
RTVSPost2010PropOp31
 70
     1
102
RTVSPost2010Prop32
280
     0
102
RTVSPost2010PropOp32
 70
     1
102
RTVSPost2010Prop33
280
     0
102
RTVSPost2010PropOp33
 70
     1
102
RTVSPost2010Prop34
280
     0
102
RTVSPost2010PropOp34
 70
     1
102
RTVSPost2010Prop35
280
     0
102
RTVSPost2010PropOp35
 70
     1
102
RTVSPost2010Prop36
280
     0
102
RTVSPost2010PropOp36
 70
     1
102
RTVSPost2010Prop37
 90
       50
102
RTVSPost2010PropOp37
 70
     1
102
RTVSPost2010Prop38
140
0.0
102
RTVSPost2010PropOp38
 70
     1
102
RTVSPost2010Prop39
140
1.0
102
RTVSPost2010PropOp39
 70
     1
102
RTVSPost2010Prop40
 90
        0
102
RTVSPost2010PropOp40
 70
     1
102
RTVSPost2010Prop41ColorIndex
 90
       18
102
RTVSPost2010Prop41ColorRGB
 90
        0
102
RTVSPost2010PropOp41
 70
     1
102
RTVSPost2010Prop42
 90
       50
102
RTVSPost2010PropOp42
 70
     1
102
RTVSPost2010Prop43
 90
        3
102
RTVSPost2010PropOp43
 70
     1
102
RTVSPost2010Prop44ColorIndex
 90
        5
102
RTVSPost2010Prop44ColorRGB
 90
      255
102
RTVSPost2010PropOp44
 70
     1
102
RTVSPost2010Prop45
280
     0
102
RTVSPost2010PropOp45
 70
     1
102
RTVSPost2010Prop46
 90
       50
102
RTVSPost2010PropOp46
 70
     1
102
RTVSPost2010Prop47
 90
       50
102
RTVSPost2010PropOp47
 70
     1
102
RTVSPost2010Prop48
 90
       50
102
RTVSPost2010PropOp48
 70
     1
102
RTVSPost2010Prop49
280
     0
102
RTVSPost2010PropOp49
 70
     1
102
RTVSPost2010Prop50
 90
       50
102
RTVSPost2010PropOp50
 70
     1
102
RTVSPost2010Prop51ColorIndex
 90
      256
102
RTVSPost2010Prop51ColorRGB
 90
-16777216
102
RTVSPost2010PropOp51
 70
     0
102
RTVSPost2010Prop52
140
1.0
102
RTVSPost2010PropOp52
 70
     0
102
RTVSPost2010Prop53
 90
        2
102
RTVSPost2010PropOp53
 70
     1
102
RTVSPost2010Prop54
  1
strokes_ogs.tif
102
RTVSPost2010PropOp54
 70
     1
102
RTVSPost2010Prop55
280
     0
102
RTVSPost2010PropOp55
 70
     1
102
RTVSPost2010Prop56
140
1.0
102
RTVSPost2010PropOp56
 70
     1
102
RTVSPost2010Prop57
140
1.0
102
RTVSPost2010PropOp57
 70
     1
102
RTVSPropertyOp0
 70
     1
102
RTVSPropertyOp1
 70
     1
102
RTVSPropertyOp2
 70
     1
102
RTVSPropertyOp3
 70
     1
102
RTVSPropertyOp4
 70
     1
102
RTVSPropertyOp5
 70
     1
102
RTVSPropertyOp6
 70
     1
102
RTVSPropertyOp7
 70
     1
102
RTVSPropertyOp8
 70
     1
102
RTVSPropertyOp9
 70
     1
102
RTVSPropertyOp10
 70
     1
102
RTVSPropertyOp11
 70
     1
102
RTVSPropertyOp12
 70
     1
102
RTVSPropertyOp13
 70
     1
102
RTVSPropertyOp14
 70
     1
102
RTVSPropertyOp15
 70
     1
102
RTVSPropertyOp16
 70
     1
102
RTVSPropertyOp17
 70
     1
102
RTVSPropertyOp18
 70
     1
102
RTVSPropertyOp19
 70
     1
102
RTVSPropertyOp20
 70
     1
102
RTVSPropertyOp21
 70
     1
102
RTVSPropertyOp22
 70
     1
102
RTVSPropertyOp23
 70
     1
102
RTVSPropertyOp24
 70
     1
102
RTVSPropertyOp25
 70
     1
102
RTVSPropertyOp26
 70
     1
102
RTVSPropertyOp27
 70
     1
102
RTVSPropertyOp28
 70
     1
102
RTVSPropertyOp29
 70
     1
102
RTVSPropertyOp30
 70
     1
102
RTVSPropertyOp31
 70
     1
102
RTVSPropertyOp32
 70
     1
102
RTVSPropertyOp33
 70
     1
102
RTVSPropertyOp34
 70
     1
102
RTVSPropertyOp35
 70
     1
102
RTVSPropertyOp36
 70
     1
102
RTVSPropertyOp37
 70
     1
102
RTVSPropertyOp38
 70
     1
102
RTVSPropertyOp39
 70
     1
102
RTVSPropertyOp40
 70
     1
102
RTVSPropertyOp41
 70
     1
102
RTVSPropertyOp42
 70
     1
102
RTVSPropertyOp43
 70
     1
102
RTVSPropertyOp44
 70
     1
102
RTVSPropertyOp45
 70
     1
102
RTVSPropertyOp46
 70
     1
102
RTVSPropertyOp47
 70
     1
102
RTVSPropertyOp48
 70
     1
102
RTVSPropertyOp49
 70
     1
102
RTVSPropertyOp50
 70
     1
102
RTVSPropertyOp51
 70
     0
102
RTVSPropertyOp52
 70
     0
102
RTVSPropertyOp53
 70
     1
102
RTVSPropertyOp54
 70
     1
102
RTVSPropertyOp55
 70
     1
102
RTVSPropertyOp56
 70
     1
102
RTVSPropertyOp57
 70
     1
102
RTVSPropertyOp58
 70
     1
102
RTVSPropertyOp59
 70
     1
102
RTVSPropertyOp60
 70
     1
102
RTVSPropertyOp61
 70
     1
102
RTVSPropertyOp62
 70
     1
  0
XRECORD
  5
B979
102
{ACAD_REACTORS
330
B978
102
}
330
B978
100
AcDbXrecord
280
     1
102
RTVSPost2010Prop28
280
     0
102
RTVSPost2010PropOp28
 70
     1
102
RTVSPost2010Prop29
280
     1
102
RTVSPost2010PropOp29
 70
     1
102
RTVSPost2010Prop30
280
     1
102
RTVSPost2010PropOp30
 70
     1
102
RTVSPost2010Prop31
280
     0
102
RTVSPost2010PropOp31
 70
     1
102
RTVSPost2010Prop32
280
     0
102
RTVSPost2010PropOp32
 70
     1
102
RTVSPost2010Prop33
280
     0
102
RTVSPost2010PropOp33
 70
     1
102
RTVSPost2010Prop34
280
     0
102
RTVSPost2010PropOp34
 70
     1
102
RTVSPost2010Prop35
280
     0
102
RTVSPost2010PropOp35
 70
     1
102
RTVSPost2010Prop36
280
     0
102
RTVSPost2010PropOp36
 70
     1
102
RTVSPost2010Prop37
 90
       50
102
RTVSPost2010PropOp37
 70
     1
102
RTVSPost2010Prop38
140
0.0
102
RTVSPost2010PropOp38
 70
     1
102
RTVSPost2010Prop39
140
1.0
102
RTVSPost2010PropOp39
 70
     1
102
RTVSPost2010Prop40
 90
        0
102
RTVSPost2010PropOp40
 70
     1
102
RTVSPost2010Prop41ColorIndex
 90
       18
102
RTVSPost2010Prop41ColorRGB
 90
        0
102
RTVSPost2010PropOp41
 70
     1
102
RTVSPost2010Prop42
 90
       50
102
RTVSPost2010PropOp42
 70
     1
102
RTVSPost2010Prop43
 90
        3
102
RTVSPost2010PropOp43
 70
     1
102
RTVSPost2010Prop44ColorIndex
 90
        5
102
RTVSPost2010Prop44ColorRGB
 90
      255
102
RTVSPost2010PropOp44
 70
     1
102
RTVSPost2010Prop45
280
     0
102
RTVSPost2010PropOp45
 70
     1
102
RTVSPost2010Prop46
 90
       50
102
RTVSPost2010PropOp46
 70
     1
102
RTVSPost2010Prop47
 90
       50
102
RTVSPost2010PropOp47
 70
     1
102
RTVSPost2010Prop48
 90
       50
102
RTVSPost2010PropOp48
 70
     1
102
RTVSPost2010Prop49
280
     0
102
RTVSPost2010PropOp49
 70
     1
102
RTVSPost2010Prop50
 90
       50
102
RTVSPost2010PropOp50
 70
     1
102
RTVSPost2010Prop51ColorIndex
 90
      256
102
RTVSPost2010Prop51ColorRGB
 90
-16777216
102
RTVSPost2010PropOp51
 70
     0
102
RTVSPost2010Prop52
140
1.0
102
RTVSPost2010PropOp52
 70
     0
102
RTVSPost2010Prop53
 90
        2
102
RTVSPost2010PropOp53
 70
     1
102
RTVSPost2010Prop54
  1
strokes_ogs.tif
102
RTVSPost2010PropOp54
 70
     1
102
RTVSPost2010Prop55
280
     0
102
RTVSPost2010PropOp55
 70
     1
102
RTVSPost2010Prop56
140
1.0
102
RTVSPost2010PropOp56
 70
     1
102
RTVSPost2010Prop57
140
1.0
102
RTVSPost2010PropOp57
 70
     1
102
RTVSPropertyOp0
 70
     1
102
RTVSPropertyOp1
 70
     1
102
RTVSPropertyOp2
 70
     1
102
RTVSPropertyOp3
 70
     1
102
RTVSPropertyOp4
 70
     1
102
RTVSPropertyOp5
 70
     1
102
RTVSPropertyOp6
 70
     1
102
RTVSPropertyOp7
 70
     1
102
RTVSPropertyOp8
 70
     1
102
RTVSPropertyOp9
 70
     1
102
RTVSPropertyOp10
 70
     1
102
RTVSPropertyOp11
 70
     1
102
RTVSPropertyOp12
 70
     1
102
RTVSPropertyOp13
 70
     1
102
RTVSPropertyOp14
 70
     1
102
RTVSPropertyOp15
 70
     1
102
RTVSPropertyOp16
 70
     1
102
RTVSPropertyOp17
 70
     1
102
RTVSPropertyOp18
 70
     1
102
RTVSPropertyOp19
 70
     1
102
RTVSPropertyOp20
 70
     1
102
RTVSPropertyOp21
 70
     1
102
RTVSPropertyOp22
 70
     1
102
RTVSPropertyOp23
 70
     1
102
RTVSPropertyOp24
 70
     1
102
RTVSPropertyOp25
 70
     1
102
RTVSPropertyOp26
 70
     1
102
RTVSPropertyOp27
 70
     1
102
RTVSPropertyOp28
 70
     1
102
RTVSPropertyOp29
 70
     1
102
RTVSPropertyOp30
 70
     1
102
RTVSPropertyOp31
 70
     1
102
RTVSPropertyOp32
 70
     1
102
RTVSPropertyOp33
 70
     1
102
RTVSPropertyOp34
 70
     1
102
RTVSPropertyOp35
 70
     1
102
RTVSPropertyOp36
 70
     1
102
RTVSPropertyOp37
 70
     1
102
RTVSPropertyOp38
 70
     1
102
RTVSPropertyOp39
 70
     1
102
RTVSPropertyOp40
 70
     1
102
RTVSPropertyOp41
 70
     1
102
RTVSPropertyOp42
 70
     1
102
RTVSPropertyOp43
 70
     1
102
RTVSPropertyOp44
 70
     1
102
RTVSPropertyOp45
 70
     1
102
RTVSPropertyOp46
 70
     1
102
RTVSPropertyOp47
 70
     1
102
RTVSPropertyOp48
 70
     1
102
RTVSPropertyOp49
 70
     1
102
RTVSPropertyOp50
 70
     1
102
RTVSPropertyOp51
 70
     0
102
RTVSPropertyOp52
 70
     0
102
RTVSPropertyOp53
 70
     1
102
RTVSPropertyOp54
 70
     1
102
RTVSPropertyOp55
 70
     1
102
RTVSPropertyOp56
 70
     1
102
RTVSPropertyOp57
 70
     1
102
RTVSPropertyOp58
 70
     1
102
RTVSPropertyOp59
 70
     1
102
RTVSPropertyOp60
 70
     1
102
RTVSPropertyOp61
 70
     1
102
RTVSPropertyOp62
 70
     1
  0
XRECORD
  5
B98D
102
{ACAD_REACTORS
330
B98C
102
}
330
B98C
100
AcDbXrecord
280
     1
102
RTVSPost2010Prop28
280
     0
102
RTVSPost2010PropOp28
 70
     1
102
RTVSPost2010Prop29
280
     1
102
RTVSPost2010PropOp29
 70
     1
102
RTVSPost2010Prop30
280
     1
102
RTVSPost2010PropOp30
 70
     1
102
RTVSPost2010Prop31
280
     0
102
RTVSPost2010PropOp31
 70
     1
102
RTVSPost2010Prop32
280
     0
102
RTVSPost2010PropOp32
 70
     1
102
RTVSPost2010Prop33
280
     0
102
RTVSPost2010PropOp33
 70
     1
102
RTVSPost2010Prop34
280
     0
102
RTVSPost2010PropOp34
 70
     1
102
RTVSPost2010Prop35
280
     0
102
RTVSPost2010PropOp35
 70
     1
102
RTVSPost2010Prop36
280
     0
102
RTVSPost2010PropOp36
 70
     1
102
RTVSPost2010Prop37
 90
       50
102
RTVSPost2010PropOp37
 70
     1
102
RTVSPost2010Prop38
140
0.0
102
RTVSPost2010PropOp38
 70
     1
102
RTVSPost2010Prop39
140
1.0
102
RTVSPost2010PropOp39
 70
     1
102
RTVSPost2010Prop40
 90
        0
102
RTVSPost2010PropOp40
 70
     1
102
RTVSPost2010Prop41ColorIndex
 90
       18
102
RTVSPost2010Prop41ColorRGB
 90
        0
102
RTVSPost2010PropOp41
 70
     1
102
RTVSPost2010Prop42
 90
       50
102
RTVSPost2010PropOp42
 70
     1
102
RTVSPost2010Prop43
 90
        3
102
RTVSPost2010PropOp43
 70
     1
102
RTVSPost2010Prop44ColorIndex
 90
        5
102
RTVSPost2010Prop44ColorRGB
 90
      255
102
RTVSPost2010PropOp44
 70
     1
102
RTVSPost2010Prop45
280
     0
102
RTVSPost2010PropOp45
 70
     1
102
RTVSPost2010Prop46
 90
       50
102
RTVSPost2010PropOp46
 70
     1
102
RTVSPost2010Prop47
 90
       50
102
RTVSPost2010PropOp47
 70
     1
102
RTVSPost2010Prop48
 90
       50
102
RTVSPost2010PropOp48
 70
     1
102
RTVSPost2010Prop49
280
     0
102
RTVSPost2010PropOp49
 70
     1
102
RTVSPost2010Prop50
 90
       50
102
RTVSPost2010PropOp50
 70
     1
102
RTVSPost2010Prop51ColorIndex
 90
      256
102
RTVSPost2010Prop51ColorRGB
 90
-16777216
102
RTVSPost2010PropOp51
 70
     0
102
RTVSPost2010Prop52
140
1.0
102
RTVSPost2010PropOp52
 70
     0
102
RTVSPost2010Prop53
 90
        2
102
RTVSPost2010PropOp53
 70
     1
102
RTVSPost2010Prop54
  1
strokes_ogs.tif
102
RTVSPost2010PropOp54
 70
     1
102
RTVSPost2010Prop55
280
     0
102
RTVSPost2010PropOp55
 70
     1
102
RTVSPost2010Prop56
140
1.0
102
RTVSPost2010PropOp56
 70
     1
102
RTVSPost2010Prop57
140
1.0
102
RTVSPost2010PropOp57
 70
     1
102
RTVSPropertyOp0
 70
     0
102
RTVSPropertyOp1
 70
     0
102
RTVSPropertyOp2
 70
     0
102
RTVSPropertyOp3
 70
     0
102
RTVSPropertyOp4
 70
     0
102
RTVSPropertyOp5
 70
     0
102
RTVSPropertyOp6
 70
     0
102
RTVSPropertyOp7
 70
     0
102
RTVSPropertyOp8
 70
     0
102
RTVSPropertyOp9
 70
     0
102
RTVSPropertyOp10
 70
     0
102
RTVSPropertyOp11
 70
     0
102
RTVSPropertyOp12
 70
     0
102
RTVSPropertyOp13
 70
     0
102
RTVSPropertyOp14
 70
     2
102
RTVSPropertyOp15
 70
     0
102
RTVSPropertyOp16
 70
     0
102
RTVSPropertyOp17
 70
     0
102
RTVSPropertyOp18
 70
     0
102
RTVSPropertyOp19
 70
     0
102
RTVSPropertyOp20
 70
     0
102
RTVSPropertyOp21
 70
     0
102
RTVSPropertyOp22
 70
     0
102
RTVSPropertyOp23
 70
     0
102
RTVSPropertyOp24
 70
     0
102
RTVSPropertyOp25
 70
     0
102
RTVSPropertyOp26
 70
     0
102
RTVSPropertyOp27
 70
     0
102
RTVSPropertyOp28
 70
     1
102
RTVSPropertyOp29
 70
     1
102
RTVSPropertyOp30
 70
     1
102
RTVSPropertyOp31
 70
     1
102
RTVSPropertyOp32
 70
     1
102
RTVSPropertyOp33
 70
     1
102
RTVSPropertyOp34
 70
     1
102
RTVSPropertyOp35
 70
     1
102
RTVSPropertyOp36
 70
     1
102
RTVSPropertyOp37
 70
     1
102
RTVSPropertyOp38
 70
     1
102
RTVSPropertyOp39
 70
     1
102
RTVSPropertyOp40
 70
     1
102
RTVSPropertyOp41
 70
     1
102
RTVSPropertyOp42
 70
     1
102
RTVSPropertyOp43
 70
     1
102
RTVSPropertyOp44
 70
     1
102
RTVSPropertyOp45
 70
     1
102
RTVSPropertyOp46
 70
     1
102
RTVSPropertyOp47
 70
     1
102
RTVSPropertyOp48
 70
     1
102
RTVSPropertyOp49
 70
     1
102
RTVSPropertyOp50
 70
     1
102
RTVSPropertyOp51
 70
     0
102
RTVSPropertyOp52
 70
     0
102
RTVSPropertyOp53
 70
     1
102
RTVSPropertyOp54
 70
     1
102
RTVSPropertyOp55
 70
     1
102
RTVSPropertyOp56
 70
     1
102
RTVSPropertyOp57
 70
     1
102
RTVSPropertyOp58
 70
     1
102
RTVSPropertyOp59
 70
     1
102
RTVSPropertyOp60
 70
     1
102
RTVSPropertyOp61
 70
     1
102
RTVSPropertyOp62
 70
     1
  0
XRECORD
  5
B985
102
{ACAD_REACTORS
330
B984
102
}
330
B984
100
AcDbXrecord
280
     1
102
RTVSPost2010Prop28
280
     0
102
RTVSPost2010PropOp28
 70
     1
102
RTVSPost2010Prop29
280
     1
102
RTVSPost2010PropOp29
 70
     1
102
RTVSPost2010Prop30
280
     1
102
RTVSPost2010PropOp30
 70
     1
102
RTVSPost2010Prop31
280
     0
102
RTVSPost2010PropOp31
 70
     1
102
RTVSPost2010Prop32
280
     0
102
RTVSPost2010PropOp32
 70
     1
102
RTVSPost2010Prop33
280
     0
102
RTVSPost2010PropOp33
 70
     1
102
RTVSPost2010Prop34
280
     0
102
RTVSPost2010PropOp34
 70
     1
102
RTVSPost2010Prop35
280
     0
102
RTVSPost2010PropOp35
 70
     1
102
RTVSPost2010Prop36
280
     0
102
RTVSPost2010PropOp36
 70
     1
102
RTVSPost2010Prop37
 90
       50
102
RTVSPost2010PropOp37
 70
     1
102
RTVSPost2010Prop38
140
0.0
102
RTVSPost2010PropOp38
 70
     1
102
RTVSPost2010Prop39
140
1.0
102
RTVSPost2010PropOp39
 70
     1
102
RTVSPost2010Prop40
 90
        0
102
RTVSPost2010PropOp40
 70
     1
102
RTVSPost2010Prop41ColorIndex
 90
       18
102
RTVSPost2010Prop41ColorRGB
 90
        0
102
RTVSPost2010PropOp41
 70
     1
102
RTVSPost2010Prop42
 90
       50
102
RTVSPost2010PropOp42
 70
     1
102
RTVSPost2010Prop43
 90
        3
102
RTVSPost2010PropOp43
 70
     1
102
RTVSPost2010Prop44ColorIndex
 90
        5
102
RTVSPost2010Prop44ColorRGB
 90
      255
102
RTVSPost2010PropOp44
 70
     1
102
RTVSPost2010Prop45
280
     0
102
RTVSPost2010PropOp45
 70
     1
102
RTVSPost2010Prop46
 90
       50
102
RTVSPost2010PropOp46
 70
     1
102
RTVSPost2010Prop47
 90
       50
102
RTVSPost2010PropOp47
 70
     1
102
RTVSPost2010Prop48
 90
       50
102
RTVSPost2010PropOp48
 70
     1
102
RTVSPost2010Prop49
280
     0
102
RTVSPost2010PropOp49
 70
     1
102
RTVSPost2010Prop50
 90
       50
102
RTVSPost2010PropOp50
 70
     1
102
RTVSPost2010Prop51ColorIndex
 90
      256
102
RTVSPost2010Prop51ColorRGB
 90
-16777216
102
RTVSPost2010PropOp51
 70
     0
102
RTVSPost2010Prop52
140
1.0
102
RTVSPost2010PropOp52
 70
     0
102
RTVSPost2010Prop53
 90
        2
102
RTVSPost2010PropOp53
 70
     1
102
RTVSPost2010Prop54
  1
strokes_ogs.tif
102
RTVSPost2010PropOp54
 70
     1
102
RTVSPost2010Prop55
280
     0
102
RTVSPost2010PropOp55
 70
     1
102
RTVSPost2010Prop56
140
1.0
102
RTVSPost2010PropOp56
 70
     1
102
RTVSPost2010Prop57
140
1.0
102
RTVSPost2010PropOp57
 70
     1
102
RTVSPropertyOp0
 70
     1
102
RTVSPropertyOp1
 70
     1
102
RTVSPropertyOp2
 70
     1
102
RTVSPropertyOp3
 70
     1
102
RTVSPropertyOp4
 70
     1
102
RTVSPropertyOp5
 70
     1
102
RTVSPropertyOp6
 70
     1
102
RTVSPropertyOp7
 70
     1
102
RTVSPropertyOp8
 70
     1
102
RTVSPropertyOp9
 70
     1
102
RTVSPropertyOp10
 70
     1
102
RTVSPropertyOp11
 70
     1
102
RTVSPropertyOp12
 70
     1
102
RTVSPropertyOp13
 70
     1
102
RTVSPropertyOp14
 70
     1
102
RTVSPropertyOp15
 70
     1
102
RTVSPropertyOp16
 70
     1
102
RTVSPropertyOp17
 70
     1
102
RTVSPropertyOp18
 70
     1
102
RTVSPropertyOp19
 70
     1
102
RTVSPropertyOp20
 70
     1
102
RTVSPropertyOp21
 70
     1
102
RTVSPropertyOp22
 70
     1
102
RTVSPropertyOp23
 70
     1
102
RTVSPropertyOp24
 70
     1
102
RTVSPropertyOp25
 70
     1
102
RTVSPropertyOp26
 70
     1
102
RTVSPropertyOp27
 70
     1
102
RTVSPropertyOp28
 70
     1
102
RTVSPropertyOp29
 70
     1
102
RTVSPropertyOp30
 70
     1
102
RTVSPropertyOp31
 70
     1
102
RTVSPropertyOp32
 70
     1
102
RTVSPropertyOp33
 70
     1
102
RTVSPropertyOp34
 70
     1
102
RTVSPropertyOp35
 70
     1
102
RTVSPropertyOp36
 70
     1
102
RTVSPropertyOp37
 70
     1
102
RTVSPropertyOp38
 70
     1
102
RTVSPropertyOp39
 70
     1
102
RTVSPropertyOp40
 70
     1
102
RTVSPropertyOp41
 70
     1
102
RTVSPropertyOp42
 70
     1
102
RTVSPropertyOp43
 70
     1
102
RTVSPropertyOp44
 70
     1
102
RTVSPropertyOp45
 70
     1
102
RTVSPropertyOp46
 70
     1
102
RTVSPropertyOp47
 70
     1
102
RTVSPropertyOp48
 70
     1
102
RTVSPropertyOp49
 70
     1
102
RTVSPropertyOp50
 70
     1
102
RTVSPropertyOp51
 70
     0
102
RTVSPropertyOp52
 70
     0
102
RTVSPropertyOp53
 70
     1
102
RTVSPropertyOp54
 70
     1
102
RTVSPropertyOp55
 70
     1
102
RTVSPropertyOp56
 70
     1
102
RTVSPropertyOp57
 70
     1
102
RTVSPropertyOp58
 70
     1
102
RTVSPropertyOp59
 70
     1
102
RTVSPropertyOp60
 70
     1
102
RTVSPropertyOp61
 70
     1
102
RTVSPropertyOp62
 70
     1
  0
XRECORD
  5
B98F
102
{ACAD_REACTORS
330
B98E
102
}
330
B98E
100
AcDbXrecord
280
     1
102
RTVSPost2010Prop28
280
     0
102
RTVSPost2010PropOp28
 70
     1
102
RTVSPost2010Prop29
280
     1
102
RTVSPost2010PropOp29
 70
     1
102
RTVSPost2010Prop30
280
     1
102
RTVSPost2010PropOp30
 70
     1
102
RTVSPost2010Prop31
280
     0
102
RTVSPost2010PropOp31
 70
     1
102
RTVSPost2010Prop32
280
     0
102
RTVSPost2010PropOp32
 70
     1
102
RTVSPost2010Prop33
280
     0
102
RTVSPost2010PropOp33
 70
     1
102
RTVSPost2010Prop34
280
     0
102
RTVSPost2010PropOp34
 70
     1
102
RTVSPost2010Prop35
280
     0
102
RTVSPost2010PropOp35
 70
     1
102
RTVSPost2010Prop36
280
     0
102
RTVSPost2010PropOp36
 70
     1
102
RTVSPost2010Prop37
 90
       50
102
RTVSPost2010PropOp37
 70
     1
102
RTVSPost2010Prop38
140
0.0
102
RTVSPost2010PropOp38
 70
     1
102
RTVSPost2010Prop39
140
1.0
102
RTVSPost2010PropOp39
 70
     1
102
RTVSPost2010Prop40
 90
        0
102
RTVSPost2010PropOp40
 70
     1
102
RTVSPost2010Prop41ColorIndex
 90
       18
102
RTVSPost2010Prop41ColorRGB
 90
        0
102
RTVSPost2010PropOp41
 70
     1
102
RTVSPost2010Prop42
 90
       50
102
RTVSPost2010PropOp42
 70
     1
102
RTVSPost2010Prop43
 90
        3
102
RTVSPost2010PropOp43
 70
     1
102
RTVSPost2010Prop44ColorIndex
 90
        5
102
RTVSPost2010Prop44ColorRGB
 90
      255
102
RTVSPost2010PropOp44
 70
     1
102
RTVSPost2010Prop45
280
     0
102
RTVSPost2010PropOp45
 70
     1
102
RTVSPost2010Prop46
 90
       50
102
RTVSPost2010PropOp46
 70
     1
102
RTVSPost2010Prop47
 90
       50
102
RTVSPost2010PropOp47
 70
     1
102
RTVSPost2010Prop48
 90
       50
102
RTVSPost2010PropOp48
 70
     1
102
RTVSPost2010Prop49
280
     0
102
RTVSPost2010PropOp49
 70
     1
102
RTVSPost2010Prop50
 90
       50
102
RTVSPost2010PropOp50
 70
     1
102
RTVSPost2010Prop51ColorIndex
 90
      256
102
RTVSPost2010Prop51ColorRGB
 90
-16777216
102
RTVSPost2010PropOp51
 70
     0
102
RTVSPost2010Prop52
140
1.0
102
RTVSPost2010PropOp52
 70
     0
102
RTVSPost2010Prop53
 90
        2
102
RTVSPost2010PropOp53
 70
     1
102
RTVSPost2010Prop54
  1
strokes_ogs.tif
102
RTVSPost2010PropOp54
 70
     1
102
RTVSPost2010Prop55
280
     0
102
RTVSPost2010PropOp55
 70
     1
102
RTVSPost2010Prop56
140
1.0
102
RTVSPost2010PropOp56
 70
     1
102
RTVSPost2010Prop57
140
1.0
102
RTVSPost2010PropOp57
 70
     1
102
RTVSPropertyOp0
 70
     0
102
RTVSPropertyOp1
 70
     0
102
RTVSPropertyOp2
 70
     0
102
RTVSPropertyOp3
 70
     0
102
RTVSPropertyOp4
 70
     0
102
RTVSPropertyOp5
 70
     0
102
RTVSPropertyOp6
 70
     0
102
RTVSPropertyOp7
 70
     0
102
RTVSPropertyOp8
 70
     0
102
RTVSPropertyOp9
 70
     0
102
RTVSPropertyOp10
 70
     0
102
RTVSPropertyOp11
 70
     0
102
RTVSPropertyOp12
 70
     0
102
RTVSPropertyOp13
 70
     0
102
RTVSPropertyOp14
 70
     2
102
RTVSPropertyOp15
 70
     0
102
RTVSPropertyOp16
 70
     0
102
RTVSPropertyOp17
 70
     0
102
RTVSPropertyOp18
 70
     0
102
RTVSPropertyOp19
 70
     0
102
RTVSPropertyOp20
 70
     0
102
RTVSPropertyOp21
 70
     0
102
RTVSPropertyOp22
 70
     0
102
RTVSPropertyOp23
 70
     0
102
RTVSPropertyOp24
 70
     0
102
RTVSPropertyOp25
 70
     0
102
RTVSPropertyOp26
 70
     0
102
RTVSPropertyOp27
 70
     0
102
RTVSPropertyOp28
 70
     1
102
RTVSPropertyOp29
 70
     1
102
RTVSPropertyOp30
 70
     1
102
RTVSPropertyOp31
 70
     1
102
RTVSPropertyOp32
 70
     1
102
RTVSPropertyOp33
 70
     1
102
RTVSPropertyOp34
 70
     1
102
RTVSPropertyOp35
 70
     1
102
RTVSPropertyOp36
 70
     1
102
RTVSPropertyOp37
 70
     1
102
RTVSPropertyOp38
 70
     1
102
RTVSPropertyOp39
 70
     1
102
RTVSPropertyOp40
 70
     1
102
RTVSPropertyOp41
 70
     1
102
RTVSPropertyOp42
 70
     1
102
RTVSPropertyOp43
 70
     1
102
RTVSPropertyOp44
 70
     1
102
RTVSPropertyOp45
 70
     1
102
RTVSPropertyOp46
 70
     1
102
RTVSPropertyOp47
 70
     1
102
RTVSPropertyOp48
 70
     1
102
RTVSPropertyOp49
 70
     1
102
RTVSPropertyOp50
 70
     1
102
RTVSPropertyOp51
 70
     0
102
RTVSPropertyOp52
 70
     0
102
RTVSPropertyOp53
 70
     1
102
RTVSPropertyOp54
 70
     1
102
RTVSPropertyOp55
 70
     1
102
RTVSPropertyOp56
 70
     1
102
RTVSPropertyOp57
 70
     1
102
RTVSPropertyOp58
 70
     1
102
RTVSPropertyOp59
 70
     1
102
RTVSPropertyOp60
 70
     1
102
RTVSPropertyOp61
 70
     1
102
RTVSPropertyOp62
 70
     1
  0
XRECORD
  5
B97D
102
{ACAD_REACTORS
330
B97C
102
}
330
B97C
100
AcDbXrecord
280
     1
102
RTVSPost2010Prop28
280
     0
102
RTVSPost2010PropOp28
 70
     1
102
RTVSPost2010Prop29
280
     1
102
RTVSPost2010PropOp29
 70
     1
102
RTVSPost2010Prop30
280
     1
102
RTVSPost2010PropOp30
 70
     1
102
RTVSPost2010Prop31
280
     0
102
RTVSPost2010PropOp31
 70
     1
102
RTVSPost2010Prop32
280
     0
102
RTVSPost2010PropOp32
 70
     1
102
RTVSPost2010Prop33
280
     0
102
RTVSPost2010PropOp33
 70
     1
102
RTVSPost2010Prop34
280
     0
102
RTVSPost2010PropOp34
 70
     1
102
RTVSPost2010Prop35
280
     0
102
RTVSPost2010PropOp35
 70
     1
102
RTVSPost2010Prop36
280
     0
102
RTVSPost2010PropOp36
 70
     1
102
RTVSPost2010Prop37
 90
       50
102
RTVSPost2010PropOp37
 70
     1
102
RTVSPost2010Prop38
140
0.0
102
RTVSPost2010PropOp38
 70
     1
102
RTVSPost2010Prop39
140
1.0
102
RTVSPost2010PropOp39
 70
     1
102
RTVSPost2010Prop40
 90
        0
102
RTVSPost2010PropOp40
 70
     1
102
RTVSPost2010Prop41ColorIndex
 90
       18
102
RTVSPost2010Prop41ColorRGB
 90
        0
102
RTVSPost2010PropOp41
 70
     1
102
RTVSPost2010Prop42
 90
       50
102
RTVSPost2010PropOp42
 70
     1
102
RTVSPost2010Prop43
 90
        3
102
RTVSPost2010PropOp43
 70
     1
102
RTVSPost2010Prop44ColorIndex
 90
        5
102
RTVSPost2010Prop44ColorRGB
 90
      255
102
RTVSPost2010PropOp44
 70
     1
102
RTVSPost2010Prop45
280
     0
102
RTVSPost2010PropOp45
 70
     1
102
RTVSPost2010Prop46
 90
       50
102
RTVSPost2010PropOp46
 70
     1
102
RTVSPost2010Prop47
 90
       50
102
RTVSPost2010PropOp47
 70
     1
102
RTVSPost2010Prop48
 90
       50
102
RTVSPost2010PropOp48
 70
     1
102
RTVSPost2010Prop49
280
     0
102
RTVSPost2010PropOp49
 70
     1
102
RTVSPost2010Prop50
 90
       50
102
RTVSPost2010PropOp50
 70
     1
102
RTVSPost2010Prop51ColorIndex
 90
      256
102
RTVSPost2010Prop51ColorRGB
 90
-16777216
102
RTVSPost2010PropOp51
 70
     0
102
RTVSPost2010Prop52
140
1.0
102
RTVSPost2010PropOp52
 70
     0
102
RTVSPost2010Prop53
 90
        2
102
RTVSPost2010PropOp53
 70
     1
102
RTVSPost2010Prop54
  1
strokes_ogs.tif
102
RTVSPost2010PropOp54
 70
     1
102
RTVSPost2010Prop55
280
     0
102
RTVSPost2010PropOp55
 70
     1
102
RTVSPost2010Prop56
140
1.0
102
RTVSPost2010PropOp56
 70
     1
102
RTVSPost2010Prop57
140
1.0
102
RTVSPost2010PropOp57
 70
     1
102
RTVSPropertyOp0
 70
     1
102
RTVSPropertyOp1
 70
     1
102
RTVSPropertyOp2
 70
     1
102
RTVSPropertyOp3
 70
     1
102
RTVSPropertyOp4
 70
     1
102
RTVSPropertyOp5
 70
     1
102
RTVSPropertyOp6
 70
     1
102
RTVSPropertyOp7
 70
     1
102
RTVSPropertyOp8
 70
     1
102
RTVSPropertyOp9
 70
     1
102
RTVSPropertyOp10
 70
     1
102
RTVSPropertyOp11
 70
     1
102
RTVSPropertyOp12
 70
     1
102
RTVSPropertyOp13
 70
     1
102
RTVSPropertyOp14
 70
     1
102
RTVSPropertyOp15
 70
     1
102
RTVSPropertyOp16
 70
     1
102
RTVSPropertyOp17
 70
     1
102
RTVSPropertyOp18
 70
     1
102
RTVSPropertyOp19
 70
     1
102
RTVSPropertyOp20
 70
     1
102
RTVSPropertyOp21
 70
     1
102
RTVSPropertyOp22
 70
     1
102
RTVSPropertyOp23
 70
     1
102
RTVSPropertyOp24
 70
     1
102
RTVSPropertyOp25
 70
     1
102
RTVSPropertyOp26
 70
     1
102
RTVSPropertyOp27
 70
     1
102
RTVSPropertyOp28
 70
     1
102
RTVSPropertyOp29
 70
     1
102
RTVSPropertyOp30
 70
     1
102
RTVSPropertyOp31
 70
     1
102
RTVSPropertyOp32
 70
     1
102
RTVSPropertyOp33
 70
     1
102
RTVSPropertyOp34
 70
     1
102
RTVSPropertyOp35
 70
     1
102
RTVSPropertyOp36
 70
     1
102
RTVSPropertyOp37
 70
     1
102
RTVSPropertyOp38
 70
     1
102
RTVSPropertyOp39
 70
     1
102
RTVSPropertyOp40
 70
     1
102
RTVSPropertyOp41
 70
     1
102
RTVSPropertyOp42
 70
     1
102
RTVSPropertyOp43
 70
     1
102
RTVSPropertyOp44
 70
     1
102
RTVSPropertyOp45
 70
     1
102
RTVSPropertyOp46
 70
     1
102
RTVSPropertyOp47
 70
     1
102
RTVSPropertyOp48
 70
     1
102
RTVSPropertyOp49
 70
     1
102
RTVSPropertyOp50
 70
     1
102
RTVSPropertyOp51
 70
     0
102
RTVSPropertyOp52
 70
     0
102
RTVSPropertyOp53
 70
     1
102
RTVSPropertyOp54
 70
     1
102
RTVSPropertyOp55
 70
     1
102
RTVSPropertyOp56
 70
     1
102
RTVSPropertyOp57
 70
     1
102
RTVSPropertyOp58
 70
     1
102
RTVSPropertyOp59
 70
     1
102
RTVSPropertyOp60
 70
     1
102
RTVSPropertyOp61
 70
     1
102
RTVSPropertyOp62
 70
     1
  0
XRECORD
  5
B99B
102
{ACAD_REACTORS
330
B99A
102
}
330
B99A
100
AcDbXrecord
280
     1
102
RTVSPost2010Prop28
280
     0
102
RTVSPost2010PropOp28
 70
     1
102
RTVSPost2010Prop29
280
     1
102
RTVSPost2010PropOp29
 70
     1
102
RTVSPost2010Prop30
280
     1
102
RTVSPost2010PropOp30
 70
     1
102
RTVSPost2010Prop31
280
     0
102
RTVSPost2010PropOp31
 70
     1
102
RTVSPost2010Prop32
280
     0
102
RTVSPost2010PropOp32
 70
     1
102
RTVSPost2010Prop33
280
     0
102
RTVSPost2010PropOp33
 70
     1
102
RTVSPost2010Prop34
280
     0
102
RTVSPost2010PropOp34
 70
     1
102
RTVSPost2010Prop35
280
     0
102
RTVSPost2010PropOp35
 70
     1
102
RTVSPost2010Prop36
280
     0
102
RTVSPost2010PropOp36
 70
     1
102
RTVSPost2010Prop37
 90
       50
102
RTVSPost2010PropOp37
 70
     1
102
RTVSPost2010Prop38
140
0.0
102
RTVSPost2010PropOp38
 70
     1
102
RTVSPost2010Prop39
140
1.0
102
RTVSPost2010PropOp39
 70
     1
102
RTVSPost2010Prop40
 90
        0
102
RTVSPost2010PropOp40
 70
     1
102
RTVSPost2010Prop41ColorIndex
 90
       18
102
RTVSPost2010Prop41ColorRGB
 90
        0
102
RTVSPost2010PropOp41
 70
     1
102
RTVSPost2010Prop42
 90
       50
102
RTVSPost2010PropOp42
 70
     1
102
RTVSPost2010Prop43
 90
        3
102
RTVSPost2010PropOp43
 70
     1
102
RTVSPost2010Prop44ColorIndex
 90
        5
102
RTVSPost2010Prop44ColorRGB
 90
      255
102
RTVSPost2010PropOp44
 70
     1
102
RTVSPost2010Prop45
280
     0
102
RTVSPost2010PropOp45
 70
     1
102
RTVSPost2010Prop46
 90
       50
102
RTVSPost2010PropOp46
 70
     1
102
RTVSPost2010Prop47
 90
       50
102
RTVSPost2010PropOp47
 70
     1
102
RTVSPost2010Prop48
 90
       50
102
RTVSPost2010PropOp48
 70
     1
102
RTVSPost2010Prop49
280
     0
102
RTVSPost2010PropOp49
 70
     1
102
RTVSPost2010Prop50
 90
       50
102
RTVSPost2010PropOp50
 70
     1
102
RTVSPost2010Prop51ColorIndex
 90
      256
102
RTVSPost2010Prop51ColorRGB
 90
-16777216
102
RTVSPost2010PropOp51
 70
     0
102
RTVSPost2010Prop52
140
1.0
102
RTVSPost2010PropOp52
 70
     0
102
RTVSPost2010Prop53
 90
        2
102
RTVSPost2010PropOp53
 70
     1
102
RTVSPost2010Prop54
  1
strokes_ogs.tif
102
RTVSPost2010PropOp54
 70
     1
102
RTVSPost2010Prop55
280
     0
102
RTVSPost2010PropOp55
 70
     1
102
RTVSPost2010Prop56
140
1.0
102
RTVSPost2010PropOp56
 70
     1
102
RTVSPost2010Prop57
140
1.0
102
RTVSPost2010PropOp57
 70
     1
102
RTVSPropertyOp0
 70
     1
102
RTVSPropertyOp1
 70
     1
102
RTVSPropertyOp2
 70
     1
102
RTVSPropertyOp3
 70
     1
102
RTVSPropertyOp4
 70
     1
102
RTVSPropertyOp5
 70
     1
102
RTVSPropertyOp6
 70
     1
102
RTVSPropertyOp7
 70
     1
102
RTVSPropertyOp8
 70
     1
102
RTVSPropertyOp9
 70
     1
102
RTVSPropertyOp10
 70
     1
102
RTVSPropertyOp11
 70
     1
102
RTVSPropertyOp12
 70
     1
102
RTVSPropertyOp13
 70
     1
102
RTVSPropertyOp14
 70
     1
102
RTVSPropertyOp15
 70
     1
102
RTVSPropertyOp16
 70
     1
102
RTVSPropertyOp17
 70
     1
102
RTVSPropertyOp18
 70
     1
102
RTVSPropertyOp19
 70
     1
102
RTVSPropertyOp20
 70
     1
102
RTVSPropertyOp21
 70
     1
102
RTVSPropertyOp22
 70
     1
102
RTVSPropertyOp23
 70
     1
102
RTVSPropertyOp24
 70
     1
102
RTVSPropertyOp25
 70
     1
102
RTVSPropertyOp26
 70
     1
102
RTVSPropertyOp27
 70
     1
102
RTVSPropertyOp28
 70
     1
102
RTVSPropertyOp29
 70
     1
102
RTVSPropertyOp30
 70
     1
102
RTVSPropertyOp31
 70
     1
102
RTVSPropertyOp32
 70
     1
102
RTVSPropertyOp33
 70
     1
102
RTVSPropertyOp34
 70
     1
102
RTVSPropertyOp35
 70
     1
102
RTVSPropertyOp36
 70
     1
102
RTVSPropertyOp37
 70
     1
102
RTVSPropertyOp38
 70
     1
102
RTVSPropertyOp39
 70
     1
102
RTVSPropertyOp40
 70
     1
102
RTVSPropertyOp41
 70
     1
102
RTVSPropertyOp42
 70
     1
102
RTVSPropertyOp43
 70
     1
102
RTVSPropertyOp44
 70
     1
102
RTVSPropertyOp45
 70
     1
102
RTVSPropertyOp46
 70
     1
102
RTVSPropertyOp47
 70
     1
102
RTVSPropertyOp48
 70
     1
102
RTVSPropertyOp49
 70
     1
102
RTVSPropertyOp50
 70
     1
102
RTVSPropertyOp51
 70
     0
102
RTVSPropertyOp52
 70
     0
102
RTVSPropertyOp53
 70
     1
102
RTVSPropertyOp54
 70
     1
102
RTVSPropertyOp55
 70
     1
102
RTVSPropertyOp56
 70
     1
102
RTVSPropertyOp57
 70
     1
102
RTVSPropertyOp58
 70
     1
102
RTVSPropertyOp59
 70
     1
102
RTVSPropertyOp60
 70
     1
102
RTVSPropertyOp61
 70
     1
102
RTVSPropertyOp62
 70
     1
  0
XRECORD
  5
B999
102
{ACAD_REACTORS
330
B998
102
}
330
B998
100
AcDbXrecord
280
     1
102
RTVSPost2010Prop28
280
     0
102
RTVSPost2010PropOp28
 70
     1
102
RTVSPost2010Prop29
280
     1
102
RTVSPost2010PropOp29
 70
     1
102
RTVSPost2010Prop30
280
     1
102
RTVSPost2010PropOp30
 70
     1
102
RTVSPost2010Prop31
280
     0
102
RTVSPost2010PropOp31
 70
     1
102
RTVSPost2010Prop32
280
     0
102
RTVSPost2010PropOp32
 70
     1
102
RTVSPost2010Prop33
280
     0
102
RTVSPost2010PropOp33
 70
     1
102
RTVSPost2010Prop34
280
     0
102
RTVSPost2010PropOp34
 70
     1
102
RTVSPost2010Prop35
280
     0
102
RTVSPost2010PropOp35
 70
     1
102
RTVSPost2010Prop36
280
     0
102
RTVSPost2010PropOp36
 70
     1
102
RTVSPost2010Prop37
 90
       50
102
RTVSPost2010PropOp37
 70
     1
102
RTVSPost2010Prop38
140
0.0
102
RTVSPost2010PropOp38
 70
     1
102
RTVSPost2010Prop39
140
1.0
102
RTVSPost2010PropOp39
 70
     1
102
RTVSPost2010Prop40
 90
        0
102
RTVSPost2010PropOp40
 70
     1
102
RTVSPost2010Prop41ColorIndex
 90
       18
102
RTVSPost2010Prop41ColorRGB
 90
        0
102
RTVSPost2010PropOp41
 70
     1
102
RTVSPost2010Prop42
 90
       50
102
RTVSPost2010PropOp42
 70
     1
102
RTVSPost2010Prop43
 90
        3
102
RTVSPost2010PropOp43
 70
     1
102
RTVSPost2010Prop44ColorIndex
 90
        5
102
RTVSPost2010Prop44ColorRGB
 90
      255
102
RTVSPost2010PropOp44
 70
     1
102
RTVSPost2010Prop45
280
     0
102
RTVSPost2010PropOp45
 70
     1
102
RTVSPost2010Prop46
 90
       50
102
RTVSPost2010PropOp46
 70
     1
102
RTVSPost2010Prop47
 90
       50
102
RTVSPost2010PropOp47
 70
     1
102
RTVSPost2010Prop48
 90
       50
102
RTVSPost2010PropOp48
 70
     1
102
RTVSPost2010Prop49
280
     0
102
RTVSPost2010PropOp49
 70
     1
102
RTVSPost2010Prop50
 90
       50
102
RTVSPost2010PropOp50
 70
     1
102
RTVSPost2010Prop51ColorIndex
 90
      256
102
RTVSPost2010Prop51ColorRGB
 90
-16777216
102
RTVSPost2010PropOp51
 70
     0
102
RTVSPost2010Prop52
140
1.0
102
RTVSPost2010PropOp52
 70
     0
102
RTVSPost2010Prop53
 90
        2
102
RTVSPost2010PropOp53
 70
     1
102
RTVSPost2010Prop54
  1
strokes_ogs.tif
102
RTVSPost2010PropOp54
 70
     1
102
RTVSPost2010Prop55
280
     0
102
RTVSPost2010PropOp55
 70
     1
102
RTVSPost2010Prop56
140
1.0
102
RTVSPost2010PropOp56
 70
     1
102
RTVSPost2010Prop57
140
1.0
102
RTVSPost2010PropOp57
 70
     1
102
RTVSPropertyOp0
 70
     1
102
RTVSPropertyOp1
 70
     1
102
RTVSPropertyOp2
 70
     1
102
RTVSPropertyOp3
 70
     1
102
RTVSPropertyOp4
 70
     1
102
RTVSPropertyOp5
 70
     1
102
RTVSPropertyOp6
 70
     1
102
RTVSPropertyOp7
 70
     1
102
RTVSPropertyOp8
 70
     1
102
RTVSPropertyOp9
 70
     1
102
RTVSPropertyOp10
 70
     1
102
RTVSPropertyOp11
 70
     1
102
RTVSPropertyOp12
 70
     1
102
RTVSPropertyOp13
 70
     1
102
RTVSPropertyOp14
 70
     1
102
RTVSPropertyOp15
 70
     1
102
RTVSPropertyOp16
 70
     1
102
RTVSPropertyOp17
 70
     1
102
RTVSPropertyOp18
 70
     1
102
RTVSPropertyOp19
 70
     1
102
RTVSPropertyOp20
 70
     1
102
RTVSPropertyOp21
 70
     1
102
RTVSPropertyOp22
 70
     1
102
RTVSPropertyOp23
 70
     1
102
RTVSPropertyOp24
 70
     1
102
RTVSPropertyOp25
 70
     1
102
RTVSPropertyOp26
 70
     1
102
RTVSPropertyOp27
 70
     1
102
RTVSPropertyOp28
 70
     1
102
RTVSPropertyOp29
 70
     1
102
RTVSPropertyOp30
 70
     1
102
RTVSPropertyOp31
 70
     1
102
RTVSPropertyOp32
 70
     1
102
RTVSPropertyOp33
 70
     1
102
RTVSPropertyOp34
 70
     1
102
RTVSPropertyOp35
 70
     1
102
RTVSPropertyOp36
 70
     1
102
RTVSPropertyOp37
 70
     1
102
RTVSPropertyOp38
 70
     1
102
RTVSPropertyOp39
 70
     1
102
RTVSPropertyOp40
 70
     1
102
RTVSPropertyOp41
 70
     1
102
RTVSPropertyOp42
 70
     1
102
RTVSPropertyOp43
 70
     1
102
RTVSPropertyOp44
 70
     1
102
RTVSPropertyOp45
 70
     1
102
RTVSPropertyOp46
 70
     1
102
RTVSPropertyOp47
 70
     1
102
RTVSPropertyOp48
 70
     1
102
RTVSPropertyOp49
 70
     1
102
RTVSPropertyOp50
 70
     1
102
RTVSPropertyOp51
 70
     0
102
RTVSPropertyOp52
 70
     0
102
RTVSPropertyOp53
 70
     1
102
RTVSPropertyOp54
 70
     1
102
RTVSPropertyOp55
 70
     1
102
RTVSPropertyOp56
 70
     1
102
RTVSPropertyOp57
 70
     1
102
RTVSPropertyOp58
 70
     1
102
RTVSPropertyOp59
 70
     1
102
RTVSPropertyOp60
 70
     1
102
RTVSPropertyOp61
 70
     1
102
RTVSPropertyOp62
 70
     1
  0
XRECORD
  5
B993
102
{ACAD_REACTORS
330
B992
102
}
330
B992
100
AcDbXrecord
280
     1
102
RTVSPost2010Prop28
280
     0
102
RTVSPost2010PropOp28
 70
     1
102
RTVSPost2010Prop29
280
     1
102
RTVSPost2010PropOp29
 70
     1
102
RTVSPost2010Prop30
280
     1
102
RTVSPost2010PropOp30
 70
     1
102
RTVSPost2010Prop31
280
     0
102
RTVSPost2010PropOp31
 70
     1
102
RTVSPost2010Prop32
280
     0
102
RTVSPost2010PropOp32
 70
     1
102
RTVSPost2010Prop33
280
     0
102
RTVSPost2010PropOp33
 70
     1
102
RTVSPost2010Prop34
280
     0
102
RTVSPost2010PropOp34
 70
     1
102
RTVSPost2010Prop35
280
     0
102
RTVSPost2010PropOp35
 70
     1
102
RTVSPost2010Prop36
280
     0
102
RTVSPost2010PropOp36
 70
     1
102
RTVSPost2010Prop37
 90
       50
102
RTVSPost2010PropOp37
 70
     1
102
RTVSPost2010Prop38
140
0.0
102
RTVSPost2010PropOp38
 70
     1
102
RTVSPost2010Prop39
140
1.0
102
RTVSPost2010PropOp39
 70
     1
102
RTVSPost2010Prop40
 90
        0
102
RTVSPost2010PropOp40
 70
     1
102
RTVSPost2010Prop41ColorIndex
 90
       18
102
RTVSPost2010Prop41ColorRGB
 90
        0
102
RTVSPost2010PropOp41
 70
     1
102
RTVSPost2010Prop42
 90
       50
102
RTVSPost2010PropOp42
 70
     1
102
RTVSPost2010Prop43
 90
        3
102
RTVSPost2010PropOp43
 70
     1
102
RTVSPost2010Prop44ColorIndex
 90
        5
102
RTVSPost2010Prop44ColorRGB
 90
      255
102
RTVSPost2010PropOp44
 70
     1
102
RTVSPost2010Prop45
280
     0
102
RTVSPost2010PropOp45
 70
     1
102
RTVSPost2010Prop46
 90
       50
102
RTVSPost2010PropOp46
 70
     1
102
RTVSPost2010Prop47
 90
       50
102
RTVSPost2010PropOp47
 70
     1
102
RTVSPost2010Prop48
 90
       50
102
RTVSPost2010PropOp48
 70
     1
102
RTVSPost2010Prop49
280
     0
102
RTVSPost2010PropOp49
 70
     1
102
RTVSPost2010Prop50
 90
       50
102
RTVSPost2010PropOp50
 70
     1
102
RTVSPost2010Prop51ColorIndex
 90
      256
102
RTVSPost2010Prop51ColorRGB
 90
-16777216
102
RTVSPost2010PropOp51
 70
     0
102
RTVSPost2010Prop52
140
1.0
102
RTVSPost2010PropOp52
 70
     0
102
RTVSPost2010Prop53
 90
        2
102
RTVSPost2010PropOp53
 70
     1
102
RTVSPost2010Prop54
  1
strokes_ogs.tif
102
RTVSPost2010PropOp54
 70
     1
102
RTVSPost2010Prop55
280
     0
102
RTVSPost2010PropOp55
 70
     1
102
RTVSPost2010Prop56
140
1.0
102
RTVSPost2010PropOp56
 70
     1
102
RTVSPost2010Prop57
140
1.0
102
RTVSPost2010PropOp57
 70
     1
102
RTVSPropertyOp0
 70
     1
102
RTVSPropertyOp1
 70
     1
102
RTVSPropertyOp2
 70
     1
102
RTVSPropertyOp3
 70
     1
102
RTVSPropertyOp4
 70
     1
102
RTVSPropertyOp5
 70
     1
102
RTVSPropertyOp6
 70
     1
102
RTVSPropertyOp7
 70
     1
102
RTVSPropertyOp8
 70
     1
102
RTVSPropertyOp9
 70
     1
102
RTVSPropertyOp10
 70
     1
102
RTVSPropertyOp11
 70
     1
102
RTVSPropertyOp12
 70
     1
102
RTVSPropertyOp13
 70
     1
102
RTVSPropertyOp14
 70
     1
102
RTVSPropertyOp15
 70
     1
102
RTVSPropertyOp16
 70
     1
102
RTVSPropertyOp17
 70
     1
102
RTVSPropertyOp18
 70
     1
102
RTVSPropertyOp19
 70
     1
102
RTVSPropertyOp20
 70
     1
102
RTVSPropertyOp21
 70
     1
102
RTVSPropertyOp22
 70
     1
102
RTVSPropertyOp23
 70
     1
102
RTVSPropertyOp24
 70
     1
102
RTVSPropertyOp25
 70
     1
102
RTVSPropertyOp26
 70
     1
102
RTVSPropertyOp27
 70
     1
102
RTVSPropertyOp28
 70
     1
102
RTVSPropertyOp29
 70
     1
102
RTVSPropertyOp30
 70
     1
102
RTVSPropertyOp31
 70
     1
102
RTVSPropertyOp32
 70
     1
102
RTVSPropertyOp33
 70
     1
102
RTVSPropertyOp34
 70
     1
102
RTVSPropertyOp35
 70
     1
102
RTVSPropertyOp36
 70
     1
102
RTVSPropertyOp37
 70
     1
102
RTVSPropertyOp38
 70
     1
102
RTVSPropertyOp39
 70
     1
102
RTVSPropertyOp40
 70
     1
102
RTVSPropertyOp41
 70
     1
102
RTVSPropertyOp42
 70
     1
102
RTVSPropertyOp43
 70
     1
102
RTVSPropertyOp44
 70
     1
102
RTVSPropertyOp45
 70
     1
102
RTVSPropertyOp46
 70
     1
102
RTVSPropertyOp47
 70
     1
102
RTVSPropertyOp48
 70
     1
102
RTVSPropertyOp49
 70
     1
102
RTVSPropertyOp50
 70
     1
102
RTVSPropertyOp51
 70
     0
102
RTVSPropertyOp52
 70
     0
102
RTVSPropertyOp53
 70
     1
102
RTVSPropertyOp54
 70
     1
102
RTVSPropertyOp55
 70
     1
102
RTVSPropertyOp56
 70
     1
102
RTVSPropertyOp57
 70
     1
102
RTVSPropertyOp58
 70
     1
102
RTVSPropertyOp59
 70
     1
102
RTVSPropertyOp60
 70
     1
102
RTVSPropertyOp61
 70
     1
102
RTVSPropertyOp62
 70
     1
  0
XRECORD
  5
B995
102
{ACAD_REACTORS
330
B994
102
}
330
B994
100
AcDbXrecord
280
     1
102
RTVSPost2010Prop28
280
     0
102
RTVSPost2010PropOp28
 70
     1
102
RTVSPost2010Prop29
280
     1
102
RTVSPost2010PropOp29
 70
     1
102
RTVSPost2010Prop30
280
     1
102
RTVSPost2010PropOp30
 70
     1
102
RTVSPost2010Prop31
280
     0
102
RTVSPost2010PropOp31
 70
     1
102
RTVSPost2010Prop32
280
     0
102
RTVSPost2010PropOp32
 70
     1
102
RTVSPost2010Prop33
280
     0
102
RTVSPost2010PropOp33
 70
     1
102
RTVSPost2010Prop34
280
     0
102
RTVSPost2010PropOp34
 70
     1
102
RTVSPost2010Prop35
280
     0
102
RTVSPost2010PropOp35
 70
     1
102
RTVSPost2010Prop36
280
     0
102
RTVSPost2010PropOp36
 70
     1
102
RTVSPost2010Prop37
 90
       50
102
RTVSPost2010PropOp37
 70
     1
102
RTVSPost2010Prop38
140
0.0
102
RTVSPost2010PropOp38
 70
     1
102
RTVSPost2010Prop39
140
1.0
102
RTVSPost2010PropOp39
 70
     1
102
RTVSPost2010Prop40
 90
        0
102
RTVSPost2010PropOp40
 70
     1
102
RTVSPost2010Prop41ColorIndex
 90
       18
102
RTVSPost2010Prop41ColorRGB
 90
        0
102
RTVSPost2010PropOp41
 70
     1
102
RTVSPost2010Prop42
 90
       50
102
RTVSPost2010PropOp42
 70
     1
102
RTVSPost2010Prop43
 90
        3
102
RTVSPost2010PropOp43
 70
     1
102
RTVSPost2010Prop44ColorIndex
 90
        5
102
RTVSPost2010Prop44ColorRGB
 90
      255
102
RTVSPost2010PropOp44
 70
     1
102
RTVSPost2010Prop45
280
     0
102
RTVSPost2010PropOp45
 70
     1
102
RTVSPost2010Prop46
 90
       50
102
RTVSPost2010PropOp46
 70
     1
102
RTVSPost2010Prop47
 90
       50
102
RTVSPost2010PropOp47
 70
     1
102
RTVSPost2010Prop48
 90
       50
102
RTVSPost2010PropOp48
 70
     1
102
RTVSPost2010Prop49
280
     0
102
RTVSPost2010PropOp49
 70
     1
102
RTVSPost2010Prop50
 90
       50
102
RTVSPost2010PropOp50
 70
     1
102
RTVSPost2010Prop51ColorIndex
 90
      256
102
RTVSPost2010Prop51ColorRGB
 90
-16777216
102
RTVSPost2010PropOp51
 70
     0
102
RTVSPost2010Prop52
140
1.0
102
RTVSPost2010PropOp52
 70
     0
102
RTVSPost2010Prop53
 90
        2
102
RTVSPost2010PropOp53
 70
     1
102
RTVSPost2010Prop54
  1
strokes_ogs.tif
102
RTVSPost2010PropOp54
 70
     1
102
RTVSPost2010Prop55
280
     0
102
RTVSPost2010PropOp55
 70
     1
102
RTVSPost2010Prop56
140
1.0
102
RTVSPost2010PropOp56
 70
     1
102
RTVSPost2010Prop57
140
1.0
102
RTVSPost2010PropOp57
 70
     1
102
RTVSPropertyOp0
 70
     1
102
RTVSPropertyOp1
 70
     1
102
RTVSPropertyOp2
 70
     1
102
RTVSPropertyOp3
 70
     1
102
RTVSPropertyOp4
 70
     1
102
RTVSPropertyOp5
 70
     1
102
RTVSPropertyOp6
 70
     1
102
RTVSPropertyOp7
 70
     1
102
RTVSPropertyOp8
 70
     1
102
RTVSPropertyOp9
 70
     1
102
RTVSPropertyOp10
 70
     1
102
RTVSPropertyOp11
 70
     1
102
RTVSPropertyOp12
 70
     1
102
RTVSPropertyOp13
 70
     1
102
RTVSPropertyOp14
 70
     1
102
RTVSPropertyOp15
 70
     1
102
RTVSPropertyOp16
 70
     1
102
RTVSPropertyOp17
 70
     1
102
RTVSPropertyOp18
 70
     1
102
RTVSPropertyOp19
 70
     1
102
RTVSPropertyOp20
 70
     1
102
RTVSPropertyOp21
 70
     1
102
RTVSPropertyOp22
 70
     1
102
RTVSPropertyOp23
 70
     1
102
RTVSPropertyOp24
 70
     1
102
RTVSPropertyOp25
 70
     1
102
RTVSPropertyOp26
 70
     1
102
RTVSPropertyOp27
 70
     1
102
RTVSPropertyOp28
 70
     1
102
RTVSPropertyOp29
 70
     1
102
RTVSPropertyOp30
 70
     1
102
RTVSPropertyOp31
 70
     1
102
RTVSPropertyOp32
 70
     1
102
RTVSPropertyOp33
 70
     1
102
RTVSPropertyOp34
 70
     1
102
RTVSPropertyOp35
 70
     1
102
RTVSPropertyOp36
 70
     1
102
RTVSPropertyOp37
 70
     1
102
RTVSPropertyOp38
 70
     1
102
RTVSPropertyOp39
 70
     1
102
RTVSPropertyOp40
 70
     1
102
RTVSPropertyOp41
 70
     1
102
RTVSPropertyOp42
 70
     1
102
RTVSPropertyOp43
 70
     1
102
RTVSPropertyOp44
 70
     1
102
RTVSPropertyOp45
 70
     1
102
RTVSPropertyOp46
 70
     1
102
RTVSPropertyOp47
 70
     1
102
RTVSPropertyOp48
 70
     1
102
RTVSPropertyOp49
 70
     1
102
RTVSPropertyOp50
 70
     1
102
RTVSPropertyOp51
 70
     0
102
RTVSPropertyOp52
 70
     0
102
RTVSPropertyOp53
 70
     1
102
RTVSPropertyOp54
 70
     1
102
RTVSPropertyOp55
 70
     1
102
RTVSPropertyOp56
 70
     1
102
RTVSPropertyOp57
 70
     1
102
RTVSPropertyOp58
 70
     1
102
RTVSPropertyOp59
 70
     1
102
RTVSPropertyOp60
 70
     1
102
RTVSPropertyOp61
 70
     1
102
RTVSPropertyOp62
 70
     1
  0
XRECORD
  5
B983
102
{ACAD_REACTORS
330
B982
102
}
330
B982
100
AcDbXrecord
280
     1
102
RTVSPost2010Prop28
280
     0
102
RTVSPost2010PropOp28
 70
     1
102
RTVSPost2010Prop29
280
     1
102
RTVSPost2010PropOp29
 70
     1
102
RTVSPost2010Prop30
280
     1
102
RTVSPost2010PropOp30
 70
     1
102
RTVSPost2010Prop31
280
     0
102
RTVSPost2010PropOp31
 70
     1
102
RTVSPost2010Prop32
280
     0
102
RTVSPost2010PropOp32
 70
     1
102
RTVSPost2010Prop33
280
     0
102
RTVSPost2010PropOp33
 70
     1
102
RTVSPost2010Prop34
280
     0
102
RTVSPost2010PropOp34
 70
     1
102
RTVSPost2010Prop35
280
     0
102
RTVSPost2010PropOp35
 70
     1
102
RTVSPost2010Prop36
280
     0
102
RTVSPost2010PropOp36
 70
     1
102
RTVSPost2010Prop37
 90
       50
102
RTVSPost2010PropOp37
 70
     1
102
RTVSPost2010Prop38
140
0.0
102
RTVSPost2010PropOp38
 70
     1
102
RTVSPost2010Prop39
140
1.0
102
RTVSPost2010PropOp39
 70
     1
102
RTVSPost2010Prop40
 90
        0
102
RTVSPost2010PropOp40
 70
     1
102
RTVSPost2010Prop41ColorIndex
 90
       18
102
RTVSPost2010Prop41ColorRGB
 90
        0
102
RTVSPost2010PropOp41
 70
     1
102
RTVSPost2010Prop42
 90
       50
102
RTVSPost2010PropOp42
 70
     1
102
RTVSPost2010Prop43
 90
        3
102
RTVSPost2010PropOp43
 70
     1
102
RTVSPost2010Prop44ColorIndex
 90
        5
102
RTVSPost2010Prop44ColorRGB
 90
      255
102
RTVSPost2010PropOp44
 70
     1
102
RTVSPost2010Prop45
280
     0
102
RTVSPost2010PropOp45
 70
     1
102
RTVSPost2010Prop46
 90
       50
102
RTVSPost2010PropOp46
 70
     1
102
RTVSPost2010Prop47
 90
       50
102
RTVSPost2010PropOp47
 70
     1
102
RTVSPost2010Prop48
 90
       50
102
RTVSPost2010PropOp48
 70
     1
102
RTVSPost2010Prop49
280
     0
102
RTVSPost2010PropOp49
 70
     1
102
RTVSPost2010Prop50
 90
       50
102
RTVSPost2010PropOp50
 70
     1
102
RTVSPost2010Prop51ColorIndex
 90
      256
102
RTVSPost2010Prop51ColorRGB
 90
-16777216
102
RTVSPost2010PropOp51
 70
     0
102
RTVSPost2010Prop52
140
1.0
102
RTVSPost2010PropOp52
 70
     0
102
RTVSPost2010Prop53
 90
        2
102
RTVSPost2010PropOp53
 70
     1
102
RTVSPost2010Prop54
  1
strokes_ogs.tif
102
RTVSPost2010PropOp54
 70
     1
102
RTVSPost2010Prop55
280
     0
102
RTVSPost2010PropOp55
 70
     1
102
RTVSPost2010Prop56
140
1.0
102
RTVSPost2010PropOp56
 70
     1
102
RTVSPost2010Prop57
140
1.0
102
RTVSPost2010PropOp57
 70
     1
102
RTVSPropertyOp0
 70
     1
102
RTVSPropertyOp1
 70
     1
102
RTVSPropertyOp2
 70
     1
102
RTVSPropertyOp3
 70
     1
102
RTVSPropertyOp4
 70
     1
102
RTVSPropertyOp5
 70
     1
102
RTVSPropertyOp6
 70
     1
102
RTVSPropertyOp7
 70
     1
102
RTVSPropertyOp8
 70
     1
102
RTVSPropertyOp9
 70
     1
102
RTVSPropertyOp10
 70
     1
102
RTVSPropertyOp11
 70
     1
102
RTVSPropertyOp12
 70
     1
102
RTVSPropertyOp13
 70
     1
102
RTVSPropertyOp14
 70
     1
102
RTVSPropertyOp15
 70
     1
102
RTVSPropertyOp16
 70
     1
102
RTVSPropertyOp17
 70
     1
102
RTVSPropertyOp18
 70
     1
102
RTVSPropertyOp19
 70
     1
102
RTVSPropertyOp20
 70
     1
102
RTVSPropertyOp21
 70
     1
102
RTVSPropertyOp22
 70
     1
102
RTVSPropertyOp23
 70
     1
102
RTVSPropertyOp24
 70
     1
102
RTVSPropertyOp25
 70
     1
102
RTVSPropertyOp26
 70
     1
102
RTVSPropertyOp27
 70
     1
102
RTVSPropertyOp28
 70
     1
102
RTVSPropertyOp29
 70
     1
102
RTVSPropertyOp30
 70
     1
102
RTVSPropertyOp31
 70
     1
102
RTVSPropertyOp32
 70
     1
102
RTVSPropertyOp33
 70
     1
102
RTVSPropertyOp34
 70
     1
102
RTVSPropertyOp35
 70
     1
102
RTVSPropertyOp36
 70
     1
102
RTVSPropertyOp37
 70
     1
102
RTVSPropertyOp38
 70
     1
102
RTVSPropertyOp39
 70
     1
102
RTVSPropertyOp40
 70
     1
102
RTVSPropertyOp41
 70
     1
102
RTVSPropertyOp42
 70
     1
102
RTVSPropertyOp43
 70
     1
102
RTVSPropertyOp44
 70
     1
102
RTVSPropertyOp45
 70
     1
102
RTVSPropertyOp46
 70
     1
102
RTVSPropertyOp47
 70
     1
102
RTVSPropertyOp48
 70
     1
102
RTVSPropertyOp49
 70
     1
102
RTVSPropertyOp50
 70
     1
102
RTVSPropertyOp51
 70
     0
102
RTVSPropertyOp52
 70
     0
102
RTVSPropertyOp53
 70
     1
102
RTVSPropertyOp54
 70
     1
102
RTVSPropertyOp55
 70
     1
102
RTVSPropertyOp56
 70
     1
102
RTVSPropertyOp57
 70
     1
102
RTVSPropertyOp58
 70
     1
102
RTVSPropertyOp59
 70
     1
102
RTVSPropertyOp60
 70
     1
102
RTVSPropertyOp61
 70
     1
102
RTVSPropertyOp62
 70
     1
  0
XRECORD
  5
B977
102
{ACAD_REACTORS
330
B976
102
}
330
B976
100
AcDbXrecord
280
     1
102
RTVSPost2010Prop28
280
     0
102
RTVSPost2010PropOp28
 70
     1
102
RTVSPost2010Prop29
280
     1
102
RTVSPost2010PropOp29
 70
     1
102
RTVSPost2010Prop30
280
     1
102
RTVSPost2010PropOp30
 70
     1
102
RTVSPost2010Prop31
280
     0
102
RTVSPost2010PropOp31
 70
     1
102
RTVSPost2010Prop32
280
     0
102
RTVSPost2010PropOp32
 70
     1
102
RTVSPost2010Prop33
280
     0
102
RTVSPost2010PropOp33
 70
     1
102
RTVSPost2010Prop34
280
     0
102
RTVSPost2010PropOp34
 70
     1
102
RTVSPost2010Prop35
280
     0
102
RTVSPost2010PropOp35
 70
     1
102
RTVSPost2010Prop36
280
     0
102
RTVSPost2010PropOp36
 70
     1
102
RTVSPost2010Prop37
 90
       50
102
RTVSPost2010PropOp37
 70
     1
102
RTVSPost2010Prop38
140
0.0
102
RTVSPost2010PropOp38
 70
     1
102
RTVSPost2010Prop39
140
1.0
102
RTVSPost2010PropOp39
 70
     1
102
RTVSPost2010Prop40
 90
        0
102
RTVSPost2010PropOp40
 70
     1
102
RTVSPost2010Prop41ColorIndex
 90
       18
102
RTVSPost2010Prop41ColorRGB
 90
        0
102
RTVSPost2010PropOp41
 70
     1
102
RTVSPost2010Prop42
 90
       50
102
RTVSPost2010PropOp42
 70
     1
102
RTVSPost2010Prop43
 90
        3
102
RTVSPost2010PropOp43
 70
     1
102
RTVSPost2010Prop44ColorIndex
 90
        5
102
RTVSPost2010Prop44ColorRGB
 90
      255
102
RTVSPost2010PropOp44
 70
     1
102
RTVSPost2010Prop45
280
     0
102
RTVSPost2010PropOp45
 70
     1
102
RTVSPost2010Prop46
 90
       50
102
RTVSPost2010PropOp46
 70
     1
102
RTVSPost2010Prop47
 90
       50
102
RTVSPost2010PropOp47
 70
     1
102
RTVSPost2010Prop48
 90
       50
102
RTVSPost2010PropOp48
 70
     1
102
RTVSPost2010Prop49
280
     0
102
RTVSPost2010PropOp49
 70
     1
102
RTVSPost2010Prop50
 90
       50
102
RTVSPost2010PropOp50
 70
     1
102
RTVSPost2010Prop51ColorIndex
 90
      256
102
RTVSPost2010Prop51ColorRGB
 90
-16777216
102
RTVSPost2010PropOp51
 70
     0
102
RTVSPost2010Prop52
140
1.0
102
RTVSPost2010PropOp52
 70
     0
102
RTVSPost2010Prop53
 90
        2
102
RTVSPost2010PropOp53
 70
     1
102
RTVSPost2010Prop54
  1
strokes_ogs.tif
102
RTVSPost2010PropOp54
 70
     1
102
RTVSPost2010Prop55
280
     0
102
RTVSPost2010PropOp55
 70
     1
102
RTVSPost2010Prop56
140
1.0
102
RTVSPost2010PropOp56
 70
     1
102
RTVSPost2010Prop57
140
1.0
102
RTVSPost2010PropOp57
 70
     1
102
RTVSPropertyOp0
 70
     1
102
RTVSPropertyOp1
 70
     1
102
RTVSPropertyOp2
 70
     1
102
RTVSPropertyOp3
 70
     1
102
RTVSPropertyOp4
 70
     1
102
RTVSPropertyOp5
 70
     1
102
RTVSPropertyOp6
 70
     1
102
RTVSPropertyOp7
 70
     1
102
RTVSPropertyOp8
 70
     1
102
RTVSPropertyOp9
 70
     1
102
RTVSPropertyOp10
 70
     1
102
RTVSPropertyOp11
 70
     1
102
RTVSPropertyOp12
 70
     1
102
RTVSPropertyOp13
 70
     1
102
RTVSPropertyOp14
 70
     1
102
RTVSPropertyOp15
 70
     1
102
RTVSPropertyOp16
 70
     1
102
RTVSPropertyOp17
 70
     1
102
RTVSPropertyOp18
 70
     1
102
RTVSPropertyOp19
 70
     1
102
RTVSPropertyOp20
 70
     1
102
RTVSPropertyOp21
 70
     1
102
RTVSPropertyOp22
 70
     1
102
RTVSPropertyOp23
 70
     1
102
RTVSPropertyOp24
 70
     1
102
RTVSPropertyOp25
 70
     1
102
RTVSPropertyOp26
 70
     1
102
RTVSPropertyOp27
 70
     1
102
RTVSPropertyOp28
 70
     1
102
RTVSPropertyOp29
 70
     1
102
RTVSPropertyOp30
 70
     1
102
RTVSPropertyOp31
 70
     1
102
RTVSPropertyOp32
 70
     1
102
RTVSPropertyOp33
 70
     1
102
RTVSPropertyOp34
 70
     1
102
RTVSPropertyOp35
 70
     1
102
RTVSPropertyOp36
 70
     1
102
RTVSPropertyOp37
 70
     1
102
RTVSPropertyOp38
 70
     1
102
RTVSPropertyOp39
 70
     1
102
RTVSPropertyOp40
 70
     1
102
RTVSPropertyOp41
 70
     1
102
RTVSPropertyOp42
 70
     1
102
RTVSPropertyOp43
 70
     1
102
RTVSPropertyOp44
 70
     1
102
RTVSPropertyOp45
 70
     1
102
RTVSPropertyOp46
 70
     1
102
RTVSPropertyOp47
 70
     1
102
RTVSPropertyOp48
 70
     1
102
RTVSPropertyOp49
 70
     1
102
RTVSPropertyOp50
 70
     1
102
RTVSPropertyOp51
 70
     0
102
RTVSPropertyOp52
 70
     0
102
RTVSPropertyOp53
 70
     1
102
RTVSPropertyOp54
 70
     1
102
RTVSPropertyOp55
 70
     1
102
RTVSPropertyOp56
 70
     1
102
RTVSPropertyOp57
 70
     1
102
RTVSPropertyOp58
 70
     1
102
RTVSPropertyOp59
 70
     1
102
RTVSPropertyOp60
 70
     1
102
RTVSPropertyOp61
 70
     1
102
RTVSPropertyOp62
 70
     1
  0
XRECORD
  5
B997
102
{ACAD_REACTORS
330
B996
102
}
330
B996
100
AcDbXrecord
280
     1
102
RTVSPost2010Prop28
280
     0
102
RTVSPost2010PropOp28
 70
     1
102
RTVSPost2010Prop29
280
     1
102
RTVSPost2010PropOp29
 70
     1
102
RTVSPost2010Prop30
280
     1
102
RTVSPost2010PropOp30
 70
     1
102
RTVSPost2010Prop31
280
     0
102
RTVSPost2010PropOp31
 70
     1
102
RTVSPost2010Prop32
280
     0
102
RTVSPost2010PropOp32
 70
     1
102
RTVSPost2010Prop33
280
     0
102
RTVSPost2010PropOp33
 70
     1
102
RTVSPost2010Prop34
280
     0
102
RTVSPost2010PropOp34
 70
     1
102
RTVSPost2010Prop35
280
     0
102
RTVSPost2010PropOp35
 70
     1
102
RTVSPost2010Prop36
280
     0
102
RTVSPost2010PropOp36
 70
     1
102
RTVSPost2010Prop37
 90
       50
102
RTVSPost2010PropOp37
 70
     1
102
RTVSPost2010Prop38
140
0.0
102
RTVSPost2010PropOp38
 70
     1
102
RTVSPost2010Prop39
140
1.0
102
RTVSPost2010PropOp39
 70
     1
102
RTVSPost2010Prop40
 90
        0
102
RTVSPost2010PropOp40
 70
     1
102
RTVSPost2010Prop41ColorIndex
 90
       18
102
RTVSPost2010Prop41ColorRGB
 90
        0
102
RTVSPost2010PropOp41
 70
     1
102
RTVSPost2010Prop42
 90
       50
102
RTVSPost2010PropOp42
 70
     1
102
RTVSPost2010Prop43
 90
        3
102
RTVSPost2010PropOp43
 70
     1
102
RTVSPost2010Prop44ColorIndex
 90
        5
102
RTVSPost2010Prop44ColorRGB
 90
      255
102
RTVSPost2010PropOp44
 70
     1
102
RTVSPost2010Prop45
280
     0
102
RTVSPost2010PropOp45
 70
     1
102
RTVSPost2010Prop46
 90
       50
102
RTVSPost2010PropOp46
 70
     1
102
RTVSPost2010Prop47
 90
       50
102
RTVSPost2010PropOp47
 70
     1
102
RTVSPost2010Prop48
 90
       50
102
RTVSPost2010PropOp48
 70
     1
102
RTVSPost2010Prop49
280
     0
102
RTVSPost2010PropOp49
 70
     1
102
RTVSPost2010Prop50
 90
       50
102
RTVSPost2010PropOp50
 70
     1
102
RTVSPost2010Prop51ColorIndex
 90
      256
102
RTVSPost2010Prop51ColorRGB
 90
-16777216
102
RTVSPost2010PropOp51
 70
     0
102
RTVSPost2010Prop52
140
1.0
102
RTVSPost2010PropOp52
 70
     0
102
RTVSPost2010Prop53
 90
        2
102
RTVSPost2010PropOp53
 70
     1
102
RTVSPost2010Prop54
  1
strokes_ogs.tif
102
RTVSPost2010PropOp54
 70
     1
102
RTVSPost2010Prop55
280
     0
102
RTVSPost2010PropOp55
 70
     1
102
RTVSPost2010Prop56
140
1.0
102
RTVSPost2010PropOp56
 70
     1
102
RTVSPost2010Prop57
140
1.0
102
RTVSPost2010PropOp57
 70
     1
102
RTVSPropertyOp0
 70
     1
102
RTVSPropertyOp1
 70
     1
102
RTVSPropertyOp2
 70
     1
102
RTVSPropertyOp3
 70
     1
102
RTVSPropertyOp4
 70
     1
102
RTVSPropertyOp5
 70
     1
102
RTVSPropertyOp6
 70
     1
102
RTVSPropertyOp7
 70
     1
102
RTVSPropertyOp8
 70
     1
102
RTVSPropertyOp9
 70
     1
102
RTVSPropertyOp10
 70
     1
102
RTVSPropertyOp11
 70
     1
102
RTVSPropertyOp12
 70
     1
102
RTVSPropertyOp13
 70
     1
102
RTVSPropertyOp14
 70
     1
102
RTVSPropertyOp15
 70
     1
102
RTVSPropertyOp16
 70
     1
102
RTVSPropertyOp17
 70
     1
102
RTVSPropertyOp18
 70
     1
102
RTVSPropertyOp19
 70
     1
102
RTVSPropertyOp20
 70
     1
102
RTVSPropertyOp21
 70
     1
102
RTVSPropertyOp22
 70
     1
102
RTVSPropertyOp23
 70
     1
102
RTVSPropertyOp24
 70
     1
102
RTVSPropertyOp25
 70
     1
102
RTVSPropertyOp26
 70
     1
102
RTVSPropertyOp27
 70
     1
102
RTVSPropertyOp28
 70
     1
102
RTVSPropertyOp29
 70
     1
102
RTVSPropertyOp30
 70
     1
102
RTVSPropertyOp31
 70
     1
102
RTVSPropertyOp32
 70
     1
102
RTVSPropertyOp33
 70
     1
102
RTVSPropertyOp34
 70
     1
102
RTVSPropertyOp35
 70
     1
102
RTVSPropertyOp36
 70
     1
102
RTVSPropertyOp37
 70
     1
102
RTVSPropertyOp38
 70
     1
102
RTVSPropertyOp39
 70
     1
102
RTVSPropertyOp40
 70
     1
102
RTVSPropertyOp41
 70
     1
102
RTVSPropertyOp42
 70
     1
102
RTVSPropertyOp43
 70
     1
102
RTVSPropertyOp44
 70
     1
102
RTVSPropertyOp45
 70
     1
102
RTVSPropertyOp46
 70
     1
102
RTVSPropertyOp47
 70
     1
102
RTVSPropertyOp48
 70
     1
102
RTVSPropertyOp49
 70
     1
102
RTVSPropertyOp50
 70
     1
102
RTVSPropertyOp51
 70
     0
102
RTVSPropertyOp52
 70
     0
102
RTVSPropertyOp53
 70
     1
102
RTVSPropertyOp54
 70
     1
102
RTVSPropertyOp55
 70
     1
102
RTVSPropertyOp56
 70
     1
102
RTVSPropertyOp57
 70
     1
102
RTVSPropertyOp58
 70
     1
102
RTVSPropertyOp59
 70
     1
102
RTVSPropertyOp60
 70
     1
102
RTVSPropertyOp61
 70
     1
102
RTVSPropertyOp62
 70
     1
  0
ENDSEC
  0
EOF
