  0
SECTION
  2
HEADER
  9
$ACADVER
  1
AC1015
  9
$ACADMAINTVER
 70
    18
  9
$DWGCODEPAGE
  3
ANSI_1252
  9
$INSBASE
 10
0.0
 20
0.0
 30
0.0
  9
$EXTMIN
 10
-219.2221062109131
 20
-328.093093562514
 30
-0.0015258207003583
  9
$EXTMAX
 10
257.3281868236702
 20
381.7095344815282
 30
0.0000000349246037
  9
$LIMMIN
 10
0.0
 20
0.0
  9
$LIMMAX
 10
420.0
 20
297.0
  9
$ORTHOMODE
 70
     0
  9
$REGENMODE
 70
     1
  9
$FILLMODE
 70
     1
  9
$QTEXTMODE
 70
     0
  9
$MIRRTEXT
 70
     0
  9
$LTSCALE
 40
1.0
  9
$ATTMODE
 70
     1
  9
$TEXTSIZE
 40
2.5
  9
$TRACEWID
 40
1.0
  9
$TEXTSTYLE
  7
Standard
  9
$CLAYER
  8
0
  9
$CELTYPE
  6
ByLayer
  9
$CECOLOR
 62
   256
  9
$CELTSCALE
 40
1.0
  9
$DISPSILH
 70
     0
  9
$DIMSCALE
 40
1.0
  9
$DIMASZ
 40
2.5
  9
$DIMEXO
 40
0.625
  9
$DIMDLI
 40
3.75
  9
$DIMRND
 40
0.0
  9
$DIMDLE
 40
0.0
  9
$DIMEXE
 40
1.25
  9
$DIMTP
 40
0.0
  9
$DIMTM
 40
0.0
  9
$DIMTXT
 40
2.5
  9
$DIMCEN
 40
2.5
  9
$DIMTSZ
 40
0.0
  9
$DIMTOL
 70
     0
  9
$DIMLIM
 70
     0
  9
$DIMTIH
 70
     0
  9
$DIMTOH
 70
     0
  9
$DIMSE1
 70
     0
  9
$DIMSE2
 70
     0
  9
$DIMTAD
 70
     1
  9
$DIMZIN
 70
     8
  9
$DIMBLK
  1

  9
$DIMASO
 70
     1
  9
$DIMSHO
 70
     1
  9
$DIMPOST
  1

  9
$DIMAPOST
  1

  9
$DIMALT
 70
     0
  9
$DIMALTD
 70
     3
  9
$DIMALTF
 40
0.03937007874016
  9
$DIMLFAC
 40
1.0
  9
$DIMTOFL
 70
     1
  9
$DIMTVP
 40
0.0
  9
$DIMTIX
 70
     0
  9
$DIMSOXD
 70
     0
  9
$DIMSAH
 70
     0
  9
$DIMBLK1
  1

  9
$DIMBLK2
  1

  9
$DIMSTYLE
  2
ISO-25
  9
$DIMCLRD
 70
     0
  9
$DIMCLRE
 70
     0
  9
$DIMCLRT
 70
     0
  9
$DIMTFAC
 40
1.0
  9
$DIMGAP
 40
0.625
  9
$DIMJUST
 70
     0
  9
$DIMSD1
 70
     0
  9
$DIMSD2
 70
     0
  9
$DIMTOLJ
 70
     0
  9
$DIMTZIN
 70
     8
  9
$DIMALTZ
 70
     0
  9
$DIMALTTZ
 70
     0
  9
$DIMUPT
 70
     0
  9
$DIMDEC
 70
     2
  9
$DIMTDEC
 70
     2
  9
$DIMALTU
 70
     2
  9
$DIMALTTD
 70
     3
  9
$DIMTXSTY
  7
Standard
  9
$DIMAUNIT
 70
     0
  9
$DIMADEC
 70
     0
  9
$DIMALTRND
 40
0.0
  9
$DIMAZIN
 70
     0
  9
$DIMDSEP
 70
    44
  9
$DIMATFIT
 70
     3
  9
$DIMFRAC
 70
     0
  9
$DIMLDRBLK
  1

  9
$DIMLUNIT
 70
     2
  9
$DIMLWD
 70
    -2
  9
$DIMLWE
 70
    -2
  9
$DIMTMOVE
 70
     0
  9
$LUNITS
 70
     2
  9
$LUPREC
 70
     4
  9
$SKETCHINC
 40
1.0
  9
$FILLETRAD
 40
0.0
  9
$AUNITS
 70
     0
  9
$AUPREC
 70
     0
  9
$MENU
  1
.
  9
$ELEVATION
 40
0.0
  9
$PELEVATION
 40
0.0
  9
$THICKNESS
 40
0.0
  9
$LIMCHECK
 70
     0
  9
$CHAMFERA
 40
0.0
  9
$CHAMFERB
 40
0.0
  9
$CHAMFERC
 40
0.0
  9
$CHAMFERD
 40
0.0
  9
$SKPOLY
 70
     0
  9
$TDCREATE
 40
2460398.356956019
  9
$TDUCREATE
 40
2460398.065289352
  9
$TDUPDATE
 40
2460398.376076389
  9
$TDUUPDATE
 40
2460398.084409722
  9
$TDINDWG
 40
0.0080671296
  9
$TDUSRTIMER
 40
0.0080671296
  9
$USRTIMER
 70
     1
  9
$ANGBASE
 50
0.0
  9
$ANGDIR
 70
     0
  9
$PDMODE
 70
     0
  9
$PDSIZE
 40
0.0
  9
$PLINEWID
 40
0.0
  9
$SPLFRAME
 70
     0
  9
$SPLINETYPE
 70
     6
  9
$SPLINESEGS
 70
     8
  9
$HANDSEED
  5
BBFD
  9
$SURFTAB1
 70
     6
  9
$SURFTAB2
 70
     6
  9
$SURFTYPE
 70
     6
  9
$SURFU
 70
     6
  9
$SURFV
 70
     6
  9
$UCSBASE
  2

  9
$UCSNAME
  2

  9
$UCSORG
 10
0.0
 20
0.0
 30
0.0
  9
$UCSXDIR
 10
1.0
 20
0.0
 30
0.0
  9
$UCSYDIR
 10
0.0
 20
1.0
 30
0.0
  9
$UCSORTHOREF
  2

  9
$UCSORTHOVIEW
 70
     0
  9
$UCSORGTOP
 10
0.0
 20
0.0
 30
0.0
  9
$UCSORGBOTTOM
 10
0.0
 20
0.0
 30
0.0
  9
$UCSORGLEFT
 10
0.0
 20
0.0
 30
0.0
  9
$UCSORGRIGHT
 10
0.0
 20
0.0
 30
0.0
  9
$UCSORGFRONT
 10
0.0
 20
0.0
 30
0.0
  9
$UCSORGBACK
 10
0.0
 20
0.0
 30
0.0
  9
$PUCSBASE
  2

  9
$PUCSNAME
  2

  9
$PUCSORG
 10
0.0
 20
0.0
 30
0.0
  9
$PUCSXDIR
 10
1.0
 20
0.0
 30
0.0
  9
$PUCSYDIR
 10
0.0
 20
1.0
 30
0.0
  9
$PUCSORTHOREF
  2

  9
$PUCSORTHOVIEW
 70
     0
  9
$PUCSORGTOP
 10
0.0
 20
0.0
 30
0.0
  9
$PUCSORGBOTTOM
 10
0.0
 20
0.0
 30
0.0
  9
$PUCSORGLEFT
 10
0.0
 20
0.0
 30
0.0
  9
$PUCSORGRIGHT
 10
0.0
 20
0.0
 30
0.0
  9
$PUCSORGFRONT
 10
0.0
 20
0.0
 30
0.0
  9
$PUCSORGBACK
 10
0.0
 20
0.0
 30
0.0
  9
$USERI1
 70
     0
  9
$USERI2
 70
     0
  9
$USERI3
 70
     0
  9
$USERI4
 70
     0
  9
$USERI5
 70
     0
  9
$USERR1
 40
0.0
  9
$USERR2
 40
0.0
  9
$USERR3
 40
0.0
  9
$USERR4
 40
0.0
  9
$USERR5
 40
0.0
  9
$WORLDVIEW
 70
     1
  9
$SHADEDGE
 70
     3
  9
$SHADEDIF
 70
    70
  9
$TILEMODE
 70
     1
  9
$MAXACTVP
 70
    48
  9
$PINSBASE
 10
0.0
 20
0.0
 30
0.0
  9
$PLIMCHECK
 70
     0
  9
$PEXTMIN
 10
0.0
 20
0.0
 30
0.0
  9
$PEXTMAX
 10
0.0
 20
0.0
 30
0.0
  9
$PLIMMIN
 10
0.0
 20
0.0
  9
$PLIMMAX
 10
12.0
 20
9.0
  9
$UNITMODE
 70
     0
  9
$VISRETAIN
 70
     1
  9
$PLINEGEN
 70
     0
  9
$PSLTSCALE
 70
     1
  9
$TREEDEPTH
 70
  3020
  9
$CMLSTYLE
  2
Standard
  9
$CMLJUST
 70
     0
  9
$CMLSCALE
 40
20.0
  9
$PROXYGRAPHICS
 70
     1
  9
$MEASUREMENT
 70
     1
  9
$CELWEIGHT
370
    -1
  9
$ENDCAPS
280
     0
  9
$JOINSTYLE
280
     0
  9
$LWDISPLAY
290
     0
  9
$INSUNITS
 70
     4
  9
$HYPERLINKBASE
  1

  9
$STYLESHEET
  1

  9
$XEDIT
290
     1
  9
$CEPSNTYPE
380
     0
  9
$PSTYLEMODE
290
     1
  9
$FINGERPRINTGUID
  2
{6C1266EE-7BC1-BF4A-B059-A6E7702B10CE}
  9
$VERSIONGUID
  2
{C0AF625D-3202-024C-AA82-94FAA6D91A38}
  9
$EXTNAMES
290
     1
  9
$PSVPSCALE
 40
0.0
  9
$OLESTARTUP
290
     0
  0
ENDSEC
  0
SECTION
  2
CLASSES
  0
CLASS
  1
ACDBDICTIONARYWDFLT
  2
AcDbDictionaryWithDefault
  3
ObjectDBX Classes
 90
        0
280
     0
281
     0
  0
CLASS
  1
ACDBPLACEHOLDER
  2
AcDbPlaceHolder
  3
ObjectDBX Classes
 90
        0
280
     0
281
     0
  0
CLASS
  1
LAYOUT
  2
AcDbLayout
  3
ObjectDBX Classes
 90
        0
280
     0
281
     0
  0
CLASS
  1
DICTIONARYVAR
  2
AcDbDictionaryVar
  3
ObjectDBX Classes
 90
        0
280
     0
281
     0
  0
CLASS
  1
TABLESTYLE
  2
AcDbTableStyle
  3
ObjectDBX Classes
 90
     4095
280
     0
281
     0
  0
CLASS
  1
MATERIAL
  2
AcDbMaterial
  3
ObjectDBX Classes
 90
     1153
280
     0
281
     0
  0
CLASS
  1
VISUALSTYLE
  2
AcDbVisualStyle
  3
ObjectDBX Classes
 90
     4095
280
     0
281
     0
  0
CLASS
  1
SCALE
  2
AcDbScale
  3
ObjectDBX Classes
 90
     1153
280
     0
281
     0
  0
CLASS
  1
MLEADERSTYLE
  2
AcDbMLeaderStyle
  3
ACDB_MLEADERSTYLE_CLASS
 90
     4095
280
     0
281
     0
  0
CLASS
  1
CELLSTYLEMAP
  2
AcDbCellStyleMap
  3
ObjectDBX Classes
 90
     1152
280
     0
281
     0
  0
CLASS
  1
EXACXREFPANELOBJECT
  2
ExAcXREFPanelObject
  3
EXAC_ESW
 90
    33793
280
     0
281
     0
  0
CLASS
  1
NPOCOLLECTION
  2
AcDbImpNonPersistentObjectsCollection
  3
ObjectDBX Classes
 90
    33921
280
     0
281
     0
  0
CLASS
  1
LAYER_INDEX
  2
AcDbLayerIndex
  3
ObjectDBX Classes
 90
    32768
280
     0
281
     0
  0
CLASS
  1
SPATIAL_INDEX
  2
AcDbSpatialIndex
  3
ObjectDBX Classes
 90
    32768
280
     0
281
     0
  0
CLASS
  1
IDBUFFER
  2
AcDbIdBuffer
  3
ObjectDBX Classes
 90
    32768
280
     0
281
     0
  0
CLASS
  1
ACDBSECTIONVIEWSTYLE
  2
AcDbSectionViewStyle
  3
ObjectDBX Classes
 90
     1025
280
     0
281
     0
  0
CLASS
  1
ACDBDETAILVIEWSTYLE
  2
AcDbDetailViewStyle
  3
ObjectDBX Classes
 90
     1025
280
     0
281
     0
  0
CLASS
  1
XRECORD
  2
AcDbXrecord
  3
ObjectDBX Classes
 90
        0
280
     0
281
     0
  0
ENDSEC
  0
SECTION
  2
TABLES
  0
TABLE
  2
VPORT
  5
8
102
{ACAD_XDICTIONARY
360
BB0B
102
}
330
0
100
AcDbSymbolTable
 70
     1
  0
VPORT
  5
EA
330
8
100
AcDbSymbolTableRecord
100
AcDbViewportTableRecord
  2
*Active
 70
     0
 10
0.0
 20
0.0
 11
1.0
 21
1.0
 12
19.05304030637857
 22
26.80822045950714
 13
0.0
 23
0.0
 14
10.0
 24
10.0
 15
10.0
 25
10.0
 16
0.0
 26
0.0
 36
1.0
 17
0.0
 27
0.0
 37
0.0
 40
754.8107702570019
 41
0.9846153846153846
 42
50.0
 43
0.0
 44
0.0
 50
0.0
 51
0.0
 71
     0
 72
  1000
 73
     1
 74
     3
 75
     0
 76
     1
 77
     0
 78
     0
281
     0
 65
     1
110
0.0
120
0.0
130
0.0
111
1.0
121
0.0
131
0.0
112
0.0
122
1.0
132
0.0
 79
     0
146
0.0
1001
ACAD_NAV_VCDISPLAY
1070
     3
  0
ENDTAB
  0
TABLE
  2
LTYPE
  5
5
330
0
100
AcDbSymbolTable
 70
     1
  0
LTYPE
  5
14
330
5
100
AcDbSymbolTableRecord
100
AcDbLinetypeTableRecord
  2
ByBlock
 70
     0
  3

 72
    65
 73
     0
 40
0.0
  0
LTYPE
  5
15
330
5
100
AcDbSymbolTableRecord
100
AcDbLinetypeTableRecord
  2
ByLayer
 70
     0
  3

 72
    65
 73
     0
 40
0.0
  0
LTYPE
  5
16
330
5
100
AcDbSymbolTableRecord
100
AcDbLinetypeTableRecord
  2
Continuous
 70
     0
  3
Solid line
 72
    65
 73
     0
 40
0.0
  0
ENDTAB
  0
TABLE
  2
LAYER
  5
2
102
{ACAD_XDICTIONARY
360
1FF
102
}
330
0
100
AcDbSymbolTable
 70
     1
  0
LAYER
  5
10
102
{ACAD_XDICTIONARY
360
13C
102
}
330
2
100
AcDbSymbolTableRecord
100
AcDbLayerTableRecord
  2
0
 70
     0
 62
     7
  6
Continuous
370
    -3
390
F
  0
ENDTAB
  0
TABLE
  2
STYLE
  5
3
330
0
100
AcDbSymbolTable
 70
     1
  0
STYLE
  5
11
330
3
100
AcDbSymbolTableRecord
100
AcDbTextStyleTableRecord
  2
Standard
 70
     0
 40
0.0
 41
1.0
 50
0.0
 71
     0
 42
2.5
  3
arial.ttf
  4

1001
ACAD
1000
Arial
1071
       34
  0
ENDTAB
  0
TABLE
  2
VIEW
  5
6
330
0
100
AcDbSymbolTable
 70
     0
  0
ENDTAB
  0
TABLE
  2
UCS
  5
7
330
0
100
AcDbSymbolTable
 70
     0
  0
ENDTAB
  0
TABLE
  2
APPID
  5
9
330
0
100
AcDbSymbolTable
 70
     8
  0
APPID
  5
12
330
9
100
AcDbSymbolTableRecord
100
AcDbRegAppTableRecord
  2
ACAD
 70
     0
  0
APPID
  5
9E
330
9
100
AcDbSymbolTableRecord
100
AcDbRegAppTableRecord
  2
ACAD_PSEXT
 70
     0
  0
APPID
  5
133
330
9
100
AcDbSymbolTableRecord
100
AcDbRegAppTableRecord
  2
AcadAnnoPO
 70
     0
  0
APPID
  5
134
330
9
100
AcDbSymbolTableRecord
100
AcDbRegAppTableRecord
  2
AcadAnnotative
 70
     0
  0
APPID
  5
135
330
9
100
AcDbSymbolTableRecord
100
AcDbRegAppTableRecord
  2
ACAD_DSTYLE_DIMJAG
 70
     0
  0
APPID
  5
136
330
9
100
AcDbSymbolTableRecord
100
AcDbRegAppTableRecord
  2
ACAD_DSTYLE_DIMTALN
 70
     0
  0
APPID
  5
165
330
9
100
AcDbSymbolTableRecord
100
AcDbRegAppTableRecord
  2
ACAD_MLEADERVER
 70
     0
  0
APPID
  5
217
330
9
100
AcDbSymbolTableRecord
100
AcDbRegAppTableRecord
  2
ACAD_NAV_VCDISPLAY
 70
     0
  0
ENDTAB
  0
TABLE
  2
DIMSTYLE
  5
A
330
0
100
AcDbSymbolTable
 70
     1
100
AcDbDimStyleTable
 71
     0
  0
DIMSTYLE
105
27
330
A
100
AcDbSymbolTableRecord
100
AcDbDimStyleTableRecord
  2
ISO-25
 70
     0
 41
2.5
 42
0.625
 43
3.75
 44
1.25
 73
     0
 74
     0
 77
     1
 78
     8
140
2.5
141
2.5
143
0.03937007874016
147
0.625
171
     3
172
     1
271
     2
272
     2
274
     3
278
    44
283
     0
284
     8
340
11
  0
ENDTAB
  0
TABLE
  2
BLOCK_RECORD
  5
1
330
0
100
AcDbSymbolTable
 70
     7
  0
BLOCK_RECORD
  5
1F
102
{ACAD_XDICTIONARY
360
1CE
102
}
330
1
100
AcDbSymbolTableRecord
100
AcDbBlockTableRecord
  2
*Model_Space
340
22
  0
BLOCK_RECORD
  5
D2
102
{ACAD_XDICTIONARY
360
BABE
102
}
330
1
100
AcDbSymbolTableRecord
100
AcDbBlockTableRecord
  2
*Paper_Space
340
D3
  0
BLOCK_RECORD
  5
D6
102
{ACAD_XDICTIONARY
360
BAC0
102
}
330
1
100
AcDbSymbolTableRecord
100
AcDbBlockTableRecord
  2
*Paper_Space0
340
D7
  0
BLOCK_RECORD
  5
B90F
330
1
100
AcDbSymbolTableRecord
100
AcDbBlockTableRecord
  2
SAE500_46_2-Front
340
0
102
{BLKREFS
331
BAB4
102
}
  0
BLOCK_RECORD
  5
B96E
330
1
100
AcDbSymbolTableRecord
100
AcDbBlockTableRecord
  2
SAE500_46_2-Left
340
0
102
{BLKREFS
331
BAB5
102
}
  0
BLOCK_RECORD
  5
B98F
330
1
100
AcDbSymbolTableRecord
100
AcDbBlockTableRecord
  2
SAE500_46_2-Right
340
0
102
{BLKREFS
331
BAB6
102
}
  0
BLOCK_RECORD
  5
B9B0
330
1
100
AcDbSymbolTableRecord
100
AcDbBlockTableRecord
  2
SAE500_46_2-Top
340
0
102
{BLKREFS
331
BAB7
102
}
  0
BLOCK_RECORD
  5
B9E3
330
1
100
AcDbSymbolTableRecord
100
AcDbBlockTableRecord
  2
SAE500_46_2-Bottom
340
0
102
{BLKREFS
331
BAB8
102
}
  0
BLOCK_RECORD
  5
BA10
330
1
100
AcDbSymbolTableRecord
100
AcDbBlockTableRecord
  2
SAE500_46_2-ISO
340
0
102
{BLKREFS
331
BAB9
102
}
  0
ENDTAB
  0
ENDSEC
  0
SECTION
  2
BLOCKS
  0
BLOCK
  5
20
330
1F
100
AcDbEntity
  8
0
100
AcDbBlockBegin
  2
*Model_Space
 70
     0
 10
0.0
 20
0.0
 30
0.0
  3
*Model_Space
  1

  0
ENDBLK
  5
21
330
1F
100
AcDbEntity
  8
0
100
AcDbBlockEnd
  0
BLOCK
  5
D4
330
D2
100
AcDbEntity
 67
     1
  8
0
100
AcDbBlockBegin
  2
*Paper_Space
 70
     0
 10
0.0
 20
0.0
 30
0.0
  3
*Paper_Space
  1

  0
ENDBLK
  5
D5
330
D2
100
AcDbEntity
 67
     1
  8
0
100
AcDbBlockEnd
  0
BLOCK
  5
D8
330
D6
100
AcDbEntity
 67
     1
  8
0
100
AcDbBlockBegin
  2
*Paper_Space0
 70
     0
 10
0.0
 20
0.0
 30
0.0
  3
*Paper_Space0
  1

  0
ENDBLK
  5
D9
330
D6
100
AcDbEntity
 67
     1
  8
0
100
AcDbBlockEnd
  0
BLOCK
  5
B910
330
B90F
100
AcDbEntity
  8
0
100
AcDbBlockBegin
  2
SAE500_46_2-Front
 70
     0
 10
0.0
 20
0.0
 30
0.0
  3
SAE500_46_2-Front
  1

  0
SPLINE
  5
B912
330
B90F
100
AcDbEntity
  8
0
100
AcDbSpline
210
0.0
220
0.0
230
1.0
 70
     8
 71
     3
 72
    11
 73
     7
 74
     0
 42
0.000000001
 43
0.0000000001
 40
0.0
 40
0.0
 40
0.0
 40
0.0
 40
0.3318350838477656
 40
0.3318350838477656
 40
0.3318350838477656
 40
0.9988175738412683
 40
0.9988175738412683
 40
0.9988175738412683
 40
0.9988175738412683
 10
27.66666666666675
 20
42.37499999999994
 30
0.0
 10
27.35374819352801
 20
42.14540930055221
 30
0.0
 10
26.94838460545018
 20
41.94965082171403
 30
0.0
 10
26.55645635873803
 20
41.7532559132706
 30
0.0
 10
25.76868770311638
 20
41.35850571526037
 30
0.0
 10
25.00270978090983
 20
40.91492769551924
 30
0.0
 10
25.00000717207595
 20
40.00484458771002
 30
0.0
  0
LINE
  5
B913
330
B90F
100
AcDbEntity
  8
0
100
AcDbLine
 10
25.00000000000001
 20
42.37499999999996
 30
0.0
 11
27.00000000000001
 21
42.37499999999996
 31
0.0
  0
SPLINE
  5
B914
330
B90F
100
AcDbEntity
  8
0
100
AcDbSpline
210
0.0
220
0.0
230
1.0
 70
     8
 71
     3
 72
    20
 73
    16
 74
     0
 42
0.000000001
 43
0.0000000001
 40
0.0118472989915879
 40
0.0118472989915879
 40
0.0118472989915879
 40
0.0118472989915879
 40
0.0125318935752454
 40
0.0125318935752454
 40
0.0134873709310213
 40
0.0134873709310213
 40
0.0141228796901092
 40
0.0141228796901092
 40
0.0151414086260407
 40
0.0151414086260407
 40
0.0160669088998229
 40
0.0160669088998229
 40
0.0173073624856085
 40
0.0173073624856085
 40
0.0198315111555484
 40
0.0198315111555484
 40
0.0198315111555484
 40
0.0198315111555484
 10
25.00028201842249
 20
40.05709909130316
 30
0.0
 10
25.00028201841947
 20
40.05709909105035
 30
0.0
 10
25.00028037776714
 20
40.05696255277328
 30
0.0
 10
25.0002720666723
 20
40.05624138582678
 30
0.0
 10
25.00026354100811
 20
40.05549450366666
 30
0.0
 10
25.00024329029516
 20
40.05356460371418
 30
0.0
 10
25.00023352640034
 20
40.05260265868787
 30
0.0
 10
25.00020514590972
 20
40.04960762593669
 30
0.0
 10
25.00018428246229
 20
40.04721526570842
 30
0.0
 10
25.00014613786988
 20
40.04204385889427
 30
0.0
 10
25.00012844346411
 20
40.03927754065205
 30
0.0
 10
25.0000935116944
 20
40.03265425330405
 30
0.0
 10
25.00007808318591
 20
40.02870390105898
 30
0.0
 10
25.00004665579975
 20
40.0165987371077
 30
0.0
 10
25.00004636762994
 20
40.00828465607478
 30
0.0
 10
25.00006198946084
 20
39.99999893051985
 30
0.0
  0
SPLINE
  5
B915
330
B90F
100
AcDbEntity
  8
0
100
AcDbSpline
210
0.0
220
0.0
230
1.0
 70
     8
 71
     3
 72
    20
 73
    16
 74
     0
 42
0.000000001
 43
0.0000000001
 40
0.0062272091289471
 40
0.0062272091289471
 40
0.0062272091289471
 40
0.0062272091289471
 40
0.0063390897392292
 40
0.0063390897392292
 40
0.0068553671013832
 40
0.0068553671013832
 40
0.0073931925904432
 40
0.0073931925904432
 40
0.0081029405398915
 40
0.0081029405398915
 40
0.0099354072485174
 40
0.0099354072485174
 40
0.0118121389269367
 40
0.0118121389269367
 40
0.0129946483934094
 40
0.0129946483934094
 40
0.0129946483934094
 40
0.0129946483934094
 10
25.00016146702714
 20
40.05163818953246
 30
0.0
 10
25.00016146702713
 20
40.05163818953122
 30
0.0
 10
25.00016135944433
 20
40.05162508336487
 30
0.0
 10
25.00016016867193
 20
40.05147953888887
 30
0.0
 10
25.00015685284843
 20
40.05107526929887
 30
0.0
 10
25.00014671743379
 20
40.04978572841098
 30
0.0
 10
25.00013955463953
 20
40.04885050876935
 30
0.0
 10
25.00012217849864
 20
40.04644597955362
 30
0.0
 10
25.00011204927724
 20
40.04495326919519
 30
0.0
 10
25.00007642848772
 20
40.03922812722165
 30
0.0
 10
25.00005177339039
 20
40.03431101663949
 30
0.0
 10
25.00001600981824
 20
40.02356613425679
 30
0.0
 10
25.00000495066744
 20
40.01762331039817
 30
0.0
 10
25.00000180621654
 20
40.00776739268654
 30
0.0
 10
25.00000407124432
 20
40.00389037579785
 30
0.0
 10
25.00000965134467
 20
39.99999726727869
 30
0.0
  0
SPLINE
  5
B916
330
B90F
100
AcDbEntity
  8
0
100
AcDbSpline
210
0.0
220
0.0
230
1.0
 70
     8
 71
     3
 72
     8
 73
     4
 74
     0
 42
0.000000001
 43
0.0000000001
 40
0.0
 40
0.0
 40
0.0
 40
0.0
 40
0.0027551258172637
 40
0.0027551258172637
 40
0.0027551258172637
 40
0.0027551258172637
 10
22.99955485052311
 20
40.00000087846429
 30
0.0
 10
22.99956351719501
 20
40.00798600024501
 30
0.0
 10
22.99957123633421
 20
40.01566402260924
 30
0.0
 10
22.99957693621146
 20
40.0227737557082
 30
0.0
  0
LINE
  5
B917
330
B90F
100
AcDbEntity
  8
0
100
AcDbLine
 10
23.0
 20
40.00084440229252
 30
0.0
 11
22.99999939386191
 21
40.00087778345831
 31
0.0
  0
SPLINE
  5
B918
330
B90F
100
AcDbEntity
  8
0
100
AcDbSpline
210
0.0
220
0.0
230
1.0
 70
     8
 71
     3
 72
    32
 73
    28
 74
     0
 42
0.000000001
 43
0.0000000001
 40
0.0015106573277013
 40
0.0015106573277013
 40
0.0015106573277013
 40
0.0015106573277013
 40
0.0053813970079378
 40
0.0053813970079378
 40
0.0116037322707812
 40
0.0116037322707812
 40
0.0243149932232917
 40
0.0243149932232917
 40
0.0272531852406653
 40
0.0272531852406653
 40
0.0287220421588825
 40
0.0287220421588825
 40
0.0310073477248519
 40
0.0310073477248519
 40
0.0334533725293882
 40
0.0334533725293882
 40
0.0369807252853571
 40
0.0369807252853571
 40
0.0430740026937657
 40
0.0430740026937657
 40
0.05616216450697
 40
0.05616216450697
 40
0.0953555838282213
 40
0.0953555838282213
 40
0.1862993184886507
 40
0.1862993184886507
 40
0.2465482515670111
 40
0.2465482515670111
 40
0.2465482515670111
 40
0.2465482515670111
 10
22.99993674808074
 20
40.00349079191668
 30
0.0
 10
22.99987230501105
 20
40.00703431479499
 30
0.0
 10
22.99978117031674
 20
40.01197534815434
 30
0.0
 10
22.99949842524192
 20
40.02696348937032
 30
0.0
 10
22.99927771453637
 20
40.03836237523596
 30
0.0
 10
22.99855073149277
 20
40.07496794989844
 30
0.0
 10
22.9980092322245
 20
40.10081516657892
 30
0.0
 10
22.99714344936448
 20
40.14372524511848
 30
0.0
 10
22.99696616331712
 20
40.15260132323166
 30
0.0
 10
22.99669192576544
 20
40.16669134609046
 30
0.0
 10
22.99659844446912
 20
40.17155433051556
 30
0.0
 10
22.99636259769072
 20
40.18402683577906
 30
0.0
 10
22.99621976288094
 20
40.19178251026985
 30
0.0
 10
22.99594512073226
 20
40.20717655755333
 30
0.0
 10
22.99581197050413
 20
40.21491904913387
 30
0.0
 10
22.99551344089634
 20
40.2329323882247
 30
0.0
 10
22.9953569116127
 20
40.24297296286266
 30
0.0
 10
22.99497366460606
 20
40.2689800865057
 30
0.0
 10
22.99477486969037
 20
40.28417232946249
 30
0.0
 10
22.99423558186487
 20
40.32991346184013
 30
0.0
 10
22.99398899050304
 20
40.35839147711874
 30
0.0
 10
22.9932614721351
 20
40.47020420333653
 30
0.0
 10
22.99326565133721
 20
40.55148651847638
 30
0.0
 10
22.99445427294397
 20
40.85688472075216
 30
0.0
 10
22.99750719411563
 20
41.11585305652394
 30
0.0
 10
22.99968018905754
 20
41.57866650627339
 30
0.0
 10
22.99993439341154
 20
41.77717791071714
 30
0.0
 10
23.0
 20
41.97686802750809
 30
0.0
  0
SPLINE
  5
B919
330
B90F
100
AcDbEntity
  8
0
100
AcDbSpline
210
0.0
220
0.0
230
1.0
 70
     8
 71
     3
 72
    12
 73
     8
 74
     0
 42
0.000000001
 43
0.0000000001
 40
0.0
 40
0.0
 40
0.0
 40
0.0
 40
0.0030571643442747
 40
0.0030571643442747
 40
0.0060114276459542
 40
0.0060114276459542
 40
0.0075061221116993
 40
0.0075061221116993
 40
0.0075061221116993
 40
0.0075061221116993
 10
22.99994325747597
 20
39.99999987532376
 30
0.0
 10
22.99993100031658
 20
40.0066781565028
 30
0.0
 10
22.99991982198453
 20
40.01211633564117
 30
0.0
 10
22.99990267043572
 20
40.01963579695836
 30
0.0
 10
22.99989642977055
 20
40.02192913836698
 30
0.0
 10
22.99989176239358
 20
40.02355487904099
 30
0.0
 10
22.99989096735174
 20
40.02380334352262
 30
0.0
 10
22.99989096735185
 20
40.02380334348926
 30
0.0
  0
SPLINE
  5
B91A
330
B90F
100
AcDbEntity
  8
0
100
AcDbSpline
210
0.0
220
0.0
230
1.0
 70
     8
 71
     3
 72
     8
 73
     4
 74
     0
 42
0.000000001
 43
0.0000000001
 40
0.0
 40
0.0
 40
0.0
 40
0.0
 40
0.0006918777264783
 40
0.0006918777264783
 40
0.0006918777264783
 40
0.0006918777264783
 10
27.66671752619215
 20
42.37492760342046
 30
0.0
 10
27.66595764016381
 20
42.37439406959457
 30
0.0
 10
27.66517753433145
 20
42.37384664960964
 30
0.0
 10
27.66438693979801
 20
42.37329175709958
 30
0.0
  0
SPLINE
  5
B91B
330
B90F
100
AcDbEntity
  8
0
100
AcDbSpline
210
0.0
220
0.0
230
1.0
 70
     8
 71
     3
 72
     8
 73
     4
 74
     0
 42
0.000000001
 43
0.0000000001
 40
0.0001653237566801
 40
0.0001653237566801
 40
0.0001653237566801
 40
0.0001653237566801
 40
0.0006765613170334
 40
0.0006765613170334
 40
0.0006765613170334
 40
0.0006765613170334
 10
27.66568469447268
 20
42.37420248717516
 30
0.0
 10
27.66461986880857
 20
42.37342421104144
 30
0.0
 10
27.66351223197072
 20
42.37261535591827
 30
0.0
 10
27.66237181074289
 20
42.37178330003752
 30
0.0
  0
LINE
  5
B91C
330
B90F
100
AcDbEntity
  8
0
100
AcDbLine
 10
20.99999999999999
 20
-2.0
 30
0.0
 11
-20.99999999999998
 21
-2.000000000000002
 31
0.0
  0
LINE
  5
B91D
330
B90F
100
AcDbEntity
  8
0
100
AcDbLine
 10
-20.99999999999998
 20
0.0
 30
0.0
 11
20.99999999999999
 21
0.0
 31
0.0
  0
LINE
  5
B91E
330
B90F
100
AcDbEntity
  8
0
100
AcDbLine
 10
-27.00000000000001
 20
42.37499999999996
 30
0.0
 11
-25.00000000000001
 21
42.37499999999996
 31
0.0
  0
SPLINE
  5
B91F
330
B90F
100
AcDbEntity
  8
0
100
AcDbSpline
210
0.0
220
0.0
230
1.0
 70
     8
 71
     3
 72
    11
 73
     7
 74
     0
 42
0.000000001
 43
0.0000000001
 40
0.0
 40
0.0
 40
0.0
 40
0.0
 40
0.3318350838477656
 40
0.3318350838477656
 40
0.3318350838477656
 40
0.99881799225919
 40
0.99881799225919
 40
0.99881799225919
 40
0.99881799225919
 10
-27.66666666666675
 20
42.37499999999994
 30
0.0
 10
-27.35374819352801
 20
42.14540930055221
 30
0.0
 10
-26.94838460545018
 20
41.94965082171403
 30
0.0
 10
-26.55645635873803
 20
41.7532559132706
 30
0.0
 10
-25.7686872089257
 20
41.35850546762185
 30
0.0
 10
-25.00270881986845
 20
40.91492713897989
 30
0.0
 10
-25.00000716699057
 20
40.00484287494301
 30
0.0
  0
SPLINE
  5
B920
330
B90F
100
AcDbEntity
  8
0
100
AcDbSpline
210
0.0
220
0.0
230
1.0
 70
     8
 71
     3
 72
    32
 73
    28
 74
     0
 42
0.000000001
 43
0.0000000001
 40
0.0078951707798687
 40
0.0078951707798687
 40
0.0078951707798687
 40
0.0078951707798687
 40
0.0780400724807292
 40
0.0780400724807292
 40
0.1678937874937049
 40
0.1678937874937049
 40
0.2052915102212607
 40
0.2052915102212607
 40
0.2220177697393033
 40
0.2220177697393033
 40
0.2276328847729042
 40
0.2276328847729042
 40
0.2307208943286971
 40
0.2307208943286971
 40
0.2338156047140071
 40
0.2338156047140071
 40
0.2357712467967704
 40
0.2357712467967704
 40
0.2377298333615105
 40
0.2377298333615105
 40
0.2416875903202505
 40
0.2416875903202505
 40
0.2455790080762662
 40
0.2455790080762662
 40
0.254898297619691
 40
0.254898297619691
 40
0.2628969453721702
 40
0.2628969453721702
 40
0.2628969453721702
 40
0.2628969453721702
 10
-23.00000000000004
 20
42.07568786457049
 30
0.0
 10
-22.99990534195393
 20
41.84236495210853
 30
0.0
 10
-22.99982361156314
 20
41.60950274153202
 30
0.0
 10
-22.99752688507463
 20
41.11967685222302
 30
0.0
 10
-22.99452883315633
 20
40.86360555624074
 30
0.0
 10
-22.99329355739548
 20
40.56349558292939
 30
0.0
 10
-22.99325895605828
 20
40.48460718084209
 30
0.0
 10
-22.99388802063683
 20
40.36981543107248
 30
0.0
 10
-22.99417424468297
 20
40.33411076848046
 30
0.0
 10
-22.99482591503716
 20
40.28026712186538
 30
0.0
 10
-22.99501428874538
 20
40.26612186554638
 30
0.0
 10
-22.99536537760104
 20
40.24246325706887
 30
0.0
 10
-22.99550236012732
 20
40.23367879847085
 30
0.0
 10
-22.99580658794887
 20
40.21518205303295
 30
0.0
 10
-22.99597691271007
 20
40.20530055750415
 30
0.0
 10
-22.99627628703898
 20
40.18871245755068
 30
0.0
 10
-22.99639897238771
 20
40.1820920269565
 30
0.0
 10
-22.9966450771221
 20
40.16910093677234
 30
0.0
 10
-22.99677025206893
 20
40.16263605913717
 30
0.0
 10
-22.99713254320021
 20
40.14419336696317
 30
0.0
 10
-22.99735880775772
 20
40.13302081408295
 30
0.0
 10
-22.99776331095536
 20
40.11316599746101
 30
0.0
 10
-22.99794861625878
 20
40.10414454184962
 30
0.0
 10
-22.99854873068833
 20
40.07484281584318
 30
0.0
 10
-22.99893447710534
 20
40.05581759702939
 30
0.0
 10
-22.99955607417492
 20
40.02404022893851
 30
0.0
 10
-22.9998028684692
 20
40.01080966563996
 30
0.0
 10
-22.99993676594284
 20
40.00347888188223
 30
0.0
  0
SPLINE
  5
B921
330
B90F
100
AcDbEntity
  8
0
100
AcDbSpline
210
0.0
220
0.0
230
1.0
 70
     8
 71
     3
 72
    10
 73
     6
 74
     0
 42
0.000000001
 43
0.0000000001
 40
0.021184585593806
 40
0.021184585593806
 40
0.021184585593806
 40
0.021184585593806
 40
0.0213662515177117
 40
0.0213662515177117
 40
0.0239371943031976
 40
0.0239371943031976
 40
0.0239371943031976
 40
0.0239371943031976
 10
-22.99957691314625
 20
40.02274661234458
 30
0.0
 10
-22.99957653676551
 20
40.02227737640107
 30
0.0
 10
-22.99957615124363
 20
40.02180595746811
 30
0.0
 10
-22.99957017804422
 20
40.01463170440696
 30
0.0
 10
-22.99956293781896
 20
40.00745218653332
 30
0.0
 10
-22.99955485052311
 20
40.00000087846429
 30
0.0
  0
LINE
  5
B922
330
B90F
100
AcDbEntity
  8
0
100
AcDbLine
 10
-22.99999939386591
 20
40.00087777762423
 30
0.0
 11
-22.99999999999999
 21
40.0008443970799
 31
0.0
  0
SPLINE
  5
B923
330
B90F
100
AcDbEntity
  8
0
100
AcDbSpline
210
0.0
220
0.0
230
1.0
 70
     8
 71
     3
 72
    12
 73
     8
 74
     0
 42
0.000000001
 43
0.0000000001
 40
0.0136975537916289
 40
0.0136975537916289
 40
0.0136975537916289
 40
0.0136975537916289
 40
0.0169482591778047
 40
0.0169482591778047
 40
0.0190243665147274
 40
0.0190243665147274
 40
0.021207321851843
 40
0.021207321851843
 40
0.021207321851843
 40
0.021207321851843
 10
-22.99989096735185
 20
40.02380334349104
 30
0.0
 10
-22.9998909673266
 20
40.02380335141794
 30
0.0
 10
-22.99989486469908
 20
40.02259746617808
 30
0.0
 10
-22.99990655870264
 20
40.01793627792439
 30
0.0
 10
-22.99991244297675
 20
40.01543439858576
 30
0.0
 10
-22.99992633272693
 20
40.00890921519815
 30
0.0
 10
-22.99993450530287
 20
40.00476847390124
 30
0.0
 10
-22.99994325747596
 20
39.99999987532376
 30
0.0
  0
SPLINE
  5
B924
330
B90F
100
AcDbEntity
  8
0
100
AcDbSpline
210
0.0
220
0.0
230
1.0
 70
     8
 71
     3
 72
    18
 73
    14
 74
     0
 42
0.000000001
 43
0.0000000001
 40
0.0
 40
0.0
 40
0.0
 40
0.0
 40
0.0029621367590987
 40
0.0029621367590987
 40
0.0045864568383656
 40
0.0045864568383656
 40
0.0054328693983847
 40
0.0054328693983847
 40
0.006640525904159
 40
0.006640525904159
 40
0.0078359210954303
 40
0.0078359210954303
 40
0.0079764051604197
 40
0.0079764051604197
 40
0.0079764051604197
 40
0.0079764051604197
 10
-25.00006198722283
 20
40.00000011760977
 30
0.0
 10
-25.00004365646323
 20
40.00972357442019
 30
0.0
 10
-25.00004751728817
 20
40.01951900356532
 30
0.0
 10
-25.00009872247249
 20
40.03409079925241
 30
0.0
 10
-25.00012683543484
 20
40.0392811931374
 30
0.0
 10
-25.00017494703371
 20
40.04600708480174
 30
0.0
 10
-25.00019227453698
 20
40.04811072235179
 30
0.0
 10
-25.00023029082236
 20
40.0523530593816
 30
0.0
 10
-25.00024948416729
 20
40.05417937766451
 30
0.0
 10
-25.00027418404421
 20
40.05644852449894
 30
0.0
 10
-25.00028063401579
 20
40.05698244711898
 30
0.0
 10
-25.00028195022375
 20
40.05709337498679
 30
0.0
 10
-25.00028201843634
 20
40.05709909246392
 30
0.0
 10
-25.0002820184225
 20
40.05709909130344
 30
0.0
  0
SPLINE
  5
B925
330
B90F
100
AcDbEntity
  8
0
100
AcDbSpline
210
0.0
220
0.0
230
1.0
 70
     8
 71
     3
 72
    18
 73
    14
 74
     0
 42
0.000000001
 43
0.0000000001
 40
0.0
 40
0.0
 40
0.0
 40
0.0
 40
0.0019403756560069
 40
0.0019403756560069
 40
0.0035406708079498
 40
0.0035406708079498
 40
0.0056557275121935
 40
0.0056557275121935
 40
0.0061094479966228
 40
0.0061094479966228
 40
0.0064443536817672
 40
0.0064443536817672
 40
0.0067623409521326
 40
0.0067623409521326
 40
0.0067623409521326
 40
0.0067623409521326
 10
-25.00000964824224
 20
39.99999943201423
 30
0.0
 10
-25.00000049387944
 20
40.00638760585154
 30
0.0
 10
-25.00000043091167
 20
40.01276045113194
 30
0.0
 10
-25.00001720673353
 20
40.02383984364064
 30
0.0
 10
-25.00003119929339
 20
40.02868856479259
 30
0.0
 10
-25.00007332318003
 20
40.03893579076426
 30
0.0
 10
-25.00010522753266
 20
40.04414300285819
 30
0.0
 10
-25.00014085705011
 20
40.04901925423657
 30
0.0
 10
-25.00014666840482
 20
40.0497776530443
 30
0.0
 10
-25.00015448613368
 20
40.05077526823416
 30
0.0
 10
-25.00015714204515
 20
40.05110571054204
 30
0.0
 10
-25.00016057912826
 20
40.0515303790071
 30
0.0
 10
-25.00016146702759
 20
40.05163818958762
 30
0.0
 10
-25.00016146702717
 20
40.0516381895367
 30
0.0
  0
SPLINE
  5
B926
330
B90F
100
AcDbEntity
  8
0
100
AcDbSpline
210
0.0
220
0.0
230
1.0
 70
     8
 71
     3
 72
     8
 73
     4
 74
     0
 42
0.000000001
 43
0.0000000001
 40
0.3037171145256093
 40
0.3037171145256093
 40
0.3037171145256093
 40
0.3037171145256093
 40
0.3042284474406963
 40
0.3042284474406963
 40
0.3042284474406963
 40
0.3042284474406963
 10
-27.66237157363538
 20
42.37178329859811
 30
0.0
 10
-27.66351256326186
 20
42.37261576918478
 30
0.0
 10
-27.66461999904126
 20
42.37342431854678
 30
0.0
 10
-27.66568470683429
 20
42.37420250852908
 30
0.0
  0
SPLINE
  5
B927
330
B90F
100
AcDbEntity
  8
0
100
AcDbSpline
210
0.0
220
0.0
230
1.0
 70
     8
 71
     3
 72
    10
 73
     6
 74
     0
 42
0.000000001
 43
0.0000000001
 40
0.0168417839592303
 40
0.0168417839592303
 40
0.0168417839592303
 40
0.0168417839592303
 40
0.0169929262429317
 40
0.0169929262429317
 40
0.0175342439463115
 40
0.0175342439463115
 40
0.0175342439463115
 40
0.0175342439463115
 10
-27.66438929412586
 20
42.37329319565998
 30
0.0
 10
-27.66456173021864
 20
42.37341422292781
 30
0.0
 10
-27.66473362812541
 20
42.37353487080304
 30
0.0
 10
-27.66551798442149
 20
42.37408543148774
 30
0.0
 10
-27.66612299952367
 20
42.3745101722845
 30
0.0
 10
-27.66671752619213
 20
42.37492760342046
 30
0.0
  0
ARC
  5
B928
330
B90F
100
AcDbEntity
  8
0
100
AcDbCircle
 10
-20.99999999999998
 20
2.0
 30
0.0
 40
4.000000000000003
100
AcDbArc
 50
180.0
 51
270.0
  0
ARC
  5
B929
330
B90F
100
AcDbEntity
  8
0
100
AcDbCircle
 10
-20.99999999999998
 20
2.0
 30
0.0
 40
2.000000000000001
100
AcDbArc
 50
180.0
 51
270.0
  0
ARC
  5
B92A
330
B90F
100
AcDbEntity
  8
0
100
AcDbCircle
 10
20.99999999999998
 20
2.0
 30
0.0
 40
4.000000000000003
100
AcDbArc
 50
270.0
 51
0.0
  0
LINE
  5
B92B
330
B90F
100
AcDbEntity
  8
0
100
AcDbLine
 10
27.66666666666672
 20
42.37499999999996
 30
0.0
 11
64.50000000000004
 21
69.99999999999997
 31
0.0
  0
LINE
  5
B92C
330
B90F
100
AcDbEntity
  8
0
100
AcDbLine
 10
22.99999999999999
 20
40.0
 30
0.0
 11
23.0
 21
69.99999999999997
 31
0.0
  0
LINE
  5
B92D
330
B90F
100
AcDbEntity
  8
0
100
AcDbLine
 10
25.0
 20
40.0
 30
0.0
 11
22.99999999999999
 21
40.0
 31
0.0
  0
LINE
  5
B92E
330
B90F
100
AcDbEntity
  8
0
100
AcDbLine
 10
25.0
 20
69.99999999999997
 30
0.0
 11
25.0
 21
40.0
 31
0.0
  0
LINE
  5
B92F
330
B90F
100
AcDbEntity
  8
0
100
AcDbLine
 10
25.0
 20
69.99999999999997
 30
0.0
 11
23.0
 21
69.99999999999997
 31
0.0
  0
LINE
  5
B930
330
B90F
100
AcDbEntity
  8
0
100
AcDbLine
 10
23.0
 20
69.99999999999997
 30
0.0
 11
23.0
 21
227.0
 31
0.0
  0
LINE
  5
B931
330
B90F
100
AcDbEntity
  8
0
100
AcDbLine
 10
25.0
 20
227.0
 30
0.0
 11
25.0
 21
69.99999999999997
 31
0.0
  0
LINE
  5
B932
330
B90F
100
AcDbEntity
  8
0
100
AcDbLine
 10
23.0
 20
227.0
 30
0.0
 11
25.0
 21
227.0
 31
0.0
  0
LINE
  5
B933
330
B90F
100
AcDbEntity
  8
0
100
AcDbLine
 10
25.0
 20
40.0
 30
0.0
 11
24.99999999999999
 21
2.000000000000001
 31
0.0
  0
LINE
  5
B934
330
B90F
100
AcDbEntity
  8
0
100
AcDbLine
 10
22.99999999999999
 20
2.0
 30
0.0
 11
22.99999999999999
 21
40.0
 31
0.0
  0
ARC
  5
B935
330
B90F
100
AcDbEntity
  8
0
100
AcDbCircle
 10
20.99999999999998
 20
2.0
 30
0.0
 40
2.000000000000001
100
AcDbArc
 50
270.0
 51
0.0
  0
LINE
  5
B936
330
B90F
100
AcDbEntity
  8
0
100
AcDbLine
 10
27.0
 20
227.0
 30
0.0
 11
25.0
 21
227.0
 31
0.0
  0
LINE
  5
B937
330
B90F
100
AcDbEntity
  8
0
100
AcDbLine
 10
64.50000000000004
 20
69.99999999999997
 30
0.0
 11
64.50000000000001
 21
227.0
 31
0.0
  0
LINE
  5
B938
330
B90F
100
AcDbEntity
  8
0
100
AcDbLine
 10
64.50000000000001
 20
227.0
 30
0.0
 11
27.0
 21
227.0
 31
0.0
  0
CIRCLE
  5
B939
330
B90F
100
AcDbEntity
  8
0
100
AcDbCircle
 10
45.0
 20
207.0
 30
0.0
 40
6.5
  0
CIRCLE
  5
B93A
330
B90F
100
AcDbEntity
  8
0
100
AcDbCircle
 10
56.00000000000001
 20
212.0
 30
0.0
 40
2.5
  0
LINE
  5
B93B
330
B90F
100
AcDbEntity
  8
0
100
AcDbLine
 10
-64.50000000000004
 20
69.99999999999997
 30
0.0
 11
-27.66666666666672
 21
42.37499999999996
 31
0.0
  0
LINE
  5
B93C
330
B90F
100
AcDbEntity
  8
0
100
AcDbLine
 10
-23.0
 20
69.99999999999997
 30
0.0
 11
-22.99999999999999
 21
40.0
 31
0.0
  0
LINE
  5
B93D
330
B90F
100
AcDbEntity
  8
0
100
AcDbLine
 10
-25.0
 20
69.99999999999997
 30
0.0
 11
-23.0
 21
69.99999999999997
 31
0.0
  0
LINE
  5
B93E
330
B90F
100
AcDbEntity
  8
0
100
AcDbLine
 10
-25.0
 20
40.0
 30
0.0
 11
-25.0
 21
69.99999999999997
 31
0.0
  0
LINE
  5
B93F
330
B90F
100
AcDbEntity
  8
0
100
AcDbLine
 10
-22.99999999999999
 20
40.0
 30
0.0
 11
-25.0
 21
40.0
 31
0.0
  0
LINE
  5
B940
330
B90F
100
AcDbEntity
  8
0
100
AcDbLine
 10
-23.0
 20
227.0
 30
0.0
 11
-23.0
 21
69.99999999999997
 31
0.0
  0
LINE
  5
B941
330
B90F
100
AcDbEntity
  8
0
100
AcDbLine
 10
-25.0
 20
227.0
 30
0.0
 11
-23.0
 21
227.0
 31
0.0
  0
LINE
  5
B942
330
B90F
100
AcDbEntity
  8
0
100
AcDbLine
 10
-25.0
 20
69.99999999999997
 30
0.0
 11
-25.0
 21
227.0
 31
0.0
  0
CIRCLE
  5
B943
330
B90F
100
AcDbEntity
  8
0
100
AcDbCircle
 10
-45.0
 20
77.0
 30
0.0
 40
6.5
  0
CIRCLE
  5
B944
330
B90F
100
AcDbEntity
  8
0
100
AcDbCircle
 10
45.0
 20
77.0
 30
0.0
 40
6.5
  0
CIRCLE
  5
B945
330
B90F
100
AcDbEntity
  8
0
100
AcDbCircle
 10
-45.0
 20
147.0
 30
0.0
 40
6.5
  0
CIRCLE
  5
B946
330
B90F
100
AcDbEntity
  8
0
100
AcDbCircle
 10
45.0
 20
147.0
 30
0.0
 40
6.5
  0
CIRCLE
  5
B947
330
B90F
100
AcDbEntity
  8
0
100
AcDbCircle
 10
-45.0
 20
207.0
 30
0.0
 40
6.5
  0
CIRCLE
  5
B948
330
B90F
100
AcDbEntity
  8
0
100
AcDbCircle
 10
-34.00000000000001
 20
61.99999999999999
 30
0.0
 40
2.5
  0
CIRCLE
  5
B949
330
B90F
100
AcDbEntity
  8
0
100
AcDbCircle
 10
-34.00000000000001
 20
82.0
 30
0.0
 40
2.5
  0
CIRCLE
  5
B94A
330
B90F
100
AcDbEntity
  8
0
100
AcDbCircle
 10
-34.00000000000001
 20
102.0
 30
0.0
 40
2.5
  0
CIRCLE
  5
B94B
330
B90F
100
AcDbEntity
  8
0
100
AcDbCircle
 10
-34.00000000000001
 20
122.0
 30
0.0
 40
2.5
  0
CIRCLE
  5
B94C
330
B90F
100
AcDbEntity
  8
0
100
AcDbCircle
 10
-34.00000000000001
 20
142.0
 30
0.0
 40
2.5
  0
CIRCLE
  5
B94D
330
B90F
100
AcDbEntity
  8
0
100
AcDbCircle
 10
-34.00000000000001
 20
162.0
 30
0.0
 40
2.5
  0
CIRCLE
  5
B94E
330
B90F
100
AcDbEntity
  8
0
100
AcDbCircle
 10
-34.00000000000001
 20
182.0
 30
0.0
 40
2.5
  0
CIRCLE
  5
B94F
330
B90F
100
AcDbEntity
  8
0
100
AcDbCircle
 10
-34.00000000000001
 20
202.0
 30
0.0
 40
2.5
  0
CIRCLE
  5
B950
330
B90F
100
AcDbEntity
  8
0
100
AcDbCircle
 10
34.00000000000001
 20
61.99999999999999
 30
0.0
 40
2.5
  0
CIRCLE
  5
B951
330
B90F
100
AcDbEntity
  8
0
100
AcDbCircle
 10
34.00000000000001
 20
82.0
 30
0.0
 40
2.5
  0
CIRCLE
  5
B952
330
B90F
100
AcDbEntity
  8
0
100
AcDbCircle
 10
34.00000000000001
 20
102.0
 30
0.0
 40
2.5
  0
CIRCLE
  5
B953
330
B90F
100
AcDbEntity
  8
0
100
AcDbCircle
 10
34.00000000000001
 20
122.0
 30
0.0
 40
2.5
  0
CIRCLE
  5
B954
330
B90F
100
AcDbEntity
  8
0
100
AcDbCircle
 10
34.00000000000001
 20
142.0
 30
0.0
 40
2.5
  0
CIRCLE
  5
B955
330
B90F
100
AcDbEntity
  8
0
100
AcDbCircle
 10
34.00000000000001
 20
162.0
 30
0.0
 40
2.5
  0
CIRCLE
  5
B956
330
B90F
100
AcDbEntity
  8
0
100
AcDbCircle
 10
34.00000000000001
 20
182.0
 30
0.0
 40
2.5
  0
CIRCLE
  5
B957
330
B90F
100
AcDbEntity
  8
0
100
AcDbCircle
 10
34.00000000000001
 20
202.0
 30
0.0
 40
2.5
  0
CIRCLE
  5
B958
330
B90F
100
AcDbEntity
  8
0
100
AcDbCircle
 10
-34.00000000000001
 20
222.0
 30
0.0
 40
2.5
  0
CIRCLE
  5
B959
330
B90F
100
AcDbEntity
  8
0
100
AcDbCircle
 10
34.00000000000001
 20
222.0
 30
0.0
 40
2.5
  0
CIRCLE
  5
B95A
330
B90F
100
AcDbEntity
  8
0
100
AcDbCircle
 10
-56.00000000000001
 20
72.0
 30
0.0
 40
2.5
  0
CIRCLE
  5
B95B
330
B90F
100
AcDbEntity
  8
0
100
AcDbCircle
 10
-56.00000000000001
 20
92.0
 30
0.0
 40
2.5
  0
CIRCLE
  5
B95C
330
B90F
100
AcDbEntity
  8
0
100
AcDbCircle
 10
-56.00000000000001
 20
112.0
 30
0.0
 40
2.5
  0
CIRCLE
  5
B95D
330
B90F
100
AcDbEntity
  8
0
100
AcDbCircle
 10
-56.00000000000001
 20
132.0
 30
0.0
 40
2.5
  0
CIRCLE
  5
B95E
330
B90F
100
AcDbEntity
  8
0
100
AcDbCircle
 10
-56.00000000000001
 20
152.0
 30
0.0
 40
2.5
  0
CIRCLE
  5
B95F
330
B90F
100
AcDbEntity
  8
0
100
AcDbCircle
 10
-56.00000000000001
 20
172.0
 30
0.0
 40
2.5
  0
CIRCLE
  5
B960
330
B90F
100
AcDbEntity
  8
0
100
AcDbCircle
 10
-56.00000000000001
 20
192.0
 30
0.0
 40
2.5
  0
CIRCLE
  5
B961
330
B90F
100
AcDbEntity
  8
0
100
AcDbCircle
 10
56.00000000000001
 20
72.0
 30
0.0
 40
2.5
  0
CIRCLE
  5
B962
330
B90F
100
AcDbEntity
  8
0
100
AcDbCircle
 10
56.00000000000001
 20
92.0
 30
0.0
 40
2.5
  0
CIRCLE
  5
B963
330
B90F
100
AcDbEntity
  8
0
100
AcDbCircle
 10
56.00000000000001
 20
112.0
 30
0.0
 40
2.5
  0
CIRCLE
  5
B964
330
B90F
100
AcDbEntity
  8
0
100
AcDbCircle
 10
56.00000000000001
 20
132.0
 30
0.0
 40
2.5
  0
CIRCLE
  5
B965
330
B90F
100
AcDbEntity
  8
0
100
AcDbCircle
 10
56.00000000000001
 20
152.0
 30
0.0
 40
2.5
  0
CIRCLE
  5
B966
330
B90F
100
AcDbEntity
  8
0
100
AcDbCircle
 10
56.00000000000001
 20
172.0
 30
0.0
 40
2.5
  0
CIRCLE
  5
B967
330
B90F
100
AcDbEntity
  8
0
100
AcDbCircle
 10
56.00000000000001
 20
192.0
 30
0.0
 40
2.5
  0
CIRCLE
  5
B968
330
B90F
100
AcDbEntity
  8
0
100
AcDbCircle
 10
-56.00000000000001
 20
212.0
 30
0.0
 40
2.5
  0
LINE
  5
B969
330
B90F
100
AcDbEntity
  8
0
100
AcDbLine
 10
-64.50000000000001
 20
227.0
 30
0.0
 11
-27.0
 21
227.0
 31
0.0
  0
LINE
  5
B96A
330
B90F
100
AcDbEntity
  8
0
100
AcDbLine
 10
-64.50000000000004
 20
69.99999999999997
 30
0.0
 11
-64.50000000000001
 21
227.0
 31
0.0
  0
LINE
  5
B96B
330
B90F
100
AcDbEntity
  8
0
100
AcDbLine
 10
-22.99999999999999
 20
2.0
 30
0.0
 11
-22.99999999999999
 21
40.0
 31
0.0
  0
LINE
  5
B96C
330
B90F
100
AcDbEntity
  8
0
100
AcDbLine
 10
-25.0
 20
40.0
 30
0.0
 11
-24.99999999999999
 21
2.000000000000001
 31
0.0
  0
LINE
  5
B96D
330
B90F
100
AcDbEntity
  8
0
100
AcDbLine
 10
-27.0
 20
227.0
 30
0.0
 11
-25.0
 21
227.0
 31
0.0
  0
ENDBLK
  5
B911
330
B90F
100
AcDbEntity
  8
0
100
AcDbBlockEnd
  0
BLOCK
  5
B96F
330
B96E
100
AcDbEntity
  8
0
100
AcDbBlockBegin
  2
SAE500_46_2-Left
 70
     0
 10
0.0
 20
0.0
 30
0.0
  3
SAE500_46_2-Left
  1

  0
LINE
  5
B971
330
B96E
100
AcDbEntity
  8
0
100
AcDbLine
 10
2.000000000000004
 20
-2.0
 30
0.0
 11
86.0
 21
-2.000000000000002
 31
0.0
  0
LINE
  5
B972
330
B96E
100
AcDbEntity
  8
0
100
AcDbLine
 10
2.000000000000011
 20
2.000000000000004
 30
0.0
 11
2.000000000000004
 21
-1.999999999999999
 31
0.0
  0
LINE
  5
B973
330
B96E
100
AcDbEntity
  8
0
100
AcDbLine
 10
86.0
 20
-2.000000000000002
 30
0.0
 11
86.0
 21
2.0
 31
0.0
  0
SPLINE
  5
B974
330
B96E
100
AcDbEntity
  8
0
100
AcDbSpline
210
0.0
220
0.0
230
1.0
 70
     8
 71
     3
 72
    14
 73
    10
 74
     0
 42
0.000000001
 43
0.0000000001
 40
-0.4382398707009612
 40
-0.4382398707009612
 40
-0.4382398707009612
 40
-0.4382398707009612
 40
-0.3797519051246411
 40
-0.3797519051246411
 40
-0.3797519051246411
 40
-0.0799947265063378
 40
-0.0799947265063378
 40
-0.0799947265063378
 40
0.0
 40
0.0
 40
0.0
 40
0.0
 10
0.8175993844505352
 20
41.70134698641607
 30
0.0
 10
0.760386370167349
 20
41.71534934954076
 30
0.0
 10
0.7040619887856341
 20
41.72853621900908
 30
0.0
 10
0.6494268217380786
 20
41.74212555183738
 30
0.0
 10
0.3694156542074784
 20
41.81177235913829
 30
0.0
 10
0.1286196353648059
 20
41.89183263730529
 30
0.0
 10
0.037548348676028
 20
42.13705699996575
 30
0.0
 10
0.0132446015403315
 20
42.20249882162332
 30
0.0
 10
0.0000044908431248
 20
42.28210552456826
 30
0.0
 10
0.000000000062566
 20
42.37500000002217
 30
0.0
  0
SPLINE
  5
B975
330
B96E
100
AcDbEntity
  8
0
100
AcDbSpline
210
0.0
220
0.0
230
1.0
 70
     8
 71
     3
 72
    11
 73
     7
 74
     0
 42
0.000000001
 43
0.0000000001
 40
0.0
 40
0.0
 40
0.0
 40
0.0
 40
0.3318350838477656
 40
0.3318350838477656
 40
0.3318350838477656
 40
1.0
 40
1.0
 40
1.0
 40
1.0
 10
2.000000000000022
 20
42.37499999999994
 30
0.0
 10
2.000040448150619
 20
42.14540930055221
 30
0.0
 10
1.996206906419477
 20
41.94965082171403
 30
0.0
 10
1.998525009800351
 20
41.7532559132706
 30
0.0
 10
2.003192615567512
 20
41.3578059023458
 30
0.0
 10
2.000338492026593
 20
40.91335479236691
 30
0.0
 10
1.999999999986175
 20
40.00000000259642
 30
0.0
  0
LINE
  5
B976
330
B96E
100
AcDbEntity
  8
0
100
AcDbLine
 10
0.0
 20
42.37499999999996
 30
0.0
 11
2.000000000000011
 21
42.37499999999996
 31
0.0
  0
SPLINE
  5
B977
330
B96E
100
AcDbEntity
  8
0
100
AcDbSpline
210
0.0
220
0.0
230
1.0
 70
     8
 71
     3
 72
    18
 73
    14
 74
     0
 42
0.000000001
 43
0.0000000001
 40
0.0
 40
0.0
 40
0.0
 40
0.0
 40
0.0046401809442879
 40
0.0046401809442879
 40
0.0067241329628556
 40
0.0067241329628556
 40
0.008483191361932
 40
0.008483191361932
 40
0.0099329506482236
 40
0.0099329506482236
 40
0.0111090098721585
 40
0.0111090098721585
 40
0.0121167430685361
 40
0.0121167430685361
 40
0.0121167430685361
 40
0.0121167430685361
 10
1.999532998620621
 20
39.99999817662251
 30
0.0
 10
1.999479609315758
 20
40.01490981876677
 30
0.0
 10
1.999379726857496
 20
40.02940985951529
 30
0.0
 10
1.999188953972471
 20
40.04763352496223
 30
0.0
 10
1.999123148425025
 20
40.05295702016375
 30
0.0
 10
1.998998659062937
 20
40.06178033069168
 30
0.0
 10
1.998939965720237
 20
40.06546936837009
 30
0.0
 10
1.998840567430488
 20
40.07120208495742
 30
0.0
 10
1.99879819646544
 20
40.07344127885412
 30
0.0
 10
1.998735386838023
 20
40.07659407581138
 30
0.0
 10
1.998712169609617
 20
40.07768779060715
 30
0.0
 10
1.998683899756206
 20
40.07898592147753
 30
0.0
 10
1.998676604964632
 20
40.0793016778306
 30
0.0
 10
1.998676605025202
 20
40.07930167520317
 30
0.0
  0
SPLINE
  5
B978
330
B96E
100
AcDbEntity
  8
0
100
AcDbSpline
210
0.0
220
0.0
230
1.0
 70
     8
 71
     3
 72
    32
 73
    28
 74
     0
 42
0.000000001
 43
0.0000000001
 40
0.0044535211352184
 40
0.0044535211352184
 40
0.0044535211352184
 40
0.0044535211352184
 40
0.0051018999087373
 40
0.0051018999087373
 40
0.0089391321489276
 40
0.0089391321489276
 40
0.0117173356760627
 40
0.0117173356760627
 40
0.0139846291099497
 40
0.0139846291099497
 40
0.0175209660218259
 40
0.0175209660218259
 40
0.0266833765544165
 40
0.0266833765544165
 40
0.0541914388262223
 40
0.0541914388262223
 40
0.089368446094226
 40
0.089368446094226
 40
0.1121556479240886
 40
0.1121556479240886
 40
0.1464889746871129
 40
0.1464889746871129
 40
0.1790636924126964
 40
0.1790636924126964
 40
0.2201080591051854
 40
0.2201080591051854
 40
0.2638443434108956
 40
0.2638443434108956
 40
0.2638443434108956
 40
0.2638443434108956
 10
1.999410002639184
 20
40.02337613196339
 30
0.0
 10
1.999379687000504
 20
40.02446403778395
 30
0.0
 10
1.999348842485595
 20
40.02555278779084
 30
0.0
 10
1.999130644190237
 20
40.03312878136985
 30
0.0
 10
1.998925669825233
 20
40.0397722678609
 30
0.0
 10
1.99839537793829
 20
40.05489066900429
 30
0.0
 10
1.998103127691938
 20
40.06269479115064
 30
0.0
 10
1.997467087988959
 20
40.07798619349291
 30
0.0
 10
1.997141471087762
 20
40.08530042119262
 30
0.0
 10
1.996238379945205
 20
40.10414416782338
 30
0.0
 10
1.99561669641163
 20
40.1158732724019
 30
0.0
 10
1.993159363534143
 20
40.15791612666383
 30
0.0
 10
1.99095415250102
 20
40.18837953542756
 30
0.0
 10
1.980329207214084
 20
40.30985400832411
 30
0.0
 10
1.968322328820947
 20
40.40047026936131
 30
0.0
 10
1.92942038441743
 20
40.60514962400754
 30
0.0
 10
1.898820976857609
 20
40.72019524406718
 30
0.0
 10
1.831029352184325
 20
40.90011880386241
 30
0.0
 10
1.799669685314371
 20
40.96901599107148
 30
0.0
 10
1.710911665374028
 20
41.13016722570383
 30
0.0
 10
1.646990521777737
 20
41.2181552747658
 30
0.0
 10
1.514407882502773
 20
41.36094117603568
 30
0.0
 10
1.44519989526151
 20
41.41898447286822
 30
0.0
 10
1.288614445030082
 20
41.52673260575262
 30
0.0
 10
1.199488566973704
 20
41.5721147006694
 30
0.0
 10
1.014272759118981
 20
41.6476442776705
 30
0.0
 10
0.9172499355269607
 20
41.67694738209533
 30
0.0
 10
0.8157475400180526
 20
41.70172102886136
 30
0.0
  0
LINE
  5
B979
330
B96E
100
AcDbEntity
  8
0
100
AcDbLine
 10
2.000000000000011
 20
2.000000000000003
 30
0.0
 11
2.000000000000011
 21
40.0
 31
0.0
  0
LINE
  5
B97A
330
B96E
100
AcDbEntity
  8
0
100
AcDbLine
 10
2.000000000000081
 20
69.99999999999997
 30
0.0
 11
2.000000000000011
 21
42.37499999999996
 31
0.0
  0
LINE
  5
B97B
330
B96E
100
AcDbEntity
  8
0
100
AcDbLine
 10
0.0
 20
69.99999999999997
 30
0.0
 11
2.000000000000081
 21
69.99999999999997
 31
0.0
  0
LINE
  5
B97C
330
B96E
100
AcDbEntity
  8
0
100
AcDbLine
 10
0.0
 20
42.37499999999996
 30
0.0
 11
0.0
 21
69.99999999999997
 31
0.0
  0
LINE
  5
B97D
330
B96E
100
AcDbEntity
  8
0
100
AcDbLine
 10
86.00000000000003
 20
40.0
 30
0.0
 11
46.00000000000002
 21
69.99999999999997
 31
0.0
  0
LINE
  5
B97E
330
B96E
100
AcDbEntity
  8
0
100
AcDbLine
 10
46.00000000000002
 20
69.99999999999997
 30
0.0
 11
46.0
 21
227.0
 31
0.0
  0
LINE
  5
B97F
330
B96E
100
AcDbEntity
  8
0
100
AcDbLine
 10
2.000000000000081
 20
69.99999999999997
 30
0.0
 11
2.000000000000006
 21
227.0
 31
0.0
  0
LINE
  5
B980
330
B96E
100
AcDbEntity
  8
0
100
AcDbLine
 10
86.00000000000003
 20
40.0
 30
0.0
 11
86.0
 21
2.000000000000001
 31
0.0
  0
LINE
  5
B981
330
B96E
100
AcDbEntity
  8
0
100
AcDbLine
 10
4.000000000000003
 20
227.0
 30
0.0
 11
46.0
 21
227.0
 31
0.0
  0
LINE
  5
B982
330
B96E
100
AcDbEntity
  8
0
100
AcDbLine
 10
0.0
 20
227.0
 30
0.0
 11
2.000000000000006
 21
227.0
 31
0.0
  0
LINE
  5
B983
330
B96E
100
AcDbEntity
  8
0
100
AcDbLine
 10
0.0
 20
69.99999999999997
 30
0.0
 11
0.0
 21
227.0
 31
0.0
  0
LINE
  5
B984
330
B96E
100
AcDbEntity
  8
0
100
AcDbLine
 10
2.000000000000007
 20
227.0
 30
0.0
 11
4.000000000000003
 21
227.0
 31
0.0
  0
CIRCLE
  5
B985
330
B96E
100
AcDbEntity
  8
0
100
AcDbCircle
 10
38.49999999999999
 20
61.99999999999999
 30
0.0
 40
2.5
  0
CIRCLE
  5
B986
330
B96E
100
AcDbEntity
  8
0
100
AcDbCircle
 10
38.49999999999999
 20
82.0
 30
0.0
 40
2.5
  0
CIRCLE
  5
B987
330
B96E
100
AcDbEntity
  8
0
100
AcDbCircle
 10
38.49999999999999
 20
102.0
 30
0.0
 40
2.5
  0
CIRCLE
  5
B988
330
B96E
100
AcDbEntity
  8
0
100
AcDbCircle
 10
38.49999999999999
 20
122.0
 30
0.0
 40
2.5
  0
CIRCLE
  5
B989
330
B96E
100
AcDbEntity
  8
0
100
AcDbCircle
 10
38.49999999999999
 20
142.0
 30
0.0
 40
2.5
  0
CIRCLE
  5
B98A
330
B96E
100
AcDbEntity
  8
0
100
AcDbCircle
 10
38.49999999999999
 20
162.0
 30
0.0
 40
2.5
  0
CIRCLE
  5
B98B
330
B96E
100
AcDbEntity
  8
0
100
AcDbCircle
 10
38.49999999999999
 20
182.0
 30
0.0
 40
2.5
  0
CIRCLE
  5
B98C
330
B96E
100
AcDbEntity
  8
0
100
AcDbCircle
 10
38.49999999999999
 20
202.0
 30
0.0
 40
2.5
  0
CIRCLE
  5
B98D
330
B96E
100
AcDbEntity
  8
0
100
AcDbCircle
 10
38.49999999999999
 20
222.0
 30
0.0
 40
2.5
  0
SPLINE
  5
B98E
330
B96E
100
AcDbEntity
  8
0
100
AcDbSpline
210
0.0
220
0.0
230
1.0
 70
     8
 71
     3
 72
     8
 73
     4
 74
     0
 42
0.000000001
 43
0.0000000001
 40
0.0
 40
0.0
 40
0.0
 40
0.0
 40
0.0024853918650327
 40
0.0024853918650327
 40
0.0024853918650327
 40
0.0024853918650327
 10
1.999532998620621
 20
39.99999817662251
 30
0.0
 10
1.999504402032346
 20
40.00798520870694
 30
0.0
 10
1.999463056687045
 20
40.01585842482312
 30
0.0
 10
1.999410002639188
 20
40.0233761319632
 30
0.0
  0
ENDBLK
  5
B970
330
B96E
100
AcDbEntity
  8
0
100
AcDbBlockEnd
  0
BLOCK
  5
B990
330
B98F
100
AcDbEntity
  8
0
100
AcDbBlockBegin
  2
SAE500_46_2-Right
 70
     0
 10
0.0
 20
0.0
 30
0.0
  3
SAE500_46_2-Right
  1

  0
SPLINE
  5
B992
330
B98F
100
AcDbEntity
  8
0
100
AcDbSpline
210
0.0
220
0.0
230
1.0
 70
     8
 71
     3
 72
    11
 73
     7
 74
     0
 42
0.000000001
 43
0.0000000001
 40
0.0
 40
0.0
 40
0.0
 40
0.0
 40
0.3318350838477656
 40
0.3318350838477656
 40
0.3318350838477656
 40
1.0
 40
1.0
 40
1.0
 40
1.0
 10
-2.000000000000022
 20
42.37499999999994
 30
0.0
 10
-2.000040448150619
 20
42.14540930055221
 30
0.0
 10
-1.996206906419477
 20
41.94965082171403
 30
0.0
 10
-1.998525009800351
 20
41.7532559132706
 30
0.0
 10
-2.003192615567512
 20
41.3578059023458
 30
0.0
 10
-2.000338492026593
 20
40.91335479236691
 30
0.0
 10
-1.999999999986175
 20
40.00000000259642
 30
0.0
  0
SPLINE
  5
B993
330
B98F
100
AcDbEntity
  8
0
100
AcDbSpline
210
0.0
220
0.0
230
1.0
 70
     8
 71
     3
 72
    14
 73
    10
 74
     0
 42
0.000000001
 43
0.0000000001
 40
-0.4382398707009601
 40
-0.4382398707009601
 40
-0.4382398707009601
 40
-0.4382398707009601
 40
-0.3797519051246411
 40
-0.3797519051246411
 40
-0.3797519051246411
 40
-0.0799947265063378
 40
-0.0799947265063378
 40
-0.0799947265063378
 40
0.0
 40
0.0
 40
0.0
 40
0.0
 10
-0.8175993844505322
 20
41.70134698641607
 30
0.0
 10
-0.760386370167347
 20
41.71534934954076
 30
0.0
 10
-0.7040619887856331
 20
41.72853621900908
 30
0.0
 10
-0.6494268217380786
 20
41.74212555183738
 30
0.0
 10
-0.3694156542074784
 20
41.81177235913829
 30
0.0
 10
-0.1286196353648059
 20
41.89183263730529
 30
0.0
 10
-0.037548348676028
 20
42.13705699996575
 30
0.0
 10
-0.0132446015403315
 20
42.20249882162332
 30
0.0
 10
-0.0000044908431248
 20
42.28210552456826
 30
0.0
 10
-0.000000000062566
 20
42.37500000002217
 30
0.0
  0
LINE
  5
B994
330
B98F
100
AcDbEntity
  8
0
100
AcDbLine
 10
-2.000000000000011
 20
42.37499999999996
 30
0.0
 11
0.0
 21
42.37499999999996
 31
0.0
  0
SPLINE
  5
B995
330
B98F
100
AcDbEntity
  8
0
100
AcDbSpline
210
0.0
220
0.0
230
1.0
 70
     8
 71
     3
 72
    16
 73
    12
 74
     0
 42
0.000000001
 43
0.0000000001
 40
0.0125106171695345
 40
0.0125106171695345
 40
0.0125106171695345
 40
0.0125106171695345
 40
0.0136782905749835
 40
0.0136782905749835
 40
0.0158182195417205
 40
0.0158182195417205
 40
0.0177939454866243
 40
0.0177939454866243
 40
0.0210729187372871
 40
0.0210729187372871
 40
0.0246295765477223
 40
0.0246295765477223
 40
0.0246295765477223
 40
0.0246295765477223
 10
-1.998676605025204
 20
40.07930167520306
 30
0.0
 10
-1.998676605128169
 20
40.07930167073658
 30
0.0
 10
-1.998686298638632
 20
40.07888248333734
 30
0.0
 10
-1.998734871964207
 20
40.07662848760317
 30
0.0
 10
-1.998791731090125
 20
40.07386837299887
 30
0.0
 10
-1.998915013682842
 20
40.06699263355045
 30
0.0
 10
-1.998981177501428
 20
40.06295328770412
 30
0.0
 10
-1.999151780726753
 20
40.05102418820873
 30
0.0
 10
-1.999254173841686
 20
40.04220718990729
 30
0.0
 10
-1.999424801951541
 20
40.02257251373293
 30
0.0
 10
-1.999492076188842
 20
40.0114278189437
 30
0.0
 10
-1.999532998620621
 20
39.99999817662252
 30
0.0
  0
SPLINE
  5
B996
330
B98F
100
AcDbEntity
  8
0
100
AcDbSpline
210
0.0
220
0.0
230
1.0
 70
     8
 71
     3
 72
    28
 73
    24
 74
     0
 42
0.000000001
 43
0.0000000001
 40
0.0
 40
0.0
 40
0.0
 40
0.0
 40
0.0700466609445554
 40
0.0700466609445554
 40
0.1167611586263506
 40
0.1167611586263506
 40
0.1392284813078884
 40
0.1392284813078884
 40
0.1729599914336773
 40
0.1729599914336773
 40
0.2057733556237919
 40
0.2057733556237919
 40
0.2274824590104479
 40
0.2274824590104479
 40
0.2436258251085909
 40
0.2436258251085909
 40
0.2516761046608414
 40
0.2516761046608414
 40
0.2534321133602399
 40
0.2534321133602399
 40
0.2570049537030072
 40
0.2570049537030072
 40
0.2591567067585238
 40
0.2591567067585238
 40
0.2591567067585238
 40
0.2591567067585238
 10
-0.8157475400180496
 20
41.70172102886136
 30
0.0
 10
-0.9783105925529277
 20
41.6620443333458
 30
0.0
 10
-1.130918638651041
 20
41.61137837577619
 30
0.0
 10
-1.382104227031479
 20
41.46856362942775
 30
0.0
 10
-1.483722895219825
 20
41.39337805625785
 30
0.0
 10
-1.621047573314787
 20
41.24637584374521
 30
0.0
 10
-1.663839646405456
 20
41.19270208086871
 30
0.0
 10
-1.761546003974596
 20
41.04663544311067
 30
0.0
 10
-1.812652244465513
 20
40.94626835213176
 30
0.0
 10
-1.892020244839557
 20
40.74050443803028
 30
0.0
 10
-1.921972134306336
 20
40.63367039613011
 30
0.0
 10
-1.9586116085285
 20
40.4560522605158
 30
0.0
 10
-1.969919679923197
 20
40.38480291026191
 30
0.0
 10
-1.984905104667559
 20
40.2600164611104
 30
0.0
 10
-1.989800677956754
 20
40.20649300580867
 30
0.0
 10
-1.995121476155159
 20
40.12623563343978
 30
0.0
 10
-1.996598240354434
 20
40.09841072509687
 30
0.0
 10
-1.997874675268824
 20
40.06826072443113
 30
0.0
 10
-1.998082036533419
 20
40.0630519750165
 30
0.0
 10
-1.998624055033179
 20
40.04874840829548
 30
0.0
 10
-1.998872623487571
 20
40.04123586775908
 30
0.0
 10
-1.999193987935349
 20
40.03091389498135
 30
0.0
 10
-1.999305473203383
 20
40.02714641009887
 30
0.0
 10
-1.99940953232339
 20
40.02342527856265
 30
0.0
  0
LINE
  5
B997
330
B98F
100
AcDbEntity
  8
0
100
AcDbLine
 10
-2.000000000000004
 20
-2.0
 30
0.0
 11
-86.0
 21
-2.0
 31
0.0
  0
LINE
  5
B998
330
B98F
100
AcDbEntity
  8
0
100
AcDbLine
 10
-2.000000000000011
 20
2.000000000000003
 30
0.0
 11
-2.000000000000011
 21
40.0
 31
0.0
  0
LINE
  5
B999
330
B98F
100
AcDbEntity
  8
0
100
AcDbLine
 10
-2.000000000000011
 20
2.000000000000004
 30
0.0
 11
-2.000000000000004
 21
-1.999999999999999
 31
0.0
  0
LINE
  5
B99A
330
B98F
100
AcDbEntity
  8
0
100
AcDbLine
 10
-86.0
 20
-2.000000000000002
 30
0.0
 11
-86.0
 21
2.0
 31
0.0
  0
LINE
  5
B99B
330
B98F
100
AcDbEntity
  8
0
100
AcDbLine
 10
0.0
 20
69.99999999999997
 30
0.0
 11
0.0
 21
42.37499999999996
 31
0.0
  0
LINE
  5
B99C
330
B98F
100
AcDbEntity
  8
0
100
AcDbLine
 10
-2.000000000000081
 20
69.99999999999997
 30
0.0
 11
0.0
 21
69.99999999999997
 31
0.0
  0
LINE
  5
B99D
330
B98F
100
AcDbEntity
  8
0
100
AcDbLine
 10
-2.000000000000011
 20
42.37499999999996
 30
0.0
 11
-2.000000000000081
 21
69.99999999999997
 31
0.0
  0
LINE
  5
B99E
330
B98F
100
AcDbEntity
  8
0
100
AcDbLine
 10
0.0
 20
69.99999999999997
 30
0.0
 11
0.0
 21
227.0
 31
0.0
  0
CIRCLE
  5
B99F
330
B98F
100
AcDbEntity
  8
0
100
AcDbCircle
 10
-38.50000000000001
 20
212.0
 30
0.0
 40
2.5
  0
LINE
  5
B9A0
330
B98F
100
AcDbEntity
  8
0
100
AcDbLine
 10
-46.00000000000002
 20
69.99999999999997
 30
0.0
 11
-86.00000000000003
 21
40.0
 31
0.0
  0
LINE
  5
B9A1
330
B98F
100
AcDbEntity
  8
0
100
AcDbLine
 10
-46.0
 20
227.0
 30
0.0
 11
-46.00000000000002
 21
69.99999999999997
 31
0.0
  0
LINE
  5
B9A2
330
B98F
100
AcDbEntity
  8
0
100
AcDbLine
 10
-86.00000000000003
 20
40.0
 30
0.0
 11
-86.0
 21
2.000000000000001
 31
0.0
  0
LINE
  5
B9A3
330
B98F
100
AcDbEntity
  8
0
100
AcDbLine
 10
-4.000000000000003
 20
227.0
 30
0.0
 11
-46.0
 21
227.0
 31
0.0
  0
LINE
  5
B9A4
330
B98F
100
AcDbEntity
  8
0
100
AcDbLine
 10
-2.000000000000007
 20
227.0
 30
0.0
 11
-4.000000000000003
 21
227.0
 31
0.0
  0
LINE
  5
B9A5
330
B98F
100
AcDbEntity
  8
0
100
AcDbLine
 10
0.0
 20
227.0
 30
0.0
 11
-2.000000000000006
 21
227.0
 31
0.0
  0
LINE
  5
B9A6
330
B98F
100
AcDbEntity
  8
0
100
AcDbLine
 10
-2.000000000000081
 20
69.99999999999997
 30
0.0
 11
-2.000000000000006
 21
227.0
 31
0.0
  0
CIRCLE
  5
B9A7
330
B98F
100
AcDbEntity
  8
0
100
AcDbCircle
 10
-38.50000000000001
 20
51.99999999999999
 30
0.0
 40
2.5
  0
CIRCLE
  5
B9A8
330
B98F
100
AcDbEntity
  8
0
100
AcDbCircle
 10
-38.50000000000001
 20
72.0
 30
0.0
 40
2.5
  0
CIRCLE
  5
B9A9
330
B98F
100
AcDbEntity
  8
0
100
AcDbCircle
 10
-38.50000000000001
 20
92.0
 30
0.0
 40
2.5
  0
CIRCLE
  5
B9AA
330
B98F
100
AcDbEntity
  8
0
100
AcDbCircle
 10
-38.50000000000001
 20
112.0
 30
0.0
 40
2.5
  0
CIRCLE
  5
B9AB
330
B98F
100
AcDbEntity
  8
0
100
AcDbCircle
 10
-38.50000000000001
 20
132.0
 30
0.0
 40
2.5
  0
CIRCLE
  5
B9AC
330
B98F
100
AcDbEntity
  8
0
100
AcDbCircle
 10
-38.50000000000001
 20
152.0
 30
0.0
 40
2.5
  0
CIRCLE
  5
B9AD
330
B98F
100
AcDbEntity
  8
0
100
AcDbCircle
 10
-38.50000000000001
 20
172.0
 30
0.0
 40
2.5
  0
CIRCLE
  5
B9AE
330
B98F
100
AcDbEntity
  8
0
100
AcDbCircle
 10
-38.50000000000001
 20
192.0
 30
0.0
 40
2.5
  0
SPLINE
  5
B9AF
330
B98F
100
AcDbEntity
  8
0
100
AcDbSpline
210
0.0
220
0.0
230
1.0
 70
     8
 71
     3
 72
     8
 73
     4
 74
     0
 42
0.000000001
 43
0.0000000001
 40
0.0221327809732256
 40
0.0221327809732256
 40
0.0221327809732256
 40
0.0221327809732256
 40
0.0246295765477223
 40
0.0246295765477223
 40
0.0246295765477223
 40
0.0246295765477223
 10
-1.999409532323466
 20
40.0234252785583
 30
0.0
 10
-1.999462556523087
 20
40.0159051087651
 30
0.0
 10
-1.999504270822781
 20
40.00802185556118
 30
0.0
 10
-1.999532998620621
 20
39.99999817662252
 30
0.0
  0
ENDBLK
  5
B991
330
B98F
100
AcDbEntity
  8
0
100
AcDbBlockEnd
  0
BLOCK
  5
B9B1
330
B9B0
100
AcDbEntity
  8
0
100
AcDbBlockBegin
  2
SAE500_46_2-Top
 70
     0
 10
0.0
 20
0.0
 30
0.0
  3
SAE500_46_2-Top
  1

  0
LINE
  5
B9B3
330
B9B0
100
AcDbEntity
  8
0
100
AcDbLine
 10
23.00000000000001
 20
-2.000000000000007
 30
0.0
 11
23.00000000000001
 21
-2.066816716474921
 31
0.0
  0
SPLINE
  5
B9B4
330
B9B0
100
AcDbEntity
  8
0
100
AcDbSpline
210
0.0
220
0.0
230
1.0
 70
     8
 71
     3
 72
    11
 73
     7
 74
     0
 42
0.000000001
 43
0.0000000001
 40
-1.0
 40
-1.0
 40
-1.0
 40
-1.0
 40
-0.8013492148287328
 40
-0.8013492148287328
 40
-0.8013492148287328
 40
-0.655582029244628
 40
-0.655582029244628
 40
-0.655582029244628
 40
-0.655582029244628
 10
22.99999999999999
 20
-2.000000000000016
 30
0.0
 10
22.99999961282738
 20
-1.999251617299997
 30
0.0
 10
23.1246157661337
 20
-1.921360205912889
 30
0.0
 10
23.33197761236124
 20
-1.794366616536846
 30
0.0
 10
23.48413685349414
 20
-1.701180485434422
 30
0.0
 10
23.68327587107707
 20
-1.582642101195287
 30
0.0
 10
23.91485834810413
 20
-1.451144715625123
 30
0.0
  0
SPLINE
  5
B9B5
330
B9B0
100
AcDbEntity
  8
0
100
AcDbSpline
210
0.0
220
0.0
230
1.0
 70
     8
 71
     3
 72
    24
 73
    20
 74
     0
 42
0.000000001
 43
0.0000000001
 40
0.0
 40
0.0
 40
0.0
 40
0.0
 40
0.0065342796808982
 40
0.0065342796808982
 40
0.0152718551330763
 40
0.0152718551330763
 40
0.0320193297480937
 40
0.0320193297480937
 40
0.0457471446297791
 40
0.0457471446297791
 40
0.05910403634374
 40
0.05910403634374
 40
0.0688368645352259
 40
0.0688368645352259
 40
0.0768570127210442
 40
0.0768570127210442
 40
0.083857725892961
 40
0.083857725892961
 40
0.0871567542469782
 40
0.0871567542469782
 40
0.0871567542469782
 40
0.0871567542469782
 10
27.61409315266563
 20
-2.000025836281329
 30
0.0
 10
27.59837100355319
 20
-2.000026520323495
 30
0.0
 10
27.58019964663481
 20
-2.000031937881432
 30
0.0
 10
27.53617803554808
 20
-2.000054177804618
 30
0.0
 10
27.50933573861274
 20
-2.000074414145236
 30
0.0
 10
27.42982312620047
 20
-2.000175093407804
 30
0.0
 10
27.37556578231384
 20
-2.000309870002702
 30
0.0
 10
27.27971681058566
 20
-2.000611035121152
 30
0.0
 10
27.23775356245241
 20
-2.000747421719656
 30
0.0
 10
27.158588166319
 20
-2.00101955129452
 30
0.0
 10
27.12101720934879
 20
-2.001153551972431
 30
0.0
 10
27.05098356204515
 20
-2.001727977789814
 30
0.0
 10
27.02006503401996
 20
-2.002077085244067
 30
0.0
 10
26.96250789922148
 20
-2.003117673777056
 30
0.0
 10
26.93586274843597
 20
-2.00374396202037
 30
0.0
 10
26.88588447276615
 20
-2.005368108447039
 30
0.0
 10
26.86233140863075
 20
-2.006319492644847
 30
0.0
 10
26.82845648973199
 20
-2.008056552776999
 30
0.0
 10
26.81764841372324
 20
-2.008667481584001
 30
0.0
 10
26.8070799404266
 20
-2.009326282231354
 30
0.0
  0
SPLINE
  5
B9B6
330
B9B0
100
AcDbEntity
  8
0
100
AcDbSpline
210
0.0
220
0.0
230
1.0
 70
     8
 71
     3
 72
     8
 73
     4
 74
     0
 42
0.000000001
 43
0.0000000001
 40
0.0225205147650683
 40
0.0225205147650683
 40
0.0225205147650683
 40
0.0225205147650683
 40
0.0234974110046884
 40
0.0234974110046884
 40
0.0234974110046884
 40
0.0234974110046884
 10
25.00005654251964
 20
-3.994672645325405
 30
0.0
 10
25.00006347914939
 20
-3.996497785436741
 30
0.0
 10
25.00007045682286
 20
-3.998278239726502
 30
0.0
 10
25.00007741699412
 20
-3.999999725130641
 30
0.0
  0
SPLINE
  5
B9B7
330
B9B0
100
AcDbEntity
  8
0
100
AcDbSpline
210
0.0
220
0.0
230
1.0
 70
     8
 71
     3
 72
    18
 73
    14
 74
     0
 42
0.000000001
 43
0.0000000001
 40
0.0092382827902041
 40
0.0092382827902041
 40
0.0092382827902041
 40
0.0092382827902041
 40
0.009544209768788
 40
0.009544209768788
 40
0.0102950443456805
 40
0.0102950443456805
 40
0.0114866400737294
 40
0.0114866400737294
 40
0.0126229715533025
 40
0.0126229715533025
 40
0.0142674142368974
 40
0.0142674142368974
 40
0.0147126658373522
 40
0.0147126658373522
 40
0.0147126658373522
 40
0.0147126658373522
 10
25.00029420186005
 20
-3.96854622341318
 30
0.0
 10
25.00029420185836
 20
-3.968546223549454
 30
0.0
 10
25.00029376116331
 20
-3.968581824875438
 30
0.0
 10
25.00029059550517
 20
-3.968839413568669
 30
0.0
 10
25.00028537257819
 20
-3.96926436230494
 30
0.0
 10
25.00026436906187
 20
-3.97103349962013
 30
0.0
 10
25.00024358799276
 20
-3.972825123608752
 30
0.0
 10
25.00019678214023
 20
-3.977268754211229
 30
0.0
 10
25.00017136053288
 20
-3.979855739787786
 30
0.0
 10
25.00011118312254
 20
-3.986701750454182
 30
0.0
 10
25.00007678614258
 20
-3.991258053561192
 30
0.0
 10
25.00003954230089
 20
-3.997346248867552
 30
0.0
 10
25.0000319376078
 20
-3.998664344824068
 30
0.0
 10
25.00002469765663
 20
-3.999999770855641
 30
0.0
  0
SPLINE
  5
B9B8
330
B9B0
100
AcDbEntity
  8
0
100
AcDbSpline
210
0.0
220
0.0
230
1.0
 70
     8
 71
     3
 72
    14
 73
    10
 74
     0
 42
0.000000001
 43
0.0000000001
 40
0.0535500797202031
 40
0.0535500797202031
 40
0.0535500797202031
 40
0.0535500797202031
 40
0.0575840419897016
 40
0.0575840419897016
 40
0.0629277704610202
 40
0.0629277704610202
 40
0.0678206508126562
 40
0.0678206508126562
 40
0.0693513144938702
 40
0.0693513144938702
 40
0.0693513144938702
 40
0.0693513144938702
 10
25.00087880284918
 20
-3.940717295082203
 30
0.0
 10
25.00070917612891
 20
-3.948924049044843
 30
0.0
 10
25.00055331322383
 20
-3.95767384599052
 30
0.0
 10
25.00028298985815
 20
-3.974936773327582
 30
0.0
 10
25.00019323983975
 20
-3.982377631248155
 30
0.0
 10
25.0000992334474
 20
-3.990463522052242
 30
0.0
 10
25.00008010743146
 20
-3.992360473148943
 30
0.0
 10
25.00006201190057
 20
-3.994127971139036
 30
0.0
 10
25.00005840233726
 20
-3.994486092979274
 30
0.0
 10
25.00005524626694
 20
-3.994802313062987
 30
0.0
  0
SPLINE
  5
B9B9
330
B9B0
100
AcDbEntity
  8
0
100
AcDbSpline
210
0.0
220
0.0
230
1.0
 70
     8
 71
     3
 72
    12
 73
     8
 74
     0
 42
0.000000001
 43
0.0000000001
 40
0.0
 40
0.0
 40
0.0
 40
0.0
 40
0.0070612267756633
 40
0.0070612267756633
 40
0.0092297487550752
 40
0.0092297487550752
 40
0.0098238917636727
 40
0.0098238917636727
 40
0.0098238917636727
 40
0.0098238917636727
 10
22.99994586804537
 20
-3.999999557715528
 30
0.0
 10
22.99998616117918
 20
-3.98771640327534
 30
0.0
 10
23.00004217860781
 20
-3.975085008075609
 30
0.0
 10
23.00008822445262
 20
-3.966109944511376
 30
0.0
 10
23.00009627116706
 20
-3.96460095173608
 30
0.0
 10
23.00009988645176
 20
-3.963908408726157
 30
0.0
 10
23.00010028603278
 20
-3.963830760760371
 30
0.0
 10
23.00010028603281
 20
-3.963830760752993
 30
0.0
  0
SPLINE
  5
B9BA
330
B9B0
100
AcDbEntity
  8
0
100
AcDbSpline
210
0.0
220
0.0
230
1.0
 70
     8
 71
     3
 72
     8
 73
     4
 74
     0
 42
0.000000001
 43
0.0000000001
 40
0.0041961618327191
 40
0.0041961618327191
 40
0.0041961618327191
 40
0.0041961618327191
 40
0.0079378005635805
 40
0.0079378005635805
 40
0.0079378005635805
 40
0.0079378005635805
 10
22.99996854624254
 20
-3.993406619507204
 30
0.0
 10
22.99996565399324
 20
-3.992149439343057
 30
0.0
 10
22.99996423139244
 20
-3.991506758626698
 30
0.0
 10
22.99996423139245
 20
-3.991506758626473
 30
0.0
  0
SPLINE
  5
B9BB
330
B9B0
100
AcDbEntity
  8
0
100
AcDbSpline
210
0.0
220
0.0
230
1.0
 70
     8
 71
     3
 72
    30
 73
    26
 74
     0
 42
0.000000001
 43
0.0000000001
 40
0.0094463848814473
 40
0.0094463848814473
 40
0.0094463848814473
 40
0.0094463848814473
 40
0.0104748468170696
 40
0.0104748468170696
 40
0.0117961387201359
 40
0.0117961387201359
 40
0.0124027658870562
 40
0.0124027658870562
 40
0.0136168648571295
 40
0.0136168648571295
 40
0.0232230813071782
 40
0.0232230813071782
 40
0.0380153119274618
 40
0.0380153119274618
 40
0.0823962596560137
 40
0.0823962596560137
 40
0.1534865727484844
 40
0.1534865727484844
 40
0.1886136041588906
 40
0.1886136041588906
 40
0.2065012495921593
 40
0.2065012495921593
 40
0.2159123903647805
 40
0.2159123903647805
 40
0.2260405363213163
 40
0.2260405363213163
 40
0.2260405363213163
 40
0.2260405363213163
 10
22.99995419825044
 20
-3.997500624228165
 30
0.0
 10
22.9999493725154
 20
-3.997220847684387
 30
0.0
 10
22.99994336372233
 20
-3.996872451826151
 30
0.0
 10
22.99992596520528
 20
-3.995863533810572
 30
0.0
 10
22.99991263181624
 20
-3.995092079333288
 30
0.0
 10
22.99985990513428
 20
-3.992023060370375
 30
0.0
 10
22.99983775438937
 20
-3.990732018994693
 30
0.0
 10
22.9997621452044
 20
-3.986311198740212
 30
0.0
 10
22.99970106537462
 20
-3.982721562753654
 30
0.0
 10
22.99916292081444
 20
-3.950858954262705
 30
0.0
 10
22.99867722692662
 20
-3.92048597529887
 30
0.0
 10
22.99755646022994
 20
-3.845469686578058
 30
0.0
 10
22.99695075459569
 20
-3.800126807768755
 30
0.0
 10
22.99484295619766
 20
-3.619906877123858
 30
0.0
 10
22.99398383589835
 20
-3.487134931381405
 30
0.0
 10
22.99301452302062
 20
-3.137063967922001
 30
0.0
 10
22.99354936410272
 20
-2.914265813957284
 30
0.0
 10
22.99553720799409
 20
-2.580122604837161
 30
0.0
 10
22.99636314468419
 20
-2.471100346393594
 30
0.0
 10
22.99785926275843
 20
-2.309007206125155
 30
0.0
 10
22.99854317255017
 20
-2.252543007722143
 30
0.0
 10
22.99929543570385
 20
-2.17449814124533
 30
0.0
 10
22.99946298788678
 20
-2.14930898393404
 30
0.0
 10
22.99960962692303
 20
-2.102825218935211
 30
0.0
 10
22.99958719045718
 20
-2.079804867460478
 30
0.0
 10
22.99956383268269
 20
-2.066816716474921
 30
0.0
  0
LINE
  5
B9BC
330
B9B0
100
AcDbEntity
  8
0
100
AcDbLine
 10
-23.00000000000001
 20
-2.000000000000007
 30
0.0
 11
-23.00000000000001
 21
-2.06681671647526
 31
0.0
  0
SPLINE
  5
B9BD
330
B9B0
100
AcDbEntity
  8
0
100
AcDbSpline
210
0.0
220
0.0
230
1.0
 70
     8
 71
     3
 72
    11
 73
     7
 74
     0
 42
0.000000001
 43
0.0000000001
 40
-1.0
 40
-1.0
 40
-1.0
 40
-1.0
 40
-0.8013492148287328
 40
-0.8013492148287328
 40
-0.8013492148287328
 40
-0.655582029244628
 40
-0.655582029244628
 40
-0.655582029244628
 40
-0.655582029244628
 10
-22.99999999999999
 20
-2.000000000000016
 30
0.0
 10
-22.99999961282738
 20
-1.999251617299997
 30
0.0
 10
-23.1246157661337
 20
-1.921360205912889
 30
0.0
 10
-23.33197761236124
 20
-1.794366616536846
 30
0.0
 10
-23.48413685349414
 20
-1.701180485434422
 30
0.0
 10
-23.68327587107707
 20
-1.582642101195287
 30
0.0
 10
-23.91485834810413
 20
-1.451144715625123
 30
0.0
  0
SPLINE
  5
B9BE
330
B9B0
100
AcDbEntity
  8
0
100
AcDbSpline
210
0.0
220
0.0
230
1.0
 70
     8
 71
     3
 72
    36
 73
    32
 74
     0
 42
0.000000001
 43
0.0000000001
 40
0.0
 40
0.0
 40
0.0
 40
0.0
 40
0.0042078912044314
 40
0.0042078912044314
 40
0.0101078520723423
 40
0.0101078520723423
 40
0.0212119939400568
 40
0.0212119939400568
 40
0.0341277613582381
 40
0.0341277613582381
 40
0.0655418928104451
 40
0.0655418928104451
 40
0.1598380158015002
 40
0.1598380158015002
 40
0.1898211200811484
 40
0.1898211200811484
 40
0.204682692183774
 40
0.204682692183774
 40
0.2120042539043026
 40
0.2120042539043026
 40
0.2130048018597467
 40
0.2130048018597467
 40
0.2137584947826435
 40
0.2137584947826435
 40
0.2142574502320742
 40
0.2142574502320742
 40
0.2148528532296877
 40
0.2148528532296877
 40
0.2156346446320785
 40
0.2156346446320785
 40
0.2167476655305815
 40
0.2167476655305815
 40
0.2167476655305815
 40
0.2167476655305815
 10
-22.9995638326827
 20
-2.06681671647526
 30
0.0
 10
-22.99957353702289
 20
-2.072212839963886
 30
0.0
 10
-22.99958304970288
 20
-2.079695087406867
 30
0.0
 10
-22.99958904003999
 20
-2.099330994458738
 30
0.0
 10
-22.99957862354676
 20
-2.112443687732856
 30
0.0
 10
-22.99945308940536
 20
-2.15283110025659
 30
0.0
 10
-22.9992287001229
 20
-2.183240115272339
 30
0.0
 10
-22.99850380406491
 20
-2.253326331083699
 30
0.0
 10
-22.99803375554263
 20
-2.293362007586647
 30
0.0
 10
-22.99670224577869
 20
-2.429452481623048
 30
0.0
 10
-22.99595523549237
 20
-2.525579594714137
 30
0.0
 10
-22.99333015645405
 20
-2.919920325124847
 30
0.0
 10
-22.99261500922298
 20
-3.214970397552756
 30
0.0
 10
-22.9947343813324
 20
-3.589686086449712
 30
0.0
 10
-22.9955119547343
 20
-3.679955404905884
 30
0.0
 10
-22.99716629329018
 20
-3.816726138350499
 30
0.0
 10
-22.9977942254208
 20
-3.862352566181317
 30
0.0
 10
-22.9988401657923
 20
-3.930580972039827
 30
0.0
 10
-22.99920805610908
 20
-3.953416189299623
 30
0.0
 10
-22.99962628867336
 20
-3.978299355337339
 30
0.0
 10
-22.999676504487
 20
-3.98126950950198
 30
0.0
 10
-22.99976059954701
 20
-3.986217942107492
 30
0.0
 10
-22.99979588446457
 20
-3.988285186934581
 30
0.0
 10
-22.99984546253089
 20
-3.991181264600072
 30
0.0
 10
-22.99986277780881
 20
-3.992190264374691
 30
0.0
 10
-22.99989272929206
 20
-3.993933633406214
 30
0.0
 10
-22.99990425082762
 20
-3.994602864223383
 30
0.0
 10
-22.99992427592631
 20
-3.995765610260459
 30
0.0
 10
-22.99993126148486
 20
-3.996170673033113
 30
0.0
 10
-22.99994476710015
 20
-3.996953807199514
 30
0.0
 10
-22.99995003990598
 20
-3.997259425681432
 30
0.0
 10
-22.99995419881347
 20
-3.997500458015704
 30
0.0
  0
SPLINE
  5
B9BF
330
B9B0
100
AcDbEntity
  8
0
100
AcDbSpline
210
0.0
220
0.0
230
1.0
 70
     8
 71
     3
 72
    14
 73
    10
 74
     0
 42
0.000000001
 43
0.0000000001
 40
0.0084605952895046
 40
0.0084605952895046
 40
0.0084605952895046
 40
0.0084605952895046
 40
0.0097983643420276
 40
0.0097983643420276
 40
0.0122913203878849
 40
0.0122913203878849
 40
0.0160467330747027
 40
0.0160467330747027
 40
0.0182945612309812
 40
0.0182945612309812
 40
0.0182945612309812
 40
0.0182945612309812
 10
-23.00010028603283
 20
-3.963830760754543
 30
0.0
 10
-23.00010028603463
 20
-3.963830760402259
 30
0.0
 10
-23.00009820704901
 20
-3.964230504782037
 30
0.0
 10
-23.00008742008124
 20
-3.966282396036498
 30
0.0
 10
-23.00007450207534
 20
-3.968728661671969
 30
0.0
 10
-23.00003721096921
 20
-3.976322927184616
 30
0.0
 10
-23.00001078938829
 20
-3.982218455360653
 30
0.0
 10
-22.9999723622916
 20
-3.992220259979398
 30
0.0
 10
-22.9999586947175
 20
-3.996089412739829
 30
0.0
 10
-22.99994586804537
 20
-3.999999557715529
 30
0.0
  0
SPLINE
  5
B9C0
330
B9B0
100
AcDbEntity
  8
0
100
AcDbSpline
210
0.0
220
0.0
230
1.0
 70
     8
 71
     3
 72
     8
 73
     4
 74
     0
 42
0.000000001
 43
0.0000000001
 40
0.0104939971459189
 40
0.0104939971459189
 40
0.0104939971459189
 40
0.0104939971459189
 40
0.0142445597622247
 40
0.0142445597622247
 40
0.0142445597622247
 40
0.0142445597622247
 10
-22.99996423139244
 20
-3.991506758625997
 30
0.0
 10
-22.99996423140279
 20
-3.991506762440945
 30
0.0
 10
-22.99996564458752
 20
-3.992145425825274
 30
0.0
 10
-22.99996853210453
 20
-3.99340054900017
 30
0.0
  0
SPLINE
  5
B9C1
330
B9B0
100
AcDbEntity
  8
0
100
AcDbSpline
210
0.0
220
0.0
230
1.0
 70
     8
 71
     3
 72
     8
 73
     4
 74
     0
 42
0.000000001
 43
0.0000000001
 40
0.0
 40
0.0
 40
0.0
 40
0.0
 40
0.0009774057124363
 40
0.0009774057124363
 40
0.0009774057124363
 40
0.0009774057124363
 10
-25.00007741699411
 20
-3.99999972513064
 30
0.0
 10
-25.00007045319297
 20
-3.998277341934145
 30
0.0
 10
-25.00006348140071
 20
-3.996492629646155
 30
0.0
 10
-25.00005653988262
 20
-3.994668303233488
 30
0.0
  0
SPLINE
  5
B9C2
330
B9B0
100
AcDbEntity
  8
0
100
AcDbSpline
210
0.0
220
0.0
230
1.0
 70
     8
 71
     3
 72
    14
 73
    10
 74
     0
 42
0.000000001
 43
0.0000000001
 40
0.014440882090981
 40
0.014440882090981
 40
0.014440882090981
 40
0.014440882090981
 40
0.0190488018591252
 40
0.0190488018591252
 40
0.0225809528447427
 40
0.0225809528447427
 40
0.0289503704741949
 40
0.0289503704741949
 40
0.0302527625297621
 40
0.0302527625297621
 40
0.0302527625297621
 40
0.0302527625297621
 10
-25.00004610604286
 20
-3.995524329872132
 30
0.0
 10
-25.00005560269452
 20
-3.994572820026503
 30
0.0
 10
-25.00007736789303
 20
-3.992585105024031
 30
0.0
 10
-25.00012436204278
 20
-3.988296841361474
 30
0.0
 10
-25.00015331316181
 20
-3.985692800126069
 30
0.0
 10
-25.00029325451532
 20
-3.97452087555544
 30
0.0
 10
-25.00046766663406
 20
-3.962058636158008
 30
0.0
 10
-25.00076899926869
 20
-3.946146258962817
 30
0.0
 10
-25.00082129773362
 20
-3.943526195526892
 30
0.0
 10
-25.00087605439246
 20
-3.940876999537779
 30
0.0
  0
SPLINE
  5
B9C3
330
B9B0
100
AcDbEntity
  8
0
100
AcDbSpline
210
0.0
220
0.0
230
1.0
 70
     8
 71
     3
 72
    14
 73
    10
 74
     0
 42
0.000000001
 43
0.0000000001
 40
0.0
 40
0.0
 40
0.0
 40
0.0
 40
0.0026797677431346
 40
0.0026797677431346
 40
0.0037539200487474
 40
0.0037539200487474
 40
0.0051001879464255
 40
0.0051001879464255
 40
0.005459237013963
 40
0.005459237013963
 40
0.005459237013963
 40
0.005459237013963
 10
-25.00002469765665
 20
-3.999999770855643
 30
0.0
 10
-25.00006827164403
 20
-3.991962446342787
 30
0.0
 10
-25.00012836374115
 20
-3.984332747559104
 30
0.0
 10
-25.00020912195066
 20
-3.976044882806463
 30
0.0
 10
-25.00023188556075
 20
-3.973921001269679
 30
0.0
 10
-25.00027257352004
 20
-3.970298657478814
 30
0.0
 10
-25.00028755747552
 20
-3.969087227224635
 30
0.0
 10
-25.00029359334336
 20
-3.968595358239141
 30
0.0
 10
-25.0002942018547
 20
-3.968546223847385
 30
0.0
 10
-25.00029420186006
 20
-3.968546223412592
 30
0.0
  0
SPLINE
  5
B9C4
330
B9B0
100
AcDbEntity
  8
0
100
AcDbSpline
210
0.0
220
0.0
230
1.0
 70
     8
 71
     3
 72
    22
 73
    18
 74
     0
 42
0.000000001
 43
0.0000000001
 40
0.0521012219654642
 40
0.0521012219654642
 40
0.0521012219654642
 40
0.0521012219654642
 40
0.0521634737962634
 40
0.0521634737962634
 40
0.0583544656749392
 40
0.0583544656749392
 40
0.0673174094361404
 40
0.0673174094361404
 40
0.0799077487534899
 40
0.0799077487534899
 40
0.0955108005876841
 40
0.0955108005876841
 40
0.1136299820425428
 40
0.1136299820425428
 40
0.1262142083455007
 40
0.1262142083455007
 40
0.1391761048904211
 40
0.1391761048904211
 40
0.1391761048904211
 40
0.1391761048904211
 10
-26.80707993824409
 20
-2.009326284537152
 30
0.0
 10
-26.8072788402559
 20
-2.009313885700493
 30
0.0
 10
-26.80747780173723
 20
-2.009301502980098
 30
0.0
 10
-26.82746895399945
 20
-2.008059742079869
 30
0.0
 10
-26.84809738851406
 20
-2.007001187342337
 30
0.0
 10
-26.89847331846466
 20
-2.004855710412982
 30
0.0
 10
-26.92865256332041
 20
-2.003940695152884
 30
0.0
 10
-26.99947788871741
 20
-2.002322192064365
 30
0.0
 10
-27.04017284332122
 20
-2.001822881330823
 30
0.0
 10
-27.12585079221663
 20
-2.001106549023851
 30
0.0
 10
-27.16935175768791
 20
-2.000978552365718
 30
0.0
 10
-27.2689293901361
 20
-2.000647296408727
 30
0.0
 10
-27.32628028786307
 20
-2.000447583796947
 30
0.0
 10
-27.42406362752406
 20
-2.000194269560297
 30
0.0
 10
-27.46437539877402
 20
-2.000124494297661
 30
0.0
 10
-27.54305528677105
 20
-2.000044112444851
 30
0.0
 10
-27.58290549615078
 20
-2.000027193199648
 30
0.0
 10
-27.61409315266555
 20
-2.000025836281329
 30
0.0
  0
LINE
  5
B9C5
330
B9B0
100
AcDbEntity
  8
0
100
AcDbLine
 10
-23.00000000000002
 20
-2.000000000000007
 30
0.0
 11
-21.00000000000001
 21
-2.000000000000004
 31
0.0
  0
LINE
  5
B9C6
330
B9B0
100
AcDbEntity
  8
0
100
AcDbLine
 10
-22.99999999999998
 20
-86.0
 30
0.0
 11
-20.99999999999998
 21
-86.0
 31
0.0
  0
LINE
  5
B9C7
330
B9B0
100
AcDbEntity
  8
0
100
AcDbLine
 10
21.00000000000002
 20
-2.000000000000004
 30
0.0
 11
-21.00000000000002
 21
-2.000000000000004
 31
0.0
  0
LINE
  5
B9C8
330
B9B0
100
AcDbEntity
  8
0
100
AcDbLine
 10
-20.99999999999998
 20
-86.0
 30
0.0
 11
20.99999999999999
 21
-86.0
 31
0.0
  0
CIRCLE
  5
B9C9
330
B9B0
100
AcDbEntity
  8
0
100
AcDbCircle
 10
0.0
 20
-47.99999999999998
 30
0.0
 40
2.5
  0
CIRCLE
  5
B9CA
330
B9B0
100
AcDbEntity
  8
0
100
AcDbCircle
 10
0.0
 20
-67.99999999999998
 30
0.0
 40
2.5
  0
LINE
  5
B9CB
330
B9B0
100
AcDbEntity
  8
0
100
AcDbLine
 10
23.00000000000002
 20
-2.000000000000007
 30
0.0
 11
21.00000000000001
 21
-2.000000000000004
 31
0.0
  0
LINE
  5
B9CC
330
B9B0
100
AcDbEntity
  8
0
100
AcDbLine
 10
26.99999999999999
 20
0.0
 30
0.0
 11
64.50000000000001
 21
0.0
 31
0.0
  0
ARC
  5
B9CD
330
B9B0
100
AcDbEntity
  8
0
100
AcDbCircle
 10
27.0
 20
-4.000000000000004
 30
0.0
 40
3.999999999999999
100
AcDbArc
 50
90.00000000000012
 51
180.0
  0
LINE
  5
B9CE
330
B9B0
100
AcDbEntity
  8
0
100
AcDbLine
 10
22.99999999999999
 20
-86.00000000000003
 30
0.0
 11
23.0
 21
-46.00000000000002
 31
0.0
  0
LINE
  5
B9CF
330
B9B0
100
AcDbEntity
  8
0
100
AcDbLine
 10
25.0
 20
-86.00000000000003
 30
0.0
 11
22.99999999999999
 21
-86.00000000000003
 31
0.0
  0
LINE
  5
B9D0
330
B9B0
100
AcDbEntity
  8
0
100
AcDbLine
 10
25.0
 20
-46.00000000000002
 30
0.0
 11
25.0
 21
-86.00000000000003
 31
0.0
  0
LINE
  5
B9D1
330
B9B0
100
AcDbEntity
  8
0
100
AcDbLine
 10
23.0
 20
-46.0
 30
0.0
 11
25.0
 21
-46.0
 31
0.0
  0
LINE
  5
B9D2
330
B9B0
100
AcDbEntity
  8
0
100
AcDbLine
 10
25.0
 20
-4.000000000000003
 30
0.0
 11
25.0
 21
-46.0
 31
0.0
  0
LINE
  5
B9D3
330
B9B0
100
AcDbEntity
  8
0
100
AcDbLine
 10
23.0
 20
-46.0
 30
0.0
 11
23.0
 21
-4.000000000000003
 31
0.0
  0
LINE
  5
B9D4
330
B9B0
100
AcDbEntity
  8
0
100
AcDbLine
 10
22.99999999999998
 20
-86.0
 30
0.0
 11
20.99999999999998
 21
-86.0
 31
0.0
  0
ARC
  5
B9D5
330
B9B0
100
AcDbEntity
  8
0
100
AcDbCircle
 10
27.0
 20
-4.000000000000004
 30
0.0
 40
1.999999999999997
100
AcDbArc
 50
90.00000000000012
 51
180.0
  0
LINE
  5
B9D6
330
B9B0
100
AcDbEntity
  8
0
100
AcDbLine
 10
64.50000000000001
 20
0.0
 30
0.0
 11
64.50000000000001
 21
-2.000000000000006
 31
0.0
  0
LINE
  5
B9D7
330
B9B0
100
AcDbEntity
  8
0
100
AcDbLine
 10
64.50000000000001
 20
-2.000000000000006
 30
0.0
 11
27.0
 21
-2.000000000000006
 31
0.0
  0
LINE
  5
B9D8
330
B9B0
100
AcDbEntity
  8
0
100
AcDbLine
 10
-64.50000000000001
 20
-2.000000000000006
 30
0.0
 11
-27.0
 21
-2.000000000000006
 31
0.0
  0
LINE
  5
B9D9
330
B9B0
100
AcDbEntity
  8
0
100
AcDbLine
 10
-23.0
 20
-46.0
 30
0.0
 11
-23.0
 21
-4.000000000000003
 31
0.0
  0
LINE
  5
B9DA
330
B9B0
100
AcDbEntity
  8
0
100
AcDbLine
 10
-25.0
 20
-4.000000000000003
 30
0.0
 11
-25.0
 21
-46.0
 31
0.0
  0
LINE
  5
B9DB
330
B9B0
100
AcDbEntity
  8
0
100
AcDbLine
 10
-26.99999999999999
 20
0.0
 30
0.0
 11
-64.50000000000001
 21
0.0
 31
0.0
  0
LINE
  5
B9DC
330
B9B0
100
AcDbEntity
  8
0
100
AcDbLine
 10
-64.50000000000001
 20
0.0
 30
0.0
 11
-64.50000000000001
 21
-2.000000000000006
 31
0.0
  0
ARC
  5
B9DD
330
B9B0
100
AcDbEntity
  8
0
100
AcDbCircle
 10
-27.0
 20
-4.000000000000004
 30
0.0
 40
1.999999999999997
100
AcDbArc
 50
0.0
 51
89.99999999999987
  0
ARC
  5
B9DE
330
B9B0
100
AcDbEntity
  8
0
100
AcDbCircle
 10
-27.0
 20
-4.000000000000004
 30
0.0
 40
3.999999999999999
100
AcDbArc
 50
0.0
 51
89.99999999999987
  0
LINE
  5
B9DF
330
B9B0
100
AcDbEntity
  8
0
100
AcDbLine
 10
-23.0
 20
-46.00000000000002
 30
0.0
 11
-22.99999999999999
 21
-86.00000000000003
 31
0.0
  0
LINE
  5
B9E0
330
B9B0
100
AcDbEntity
  8
0
100
AcDbLine
 10
-25.0
 20
-86.00000000000003
 30
0.0
 11
-25.0
 21
-46.00000000000002
 31
0.0
  0
LINE
  5
B9E1
330
B9B0
100
AcDbEntity
  8
0
100
AcDbLine
 10
-22.99999999999999
 20
-86.00000000000003
 30
0.0
 11
-25.0
 21
-86.00000000000003
 31
0.0
  0
LINE
  5
B9E2
330
B9B0
100
AcDbEntity
  8
0
100
AcDbLine
 10
-25.0
 20
-46.0
 30
0.0
 11
-23.0
 21
-46.0
 31
0.0
  0
ENDBLK
  5
B9B2
330
B9B0
100
AcDbEntity
  8
0
100
AcDbBlockEnd
  0
BLOCK
  5
B9E4
330
B9E3
100
AcDbEntity
  8
0
100
AcDbBlockBegin
  2
SAE500_46_2-Bottom
 70
     0
 10
0.0
 20
0.0
 30
0.0
  3
SAE500_46_2-Bottom
  1

  0
SPLINE
  5
B9E6
330
B9E3
100
AcDbEntity
  8
0
100
AcDbSpline
210
0.0
220
0.0
230
1.0
 70
     8
 71
     3
 72
    11
 73
     7
 74
     0
 42
0.000000001
 43
0.0000000001
 40
0.0
 40
0.0
 40
0.0
 40
0.0
 40
0.3318350838477656
 40
0.3318350838477656
 40
0.3318350838477656
 40
1.0
 40
1.0
 40
1.0
 40
1.0
 10
27.66666666666675
 20
2.000000000000022
 30
0.0
 10
27.35374819352801
 20
2.000040448150619
 30
0.0
 10
26.94838460545018
 20
1.996206906419477
 30
0.0
 10
26.55645635873803
 20
1.998525009800351
 30
0.0
 10
25.76729114731556
 20
2.003192615567512
 30
0.0
 10
24.99999399899082
 20
2.000338492026593
 30
0.0
 10
24.99999999916276
 20
1.999999999986175
 30
0.0
  0
LINE
  5
B9E7
330
B9E3
100
AcDbEntity
  8
0
100
AcDbLine
 10
27.0
 20
2.000000000000011
 30
0.0
 11
27.04021603161056
 21
2.000000000000011
 31
0.0
  0
LINE
  5
B9E8
330
B9E3
100
AcDbEntity
  8
0
100
AcDbLine
 10
27.61409315266563
 20
2.000000000000011
 30
0.0
 11
27.66666666666671
 21
2.000000000000011
 31
0.0
  0
ARC
  5
B9E9
330
B9E3
100
AcDbEntity
  8
0
100
AcDbCircle
 10
27.0
 20
4.000000000000004
 30
0.0
 40
1.999999999999992
100
AcDbArc
 50
180.1907730722057
 51
264.2434868840779
  0
ARC
  5
B9EA
330
B9E3
100
AcDbEntity
  8
0
100
AcDbCircle
 10
27.0
 20
4.000000000000004
 30
0.0
 40
1.999999999999992
100
AcDbArc
 50
269.9797260431665
 51
270.0000000000001
  0
ARC
  5
B9EB
330
B9E3
100
AcDbEntity
  8
0
100
AcDbCircle
 10
27.0
 20
4.000000000000004
 30
0.0
 40
3.999999999999994
100
AcDbArc
 50
219.5790975380957
 51
270.0
  0
LINE
  5
B9EC
330
B9E3
100
AcDbEntity
  8
0
100
AcDbLine
 10
27.66666666666672
 20
0.0
 30
0.0
 11
27.0
 21
0.0
 31
0.0
  0
SPLINE
  5
B9ED
330
B9E3
100
AcDbEntity
  8
0
100
AcDbSpline
210
0.0
220
0.0
230
1.0
 70
     8
 71
     3
 72
    17
 73
    13
 74
     0
 42
0.000000001
 43
0.0000000001
 40
-1.0
 40
-1.0
 40
-1.0
 40
-1.0
 40
-0.8013492148287328
 40
-0.8013492148287328
 40
-0.8013492148287328
 40
-0.3797519051246411
 40
-0.3797519051246411
 40
-0.3797519051246411
 40
-0.0799947265063378
 40
-0.0799947265063378
 40
-0.0799947265063378
 40
0.0
 40
0.0
 40
0.0
 40
0.0
 10
22.99999999999999
 20
2.000000000000016
 30
0.0
 10
22.99999961282738
 20
1.999251617299997
 30
0.0
 10
23.1246157661337
 20
1.921360205912889
 30
0.0
 10
23.33197761236124
 20
1.794366616536846
 30
0.0
 10
23.77206243976042
 20
1.524847643407966
 30
0.0
 10
24.60514230820539
 20
1.043252102127191
 30
0.0
 10
25.47952029193963
 20
0.6494268217380786
 30
0.0
 10
26.10120613152457
 20
0.3694156542074784
 30
0.0
 10
26.73500570562981
 20
0.1286196353648059
 30
0.0
 10
27.26598459948445
 20
0.037548348676028
 30
0.0
 10
27.40768432988064
 20
0.0132446015403315
 30
0.0
 10
27.53970905965079
 20
0.0000044908431248
 30
0.0
 10
27.6666666666974
 20
0.000000000062566
 30
0.0
  0
LINE
  5
B9EE
330
B9E3
100
AcDbEntity
  8
0
100
AcDbLine
 10
27.66666666666671
 20
2.000000000000011
 30
0.0
 11
27.66666666666673
 21
0.0
 31
0.0
  0
SPLINE
  5
B9EF
330
B9E3
100
AcDbEntity
  8
0
100
AcDbSpline
210
0.0
220
0.0
230
1.0
 70
     8
 71
     3
 72
    30
 73
    26
 74
     0
 42
0.000000001
 43
0.0000000001
 40
0.0394322331464076
 40
0.0394322331464076
 40
0.0394322331464076
 40
0.0394322331464076
 40
0.0413890232693961
 40
0.0413890232693961
 40
0.0431764041534214
 40
0.0431764041534214
 40
0.0452453884362509
 40
0.0452453884362509
 40
0.0480305119729602
 40
0.0480305119729602
 40
0.0521634737962008
 40
0.0521634737962008
 40
0.0583544656748989
 40
0.0583544656748989
 40
0.0673174094360554
 40
0.0673174094360554
 40
0.079907748753394
 40
0.079907748753394
 40
0.0955108005875616
 40
0.0955108005875616
 40
0.113629982042531
 40
0.113629982042531
 40
0.1262142083454996
 40
0.1262142083454996
 40
0.1391761048904384
 40
0.1391761048904384
 40
0.1391761048904384
 40
0.1391761048904384
 10
26.72056543330349
 20
2.016376406660592
 30
0.0
 10
26.72056543421503
 20
2.016376406561705
 30
0.0
 10
26.721726185448
 20
2.016249903835754
 30
0.0
 10
26.72596706373682
 20
2.015810564645417
 30
0.0
 10
26.72887719812645
 20
2.015515126792188
 30
0.0
 10
26.73635669835425
 20
2.014787403863929
 30
0.0
 10
26.74116991118105
 20
2.01433586807667
 30
0.0
 10
26.75340219704585
 20
2.013246639214902
 30
0.0
 10
26.76124544191988
 20
2.012589840998675
 30
0.0
 10
26.78149108396211
 20
2.011015730837174
 30
0.0
 10
26.79446404646725
 20
2.010109859209268
 30
0.0
 10
26.82746895399878
 20
2.008059742079905
 30
0.0
 10
26.84809738851348
 20
2.007001187342365
 30
0.0
 10
26.898473318464
 20
2.004855710413007
 30
0.0
 10
26.92865256331958
 20
2.003940695152908
 30
0.0
 10
26.99947788871643
 20
2.002322192064381
 30
0.0
 10
27.04017284332023
 20
2.001822881330833
 30
0.0
 10
27.12585079221562
 20
2.001106549023855
 30
0.0
 10
27.16935175768686
 20
2.000978552365721
 30
0.0
 10
27.26892939013522
 20
2.000647296408728
 30
0.0
 10
27.32628028786252
 20
2.000447583796948
 30
0.0
 10
27.42406362752391
 20
2.000194269560297
 30
0.0
 10
27.46437539877389
 20
2.000124494297661
 30
0.0
 10
27.54305528677102
 20
2.00004411244485
 30
0.0
 10
27.5829054961508
 20
2.000027193199647
 30
0.0
 10
27.61409315266563
 20
2.000025836281328
 30
0.0
  0
SPLINE
  5
B9F0
330
B9E3
100
AcDbEntity
  8
0
100
AcDbSpline
210
0.0
220
0.0
230
1.0
 70
     8
 71
     3
 72
     8
 73
     4
 74
     0
 42
0.000000001
 43
0.0000000001
 40
0.0
 40
0.0
 40
0.0
 40
0.0
 40
0.0037391778424224
 40
0.0037391778424224
 40
0.0037391778424224
 40
0.0037391778424224
 10
25.00007741699411
 20
3.99999972513064
 30
0.0
 10
25.00005077617281
 20
3.993410550336028
 30
0.0
 10
25.00002390979029
 20
3.985956848747351
 30
0.0
 10
25.0
 20
3.978440091153499
 30
0.0
  0
SPLINE
  5
B9F1
330
B9E3
100
AcDbEntity
  8
0
100
AcDbSpline
210
0.0
220
0.0
230
1.0
 70
     8
 71
     3
 72
    18
 73
    14
 74
     0
 42
0.000000001
 43
0.0000000001
 40
0.0146443696936561
 40
0.0146443696936561
 40
0.0146443696936561
 40
0.0146443696936561
 40
0.0190488018591252
 40
0.0190488018591252
 40
0.0225809528447427
 40
0.0225809528447427
 40
0.0289503704741949
 40
0.0289503704741949
 40
0.044053035431059
 40
0.044053035431059
 40
0.0515516951814504
 40
0.0515516951814504
 40
0.0526123735805215
 40
0.0526123735805215
 40
0.0526123735805215
 40
0.0526123735805215
 10
25.00005652801334
 20
3.994674094134471
 30
0.0
 10
25.00006596775364
 20
3.99373128828017
 30
0.0
 10
25.00007854266499
 20
3.992477905895335
 30
0.0
 10
25.00012436204278
 20
3.988296841361474
 30
0.0
 10
25.00015331316181
 20
3.985692800126069
 30
0.0
 10
25.00029325451532
 20
3.97452087555544
 30
0.0
 10
25.00046766663406
 20
3.962058636158008
 30
0.0
 10
25.00131104511743
 20
3.917522615152829
 30
0.0
 10
25.00213081900618
 20
3.892044266235084
 30
0.0
 10
25.00297291188072
 20
3.869617892373318
 30
0.0
 10
25.0031841075139
 20
3.86473332879204
 30
0.0
 10
25.00323837630594
 20
3.863476173326524
 30
0.0
 10
25.00324186517251
 20
3.863396050230454
 30
0.0
 10
25.00324186517282
 20
3.863396050223285
 30
0.0
  0
CIRCLE
  5
B9F2
330
B9E3
100
AcDbEntity
  8
0
100
AcDbCircle
 10
0.0
 20
67.99999999999998
 30
0.0
 40
2.5
  0
CIRCLE
  5
B9F3
330
B9E3
100
AcDbEntity
  8
0
100
AcDbCircle
 10
0.0
 20
47.99999999999998
 30
0.0
 40
2.5
  0
LINE
  5
B9F4
330
B9E3
100
AcDbEntity
  8
0
100
AcDbLine
 10
21.00000000000002
 20
2.000000000000004
 30
0.0
 11
-21.00000000000002
 21
2.000000000000004
 31
0.0
  0
LINE
  5
B9F5
330
B9E3
100
AcDbEntity
  8
0
100
AcDbLine
 10
20.99999999999999
 20
86.0
 30
0.0
 11
-20.99999999999998
 21
86.0
 31
0.0
  0
SPLINE
  5
B9F6
330
B9E3
100
AcDbEntity
  8
0
100
AcDbSpline
210
0.0
220
0.0
230
1.0
 70
     8
 71
     3
 72
    17
 73
    13
 74
     0
 42
0.000000001
 43
0.0000000001
 40
-1.0
 40
-1.0
 40
-1.0
 40
-1.0
 40
-0.8013492148287328
 40
-0.8013492148287328
 40
-0.8013492148287328
 40
-0.3797519051246411
 40
-0.3797519051246411
 40
-0.3797519051246411
 40
-0.0799947265063378
 40
-0.0799947265063378
 40
-0.0799947265063378
 40
0.0
 40
0.0
 40
0.0
 40
0.0
 10
-22.99999999999999
 20
2.000000000000016
 30
0.0
 10
-22.99999961282738
 20
1.999251617299997
 30
0.0
 10
-23.1246157661337
 20
1.921360205912889
 30
0.0
 10
-23.33197761236124
 20
1.794366616536846
 30
0.0
 10
-23.77206243976042
 20
1.524847643407966
 30
0.0
 10
-24.60514230820539
 20
1.043252102127191
 30
0.0
 10
-25.47952029193963
 20
0.6494268217380786
 30
0.0
 10
-26.10120613152457
 20
0.3694156542074784
 30
0.0
 10
-26.73500570562981
 20
0.1286196353648059
 30
0.0
 10
-27.26598459948445
 20
0.037548348676028
 30
0.0
 10
-27.40768432988064
 20
0.0132446015403315
 30
0.0
 10
-27.53970905965079
 20
0.0000044908431248
 30
0.0
 10
-27.6666666666974
 20
0.000000000062566
 30
0.0
  0
LINE
  5
B9F7
330
B9E3
100
AcDbEntity
  8
0
100
AcDbLine
 10
-27.0
 20
0.0
 30
0.0
 11
-27.66666666666672
 21
0.0
 31
0.0
  0
ARC
  5
B9F8
330
B9E3
100
AcDbEntity
  8
0
100
AcDbCircle
 10
-27.0
 20
4.000000000000004
 30
0.0
 40
3.999999999999994
100
AcDbArc
 50
270.0
 51
320.4209024619043
  0
ARC
  5
B9F9
330
B9E3
100
AcDbEntity
  8
0
100
AcDbCircle
 10
-27.0
 20
4.000000000000004
 30
0.0
 40
1.999999999999992
100
AcDbArc
 50
269.9999999999999
 51
270.020273956828
  0
ARC
  5
B9FA
330
B9E3
100
AcDbEntity
  8
0
100
AcDbCircle
 10
-27.0
 20
4.000000000000004
 30
0.0
 40
1.999999999999992
100
AcDbArc
 50
275.7565131159239
 51
359.8092269279107
  0
LINE
  5
B9FB
330
B9E3
100
AcDbEntity
  8
0
100
AcDbLine
 10
-27.66666666666671
 20
2.000000000000011
 30
0.0
 11
-27.61409315266567
 21
2.000000000000011
 31
0.0
  0
LINE
  5
B9FC
330
B9E3
100
AcDbEntity
  8
0
100
AcDbLine
 10
-27.04021603161034
 20
2.000000000000011
 30
0.0
 11
-27.0
 21
2.000000000000011
 31
0.0
  0
SPLINE
  5
B9FD
330
B9E3
100
AcDbEntity
  8
0
100
AcDbSpline
210
0.0
220
0.0
230
1.0
 70
     8
 71
     3
 72
    11
 73
     7
 74
     0
 42
0.000000001
 43
0.0000000001
 40
0.0
 40
0.0
 40
0.0
 40
0.0
 40
0.3318350838477656
 40
0.3318350838477656
 40
0.3318350838477656
 40
1.0
 40
1.0
 40
1.0
 40
1.0
 10
-27.66666666666675
 20
2.000000000000022
 30
0.0
 10
-27.35374819352801
 20
2.000040448150619
 30
0.0
 10
-26.94838460545018
 20
1.996206906419477
 30
0.0
 10
-26.55645635873803
 20
1.998525009800351
 30
0.0
 10
-25.76729114731556
 20
2.003192615567512
 30
0.0
 10
-24.99999399899082
 20
2.000338492026593
 30
0.0
 10
-24.99999999916276
 20
1.999999999986175
 30
0.0
  0
LINE
  5
B9FE
330
B9E3
100
AcDbEntity
  8
0
100
AcDbLine
 10
-27.66666666666673
 20
0.0
 30
0.0
 11
-27.66666666666671
 21
2.000000000000011
 31
0.0
  0
SPLINE
  5
B9FF
330
B9E3
100
AcDbEntity
  8
0
100
AcDbSpline
210
0.0
220
0.0
230
1.0
 70
     8
 71
     3
 72
    10
 73
     6
 74
     0
 42
0.000000001
 43
0.0000000001
 40
0.0197580355913748
 40
0.0197580355913748
 40
0.0197580355913748
 40
0.0197580355913748
 40
0.0200675656536691
 40
0.0200675656536691
 40
0.0234974110046884
 40
0.0234974110046884
 40
0.0234974110046884
 40
0.0234974110046884
 10
-25.00000000167097
 20
3.978439545116527
 30
0.0
 10
-25.00000198079894
 20
3.979061743182066
 30
0.0
 10
-25.00000397727534
 20
3.979684105771062
 30
0.0
 10
-25.00002832745649
 20
3.987184685487623
 30
0.0
 10
-25.00005298009892
 20
3.993955655688292
 30
0.0
 10
-25.00007741699412
 20
3.999999725130641
 30
0.0
  0
SPLINE
  5
BA00
330
B9E3
100
AcDbEntity
  8
0
100
AcDbSpline
210
0.0
220
0.0
230
1.0
 70
     8
 71
     3
 72
    16
 73
    12
 74
     0
 42
0.000000001
 43
0.0000000001
 40
0.0092382827902041
 40
0.0092382827902041
 40
0.0092382827902041
 40
0.0092382827902041
 40
0.009544209768788
 40
0.009544209768788
 40
0.0102950443456805
 40
0.0102950443456805
 40
0.0114866400737294
 40
0.0114866400737294
 40
0.0126229715533025
 40
0.0126229715533025
 40
0.0141040210324229
 40
0.0141040210324229
 40
0.0141040210324229
 40
0.0141040210324229
 10
-25.00029420186005
 20
3.96854622341318
 30
0.0
 10
-25.00029420185836
 20
3.968546223549454
 30
0.0
 10
-25.00029376116331
 20
3.968581824875438
 30
0.0
 10
-25.00029059550517
 20
3.968839413568669
 30
0.0
 10
-25.00028537257819
 20
3.96926436230494
 30
0.0
 10
-25.00026436906187
 20
3.97103349962013
 30
0.0
 10
-25.00024358799276
 20
3.972825123608752
 30
0.0
 10
-25.00019678214023
 20
3.977268754211229
 30
0.0
 10
-25.00017136053288
 20
3.979855739787786
 30
0.0
 10
-25.00011471903712
 20
3.986299491387097
 30
0.0
 10
-25.00008359319349
 20
3.990358173993847
 30
0.0
 10
-25.00005636103317
 20
3.99462814638316
 30
0.0
  0
SPLINE
  5
BA01
330
B9E3
100
AcDbEntity
  8
0
100
AcDbSpline
210
0.0
220
0.0
230
1.0
 70
     8
 71
     3
 72
    10
 73
     6
 74
     0
 42
0.000000001
 43
0.0000000001
 40
0.0141241327464179
 40
0.0141241327464179
 40
0.0141241327464179
 40
0.0141241327464179
 40
0.0142674142368974
 40
0.0142674142368974
 40
0.0147126658373522
 40
0.0147126658373522
 40
0.0147126658373522
 40
0.0147126658373522
 10
-25.00005525212903
 20
3.994802236051895
 30
0.0
 10
-25.00005262733953
 20
3.995215886413996
 30
0.0
 10
-25.00005003150663
 20
3.995631594035402
 30
0.0
 10
-25.00003954230089
 20
3.997346248867552
 30
0.0
 10
-25.0000319376078
 20
3.998664344824068
 30
0.0
 10
-25.00002469765663
 20
3.999999770855641
 30
0.0
  0
SPLINE
  5
BA02
330
B9E3
100
AcDbEntity
  8
0
100
AcDbSpline
210
0.0
220
0.0
230
1.0
 70
     8
 71
     3
 72
    18
 73
    14
 74
     0
 42
0.000000001
 43
0.0000000001
 40
0.031142411055651
 40
0.031142411055651
 40
0.031142411055651
 40
0.031142411055651
 40
0.037590201660793
 40
0.037590201660793
 40
0.0459986842315035
 40
0.0459986842315035
 40
0.0575840419897016
 40
0.0575840419897016
 40
0.0629277704610202
 40
0.0629277704610202
 40
0.0678206508126562
 40
0.0678206508126562
 40
0.0691481216747521
 40
0.0691481216747521
 40
0.0691481216747521
 40
0.0691481216747521
 10
-25.00324186517275
 20
3.863396050224403
 30
0.0
 10
-25.00324186514769
 20
3.863396050800341
 30
0.0
 10
-25.00311067993243
 20
3.866369149461556
 30
0.0
 10
-25.00264946327426
 20
3.878026208662209
 30
0.0
 10
-25.00226822603302
 20
3.888333369374239
 30
0.0
 10
-25.00135381179543
 20
3.91849514061325
 30
0.0
 10
-25.00077099140288
 20
3.943772855307661
 30
0.0
 10
-25.00028298985815
 20
3.974936773327582
 30
0.0
 10
-25.00019323983975
 20
3.982377631248155
 30
0.0
 10
-25.0000992334474
 20
3.990463522052242
 30
0.0
 10
-25.00008010743146
 20
3.992360473148943
 30
0.0
 10
-25.00006258430763
 20
3.994072060741666
 30
0.0
 10
-25.00005910484986
 20
3.994411868337496
 30
0.0
 10
-25.00005625827033
 20
3.994696174024053
 30
0.0
  0
SPLINE
  5
BA03
330
B9E3
100
AcDbEntity
  8
0
100
AcDbSpline
210
0.0
220
0.0
230
1.0
 70
     8
 71
     3
 72
    34
 73
    30
 74
     0
 42
0.000000001
 43
0.0000000001
 40
0.0
 40
0.0
 40
0.0
 40
0.0
 40
0.0065342796809523
 40
0.0065342796809523
 40
0.0152718551331429
 40
0.0152718551331429
 40
0.0320193297482607
 40
0.0320193297482607
 40
0.0457471446299488
 40
0.0457471446299488
 40
0.0591040363439445
 40
0.0591040363439445
 40
0.0688368645353842
 40
0.0688368645353842
 40
0.0768570127211865
 40
0.0768570127211865
 40
0.0838577258930779
 40
0.0838577258930779
 40
0.0892729263902549
 40
0.0892729263902549
 40
0.0930683684474658
 40
0.0930683684474658
 40
0.0955757822796311
 40
0.0955757822796311
 40
0.0971396980581368
 40
0.0971396980581368
 40
0.0982708138434911
 40
0.0982708138434911
 40
0.0998278077864498
 40
0.0998278077864498
 40
0.0998278077864498
 40
0.0998278077864498
 10
-27.61409315266567
 20
2.000025836281329
 30
0.0
 10
-27.59837100355309
 20
2.000026520323495
 30
0.0
 10
-27.58019964663454
 20
2.000031937881431
 30
0.0
 10
-27.53617803554758
 20
2.000054177804617
 30
0.0
 10
-27.5093357386122
 20
2.000074414145236
 30
0.0
 10
-27.42982312619956
 20
2.000175093407805
 30
0.0
 10
-27.3755657823126
 20
2.000309870002705
 30
0.0
 10
-27.27971681058414
 20
2.000611035121156
 30
0.0
 10
-27.23775356245093
 20
2.000747421719661
 30
0.0
 10
-27.15858816631746
 20
2.001019551294526
 30
0.0
 10
-27.12101720934712
 20
2.001153551972438
 30
0.0
 10
-27.0509835620434
 20
2.001727977789832
 30
0.0
 10
-27.02006503401833
 20
2.002077085244089
 30
0.0
 10
-26.96250789922001
 20
2.003117673777087
 30
0.0
 10
-26.93586274843454
 20
2.003743962020409
 30
0.0
 10
-26.88588447276485
 20
2.005368108447089
 30
0.0
 10
-26.86233140862954
 20
2.0063194926449
 30
0.0
 10
-26.82149659083006
 20
2.008413447001387
 30
0.0
 10
-26.80379536384295
 20
2.009477446243566
 30
0.0
 10
-26.77538682053095
 20
2.01146967027306
 30
0.0
 10
-26.76400852145901
 20
2.012355984523511
 30
0.0
 10
-26.74703152882268
 20
2.01380231419647
 30
0.0
 10
-26.74070877792646
 20
2.014377332897366
 30
0.0
 10
-26.73211112181268
 20
2.015197056820416
 30
0.0
 10
-26.72917942545968
 20
2.015487027827801
 30
0.0
 10
-26.72514029105607
 20
2.015895714641
 30
0.0
 10
-26.72373942943695
 20
2.016040821180482
 30
0.0
 10
-26.72128829869198
 20
2.016297713768448
 30
0.0
 10
-26.72056542268244
 20
2.01637640781279
 30
0.0
 10
-26.72056543330322
 20
2.016376406660621
 30
0.0
  0
LINE
  5
BA04
330
B9E3
100
AcDbEntity
  8
0
100
AcDbLine
 10
-25.00000000000002
 20
2.000000000000011
 30
0.0
 11
-21.00000000000001
 21
2.000000000000004
 31
0.0
  0
LINE
  5
BA05
330
B9E3
100
AcDbEntity
  8
0
100
AcDbLine
 10
-20.99999999999998
 20
86.0
 30
0.0
 11
-24.99999999999999
 21
86.0
 31
0.0
  0
LINE
  5
BA06
330
B9E3
100
AcDbEntity
  8
0
100
AcDbLine
 10
-25.00000000000001
 20
2.000000000000011
 30
0.0
 11
-24.99999999999999
 21
86.0
 31
0.0
  0
LINE
  5
BA07
330
B9E3
100
AcDbEntity
  8
0
100
AcDbLine
 10
25.00000000000002
 20
2.000000000000011
 30
0.0
 11
21.00000000000001
 21
2.000000000000004
 31
0.0
  0
LINE
  5
BA08
330
B9E3
100
AcDbEntity
  8
0
100
AcDbLine
 10
25.00000000000001
 20
2.000000000000011
 30
0.0
 11
24.99999999999999
 21
86.0
 31
0.0
  0
LINE
  5
BA09
330
B9E3
100
AcDbEntity
  8
0
100
AcDbLine
 10
20.99999999999998
 20
86.0
 30
0.0
 11
24.99999999999999
 21
86.0
 31
0.0
  0
LINE
  5
BA0A
330
B9E3
100
AcDbEntity
  8
0
100
AcDbLine
 10
64.50000000000004
 20
0.0
 30
0.0
 11
27.66666666666672
 21
0.0
 31
0.0
  0
LINE
  5
BA0B
330
B9E3
100
AcDbEntity
  8
0
100
AcDbLine
 10
64.50000000000004
 20
2.000000000000081
 30
0.0
 11
64.50000000000004
 21
0.0
 31
0.0
  0
LINE
  5
BA0C
330
B9E3
100
AcDbEntity
  8
0
100
AcDbLine
 10
27.66666666666672
 20
2.000000000000011
 30
0.0
 11
64.50000000000004
 21
2.000000000000081
 31
0.0
  0
LINE
  5
BA0D
330
B9E3
100
AcDbEntity
  8
0
100
AcDbLine
 10
-64.50000000000004
 20
2.000000000000081
 30
0.0
 11
-27.66666666666672
 21
2.000000000000011
 31
0.0
  0
LINE
  5
BA0E
330
B9E3
100
AcDbEntity
  8
0
100
AcDbLine
 10
-64.50000000000004
 20
0.0
 30
0.0
 11
-64.50000000000004
 21
2.000000000000081
 31
0.0
  0
LINE
  5
BA0F
330
B9E3
100
AcDbEntity
  8
0
100
AcDbLine
 10
-27.66666666666672
 20
0.0
 30
0.0
 11
-64.50000000000004
 21
0.0
 31
0.0
  0
ENDBLK
  5
B9E5
330
B9E3
100
AcDbEntity
  8
0
100
AcDbBlockEnd
  0
BLOCK
  5
BA11
330
BA10
100
AcDbEntity
  8
0
100
AcDbBlockBegin
  2
SAE500_46_2-ISO
 70
     0
 10
0.0
 20
0.0
 30
0.0
  3
SAE500_46_2-ISO
  1

  0
LINE
  5
BA13
330
BA10
100
AcDbEntity
  8
0
100
AcDbLine
 10
46.43296858871145
 20
-52.80032972648732
 30
0.0
 11
45.01875502633835
 21
-53.61682630741505
 31
0.0
  0
SPLINE
  5
BA14
330
BA10
100
AcDbEntity
  8
0
100
AcDbSpline
210
0.0
220
0.0
230
1.0
 70
     8
 71
     3
 72
    11
 73
     7
 74
     0
 42
0.000000001
 43
0.0000000001
 40
0.0
 40
0.0
 40
0.0
 40
0.0
 40
0.3318350838477656
 40
0.3318350838477656
 40
0.3318350838477656
 40
1.0
 40
1.0
 40
1.0
 40
1.0
 10
48.31858667187561
 20
-51.94981245468769
 30
0.0
 10
48.09729129639911
 20
-52.00954055697444
 30
0.0
 10
47.81336667777721
 20
-52.00232265692619
 30
0.0
 10
47.53459241016838
 20
-52.00362075321951
 30
0.0
 10
46.97326784200519
 20
-52.00623452868565
 30
0.0
 10
46.43272499534979
 20
-52.05471440023522
 30
0.0
 10
46.4329685881292
 20
-52.8003297240199
 30
0.0
  0
LINE
  5
BA15
330
BA10
100
AcDbEntity
  8
0
100
AcDbLine
 10
47.84718215108454
 20
-51.67764692771173
 30
0.0
 11
48.3185866718756
 21
-51.94981245468766
 31
0.0
  0
ELLIPSE
  5
BA16
330
BA10
100
AcDbEntity
  8
0
100
AcDbEllipse
 10
46.43296858871145
 20
-52.49414350863945
 30
0.0
 11
1.999999999999992
 21
-0.0000000000001154
 31
0.0
210
0.0
220
0.0
230
1.0
 40
0.577350269189627
 41
0.7853981633976899
 42
2.356194490192597
  0
LINE
  5
BA17
330
BA10
100
AcDbEntity
  8
0
100
AcDbLine
 10
45.01875502633835
 20
-53.61682630741505
 30
0.0
 11
45.01875502633835
 21
-51.67764692771173
 31
0.0
  0
ELLIPSE
  5
BA18
330
BA10
100
AcDbEntity
  8
0
100
AcDbEllipse
 10
-17.91374849926436
 20
-103.8313660344701
 30
0.0
 11
-2.5
 21
-0.0000000000001499
 31
0.0
210
0.0
220
0.0
230
1.0
 40
0.5773502691896257
 41
3.742856870268575
 42
5.681921090500119
  0
LINE
  5
BA19
330
BA10
100
AcDbEntity
  8
0
100
AcDbLine
 10
-15.79242815570474
 20
-119.7530493625608
 30
0.0
 11
-45.49091296553972
 21
-102.6066211630786
 31
0.0
  0
LINE
  5
BA1A
330
BA10
100
AcDbEntity
  8
0
100
AcDbLine
 10
12.49184309175715
 20
-33.2044117842219
 30
0.0
 11
12.49184309175715
 21
-47.49310195045711
 31
0.0
  0
LINE
  5
BA1B
330
BA10
100
AcDbEntity
  8
0
100
AcDbLine
 10
-45.49091296553972
 20
-100.9736280012231
 30
0.0
 11
-15.79242815570474
 21
-118.1200562007054
 31
0.0
  0
ELLIPSE
  5
BA1C
330
BA10
100
AcDbEntity
  8
0
100
AcDbEllipse
 10
-17.91374849926436
 20
-102.1983728726147
 30
0.0
 11
-2.5
 21
0.0000000000001493
 31
0.0
210
0.0
220
0.0
230
1.0
 40
0.5773502691896257
 41
0.0
 42
6.283185307179586
  0
LINE
  5
BA1D
330
BA10
100
AcDbEntity
  8
0
100
AcDbLine
 10
12.49184309175715
 20
-33.2044117842219
 30
0.0
 11
12.40804147249708
 21
-33.25279467166023
 31
0.0
  0
SPLINE
  5
BA1E
330
BA10
100
AcDbEntity
  8
0
100
AcDbSpline
210
0.0
220
0.0
230
1.0
 70
     8
 71
     3
 72
    11
 73
     7
 74
     0
 42
0.000000001
 43
0.0000000001
 40
-1.0
 40
-1.0
 40
-1.0
 40
-1.0
 40
-0.8013492148287328
 40
-0.8013492148287328
 40
-0.8013492148287328
 40
-0.6677752443802199
 40
-0.6677752443802199
 40
-0.6677752443802199
 40
-0.6677752443802199
 10
12.49184309175715
 20
-33.20441178422192
 30
0.0
 10
12.49237255201164
 20
-32.81150214065656
 30
0.0
 10
12.45933317015138
 20
-32.45726596614644
 30
0.0
 10
12.40250423073954
 20
-32.12367239226317
 30
0.0
 10
12.36429211359601
 20
-31.899362087417
 30
0.0
 10
12.31323849147202
 20
-31.68592966057006
 30
0.0
 10
12.25050938594343
 20
-31.47998904990966
 30
0.0
  0
ELLIPSE
  5
BA1F
330
BA10
100
AcDbEntity
  8
0
100
AcDbEllipse
 10
8.249202404637877
 20
-30.44873582359086
 30
0.0
 11
3.999999999999994
 21
0.0000000000000124
 31
0.0
210
0.0
220
0.0
230
1.0
 40
0.577350269189627
 41
6.081787914203663
 42
6.283185307179587
  0
ELLIPSE
  5
BA20
330
BA10
100
AcDbEntity
  8
0
100
AcDbEllipse
 10
8.249202404637877
 20
-30.44873582359086
 30
0.0
 11
3.999999999999994
 21
0.0000000000000078
 31
0.0
210
0.0
220
0.0
230
1.0
 40
0.5773502691896269
 41
5.49778714378213
 42
6.081787914203662
  0
LINE
  5
BA21
330
BA10
100
AcDbEntity
  8
0
100
AcDbLine
 10
11.07762952938406
 20
-32.08172898544632
 30
0.0
 11
11.07762952938406
 21
-34.02090836514962
 31
0.0
  0
LINE
  5
BA22
330
BA10
100
AcDbEntity
  8
0
100
AcDbLine
 10
12.40804147249708
 20
-33.25279467166023
 30
0.0
 11
11.07762952938406
 21
-34.02090836514962
 31
0.0
  0
SPLINE
  5
BA23
330
BA10
100
AcDbEntity
  8
0
100
AcDbSpline
210
0.0
220
0.0
230
1.0
 70
     8
 71
     3
 72
    16
 73
    12
 74
     0
 42
0.000000001
 43
0.0000000001
 40
0.0
 40
0.0
 40
0.0
 40
0.0
 40
0.028247661109193
 40
0.028247661109193
 40
0.046139951798005
 40
0.046139951798005
 40
0.0689253714393669
 40
0.0689253714393669
 40
0.0923139075489481
 40
0.0923139075489481
 40
0.1012130238224481
 40
0.1012130238224481
 40
0.1012130238224481
 40
0.1012130238224481
 10
12.23689950272452
 20
-30.62972553303109
 30
0.0
 10
12.22420470730013
 20
-30.72295925907167
 30
0.0
 10
12.21233435791998
 20
-30.8178722469821
 30
0.0
 10
12.19987036093049
 20
-30.96777067030141
 30
0.0
 10
12.19675822902162
 20
-31.02519418630747
 30
0.0
 10
12.19509306079018
 20
-31.14701752785023
 30
0.0
 10
12.19805272890677
 20
-31.20984362128615
 30
0.0
 10
12.21052086251169
 20
-31.32222208676517
 30
0.0
 10
12.22000795695012
 20
-31.37282149324738
 30
0.0
 10
12.23758485716631
 20
-31.44205217482884
 30
0.0
 10
12.24293664393603
 20
-31.46115207157907
 30
0.0
 10
12.24889142275538
 20
-31.48067053257046
 30
0.0
  0
LINE
  5
BA24
330
BA10
100
AcDbEntity
  8
0
100
AcDbLine
 10
46.43296858871145
 20
-83.82719980174091
 30
0.0
 11
46.43296858871145
 21
-52.80032972648732
 31
0.0
  0
ELLIPSE
  5
BA25
330
BA10
100
AcDbEntity
  8
0
100
AcDbEllipse
 10
43.60454146396526
 20
-82.19420663988545
 30
0.0
 11
1.99999999999999
 21
-3.464101615137759
 31
0.0
210
0.0
220
0.0
230
1.0
 40
0.577350269189625
 41
0.0000000000000183
 42
0.78539816339746
  0
LINE
  5
BA26
330
BA10
100
AcDbEntity
  8
0
100
AcDbLine
 10
-15.79242815570474
 20
-118.1200562007054
 30
0.0
 11
-14.37821459333165
 21
-117.3035596197776
 31
0.0
  0
LINE
  5
BA27
330
BA10
100
AcDbEntity
  8
0
100
AcDbLine
 10
46.43296858871145
 20
-83.82719980174091
 30
0.0
 11
-12.96400103095855
 21
-118.1200562007053
 31
0.0
  0
ELLIPSE
  5
BA28
330
BA10
100
AcDbEntity
  8
0
100
AcDbEllipse
 10
-15.79242815570475
 20
-116.4870630388499
 30
0.0
 11
2.000000000000002
 21
-3.464101615137756
 31
0.0
210
0.0
220
0.0
230
1.0
 40
0.577350269189626
 41
5.497787143782137
 42
7.068583470577033
  0
LINE
  5
BA29
330
BA10
100
AcDbEntity
  8
0
100
AcDbLine
 10
74.36368644558005
 20
-44.4312397719782
 30
0.0
 11
75.77790000795315
 21
-43.61474319105048
 31
0.0
  0
LINE
  5
BA2A
330
BA10
100
AcDbEntity
  8
0
100
AcDbLine
 10
48.3185866718756
 20
-51.94981245468767
 30
0.0
 11
74.36368644558005
 21
-44.4312397719782
 31
0.0
  0
ELLIPSE
  5
BA2B
330
BA10
100
AcDbEntity
  8
0
100
AcDbEllipse
 10
61.98931777481551
 20
76.20613006009335
 30
0.0
 11
-3.250000000000001
 21
5.62916512459885
 31
0.0
210
0.0
220
0.0
230
0.9999999999999998
 40
0.5773502691896261
 41
0.2193254863005922
 42
2.922267167289195
  0
ELLIPSE
  5
BA2C
330
BA10
100
AcDbEntity
  8
0
100
AcDbEllipse
 10
69.76749236786753
 20
75.79788176962949
 30
0.0
 11
1.250000000000129
 21
-2.165063509461021
 31
0.0
210
0.0
220
0.0
230
1.0
 40
0.5773502691896259
 41
3.742856870268589
 42
5.681921090500106
  0
LINE
  5
BA2D
330
BA10
100
AcDbEntity
  8
0
100
AcDbLine
 10
49.26139571345763
 20
99.88453090699742
 30
0.0
 11
75.77790000795317
 21
84.57522001460256
 31
0.0
  0
LINE
  5
BA2E
330
BA10
100
AcDbEntity
  8
0
100
AcDbLine
 10
75.77790000795315
 20
-43.61474319105048
 30
0.0
 11
75.77790000795317
 21
84.57522001460256
 31
0.0
  0
ELLIPSE
  5
BA2F
330
BA10
100
AcDbEntity
  8
0
100
AcDbEllipse
 10
46.43296858871145
 20
98.25153774514198
 30
0.0
 11
3.999999999999999
 21
-0.0000000000002383
 31
0.0
210
0.0
220
0.0
230
1.0
 40
0.5773502691896257
 41
0.7853981633976935
 42
2.356194490192587
  0
ELLIPSE
  5
BA30
330
BA10
100
AcDbEntity
  8
0
100
AcDbEllipse
 10
19.20935751302936
 20
73.55251617207826
 30
0.0
 11
1.249999999999871
 21
2.16506350946117
 31
0.0
210
0.0
220
0.0
230
1.0
 40
0.577350269189626
 41
3.742856870268582
 42
5.681921090500104
  0
ELLIPSE
  5
BA31
330
BA10
100
AcDbEntity
  8
0
100
AcDbEllipse
 10
20.62357107540246
 20
72.73601959115054
 30
0.0
 11
-1.25
 21
-2.165063509461096
 31
0.0
210
0.0
220
0.0
230
0.9999999999999998
 40
0.577350269189626
 41
0.0
 42
6.283185307179586
  0
LINE
  5
BA32
330
BA10
100
AcDbEntity
  8
0
100
AcDbLine
 10
-14.37821459333167
 20
-86.27668954452408
 30
0.0
 11
13.90605665413024
 21
-45.45186049813781
 31
0.0
  0
LINE
  5
BA33
330
BA10
100
AcDbEntity
  8
0
100
AcDbLine
 10
-12.96400103095857
 20
-87.0931861254518
 30
0.0
 11
-14.37821459333167
 21
-86.27668954452408
 31
0.0
  0
LINE
  5
BA34
330
BA10
100
AcDbEntity
  8
0
100
AcDbLine
 10
15.32027021650334
 20
-46.26835707906554
 30
0.0
 11
-12.96400103095857
 21
-87.0931861254518
 31
0.0
  0
LINE
  5
BA35
330
BA10
100
AcDbEntity
  8
0
100
AcDbLine
 10
15.32027021650334
 20
-46.26835707906554
 30
0.0
 11
13.90605665413024
 21
-45.45186049813781
 31
0.0
  0
LINE
  5
BA36
330
BA10
100
AcDbEntity
  8
0
100
AcDbLine
 10
13.90605665413024
 20
-45.45186049813781
 30
0.0
 11
13.90605665413026
 21
82.73810270751518
 31
0.0
  0
LINE
  5
BA37
330
BA10
100
AcDbEntity
  8
0
100
AcDbLine
 10
15.32027021650336
 20
81.92160612658746
 30
0.0
 11
15.32027021650334
 21
-46.26835707906554
 31
0.0
  0
LINE
  5
BA38
330
BA10
100
AcDbEntity
  8
0
100
AcDbLine
 10
13.90605665413026
 20
82.73810270751518
 30
0.0
 11
15.32027021650336
 21
81.92160612658746
 31
0.0
  0
LINE
  5
BA39
330
BA10
100
AcDbEntity
  8
0
100
AcDbLine
 10
-12.96400103095857
 20
-87.0931861254518
 30
0.0
 11
-12.96400103095855
 21
-118.1200562007053
 31
0.0
  0
LINE
  5
BA3A
330
BA10
100
AcDbEntity
  8
0
100
AcDbLine
 10
45.01875502633835
 20
-51.67764692771173
 30
0.0
 11
45.01875502633835
 21
99.0680343260697
 31
0.0
  0
LINE
  5
BA3B
330
BA10
100
AcDbEntity
  8
0
100
AcDbLine
 10
45.01875502633835
 20
99.0680343260697
 30
0.0
 11
15.32027021650336
 21
81.92160612658746
 31
0.0
  0
LINE
  5
BA3C
330
BA10
100
AcDbEntity
  8
0
100
AcDbLine
 10
13.90605665413026
 20
82.73810270751518
 30
0.0
 11
43.60454146396526
 21
99.88453090699742
 31
0.0
  0
LINE
  5
BA3D
330
BA10
100
AcDbEntity
  8
0
100
AcDbLine
 10
-14.37821459333165
 20
-117.3035596197776
 30
0.0
 11
-14.37821459333167
 21
-86.27668954452408
 31
0.0
  0
LINE
  5
BA3E
330
BA10
100
AcDbEntity
  8
0
100
AcDbLine
 10
-15.79242815570474
 20
-118.1200562007054
 30
0.0
 11
-15.79242815570474
 21
-119.7530493625608
 31
0.0
  0
LINE
  5
BA3F
330
BA10
100
AcDbEntity
  8
0
100
AcDbLine
 10
-14.37821459333165
 20
-117.3035596197776
 30
0.0
 11
-12.96400103095855
 21
-118.1200562007053
 31
0.0
  0
ELLIPSE
  5
BA40
330
BA10
100
AcDbEntity
  8
0
100
AcDbEllipse
 10
-15.79242815570475
 20
-116.4870630388499
 30
0.0
 11
1.0
 21
-1.732050807568878
 31
0.0
210
0.0
220
0.0
230
1.0
 40
0.577350269189626
 41
5.49778714378214
 42
7.068583470577038
  0
LINE
  5
BA41
330
BA10
100
AcDbEntity
  8
0
100
AcDbLine
 10
47.84718215108454
 20
-51.67764692771173
 30
0.0
 11
47.84718215108454
 21
99.06803432606972
 31
0.0
  0
ELLIPSE
  5
BA42
330
BA10
100
AcDbEntity
  8
0
100
AcDbEllipse
 10
46.43296858871145
 20
98.25153774514198
 30
0.0
 11
-1.999999999999997
 21
-0.0000000000001194
 31
0.0
210
0.0
220
0.0
230
1.0
 40
0.5773502691896257
 41
3.926990816986995
 42
5.497787143781887
  0
LINE
  5
BA43
330
BA10
100
AcDbEntity
  8
0
100
AcDbLine
 10
75.77790000795317
 20
84.57522001460256
 30
0.0
 11
74.36368644558007
 21
83.75872343367483
 31
0.0
  0
LINE
  5
BA44
330
BA10
100
AcDbEntity
  8
0
100
AcDbLine
 10
74.36368644558005
 20
-44.4312397719782
 30
0.0
 11
74.36368644558007
 21
83.75872343367483
 31
0.0
  0
LINE
  5
BA45
330
BA10
100
AcDbEntity
  8
0
100
AcDbLine
 10
45.01875502633835
 20
99.0680343260697
 30
0.0
 11
43.60454146396526
 21
99.88453090699742
 31
0.0
  0
LINE
  5
BA46
330
BA10
100
AcDbEntity
  8
0
100
AcDbLine
 10
47.84718215108454
 20
99.0680343260697
 30
0.0
 11
49.26139571345763
 21
99.88453090699742
 31
0.0
  0
LINE
  5
BA47
330
BA10
100
AcDbEntity
  8
0
100
AcDbLine
 10
74.36368644558007
 20
83.75872343367483
 30
0.0
 11
47.84718215108454
 21
99.0680343260697
 31
0.0
  0
ELLIPSE
  5
BA48
330
BA10
100
AcDbEntity
  8
0
100
AcDbEllipse
 10
60.57510421244238
 20
75.38963347916562
 30
0.0
 11
-3.250000000000001
 21
5.629165124598852
 31
0.0
210
0.0
220
0.0
230
1.0
 40
0.5773502691896259
 41
0.0
 42
6.283185307179586
  0
ELLIPSE
  5
BA49
330
BA10
100
AcDbEntity
  8
0
100
AcDbEllipse
 10
68.35327880549441
 20
74.98138518870177
 30
0.0
 11
-1.25
 21
2.165063509461096
 31
0.0
210
0.0
220
0.0
230
0.9999999999999998
 40
0.577350269189626
 41
0.0
 42
6.283185307179586
  0
LINE
  5
BA4A
330
BA10
100
AcDbEntity
  8
0
100
AcDbLine
 10
-13.79242815570475
 20
-119.9511646539876
 30
0.0
 11
45.60454146396525
 21
-85.6583082550232
 31
0.0
  0
LINE
  5
BA4B
330
BA10
100
AcDbEntity
  8
0
100
AcDbLine
 10
-10.60697842700341
 20
-80.83337900500589
 30
0.0
 11
-45.49091296553972
 21
-100.9736280012231
 31
0.0
  0
ELLIPSE
  5
BA4C
330
BA10
100
AcDbEntity
  8
0
100
AcDbEllipse
 10
-45.49091296553972
 20
-99.34063483936769
 30
0.0
 11
2.000000000000208
 21
-3.464101615137639
 31
0.0
210
0.0
220
0.0
230
1.0
 40
0.5773502691896258
 41
3.926990816987004
 42
5.497787143781893
  0
LINE
  5
BA4D
330
BA10
100
AcDbEntity
  8
0
100
AcDbLine
 10
-46.90512652791283
 20
-98.52413825843996
 30
0.0
 11
-6.835742260675168
 21
-75.39006846548776
 31
0.0
  0
LINE
  5
BA4E
330
BA10
100
AcDbEntity
  8
0
100
AcDbLine
 10
-48.31934009028592
 20
-97.70764167751224
 30
0.0
 11
-46.90512652791283
 21
-98.52413825843996
 31
0.0
  0
LINE
  5
BA4F
330
BA10
100
AcDbEntity
  8
0
100
AcDbLine
 10
-45.49091296553972
 20
-102.6066211630786
 30
0.0
 11
-45.49091296553972
 21
-100.9736280012231
 31
0.0
  0
ELLIPSE
  5
BA50
330
BA10
100
AcDbEntity
  8
0
100
AcDbEllipse
 10
-45.49091296553972
 20
-99.34063483936769
 30
0.0
 11
1.000000000000104
 21
-1.732050807568818
 31
0.0
210
0.0
220
0.0
230
1.0
 40
0.577350269189626
 41
3.926990816986998
 42
5.497787143781897
  0
ELLIPSE
  5
BA51
330
BA10
100
AcDbEntity
  8
0
100
AcDbEllipse
 10
61.98931777481549
 20
-29.938425460511
 30
0.0
 11
-3.250000000000002
 21
5.629165124598852
 31
0.0
210
0.0
220
0.0
230
1.0
 40
0.5773502691896259
 41
0.2193254863005904
 42
2.922267167289199
  0
ELLIPSE
  5
BA52
330
BA10
100
AcDbEntity
  8
0
100
AcDbEllipse
 10
60.5751042124424
 20
-30.75492204143872
 30
0.0
 11
-3.250000000000001
 21
5.629165124598852
 31
0.0
210
0.0
220
0.0
230
1.0
 40
0.5773502691896259
 41
0.0
 42
6.283185307179586
  0
ELLIPSE
  5
BA53
330
BA10
100
AcDbEntity
  8
0
100
AcDbEllipse
 10
61.98931777481551
 20
27.21633520442982
 30
0.0
 11
-3.250000000000001
 21
5.62916512459885
 31
0.0
210
0.0
220
0.0
230
0.9999999999999998
 40
0.577350269189626
 41
0.2193254863005983
 42
2.922267167289197
  0
ELLIPSE
  5
BA54
330
BA10
100
AcDbEntity
  8
0
100
AcDbEllipse
 10
60.57510421244238
 20
26.39983862350208
 30
0.0
 11
-3.250000000000001
 21
5.629165124598852
 31
0.0
210
0.0
220
0.0
230
1.0
 40
0.5773502691896259
 41
0.0
 42
6.283185307179586
  0
ELLIPSE
  5
BA55
330
BA10
100
AcDbEntity
  8
0
100
AcDbEllipse
 10
54.21114318176347
 20
-37.69514297932439
 30
0.0
 11
1.25000000000013
 21
-2.165063509461021
 31
0.0
210
0.0
220
0.0
230
1.0
 40
0.577350269189626
 41
3.742856870268589
 42
5.681921090500105
  0
ELLIPSE
  5
BA56
330
BA10
100
AcDbEntity
  8
0
100
AcDbEllipse
 10
54.21114318176347
 20
-21.36521136076987
 30
0.0
 11
1.25000000000013
 21
-2.165063509461021
 31
0.0
210
0.0
220
0.0
230
1.0
 40
0.5773502691896259
 41
3.742856870268591
 42
5.681921090500105
  0
ELLIPSE
  5
BA57
330
BA10
100
AcDbEntity
  8
0
100
AcDbEllipse
 10
54.21114318176347
 20
-5.035279742215346
 30
0.0
 11
1.25000000000013
 21
-2.165063509461021
 31
0.0
210
0.0
220
0.0
230
1.0
 40
0.5773502691896259
 41
3.742856870268591
 42
5.681921090500105
  0
ELLIPSE
  5
BA58
330
BA10
100
AcDbEntity
  8
0
100
AcDbEllipse
 10
54.21114318176347
 20
11.29465187633917
 30
0.0
 11
1.25000000000013
 21
-2.165063509461021
 31
0.0
210
0.0
220
0.0
230
1.0
 40
0.5773502691896259
 41
3.742856870268591
 42
5.681921090500105
  0
ELLIPSE
  5
BA59
330
BA10
100
AcDbEntity
  8
0
100
AcDbEllipse
 10
54.21114318176347
 20
27.62458349489369
 30
0.0
 11
1.25000000000013
 21
-2.165063509461021
 31
0.0
210
0.0
220
0.0
230
1.0
 40
0.5773502691896259
 41
3.742856870268589
 42
5.681921090500105
  0
ELLIPSE
  5
BA5A
330
BA10
100
AcDbEntity
  8
0
100
AcDbEllipse
 10
54.21114318176347
 20
43.95451511344818
 30
0.0
 11
1.25000000000013
 21
-2.165063509461021
 31
0.0
210
0.0
220
0.0
230
1.0
 40
0.5773502691896259
 41
3.742856870268589
 42
5.681921090500106
  0
ELLIPSE
  5
BA5B
330
BA10
100
AcDbEntity
  8
0
100
AcDbEllipse
 10
54.21114318176347
 20
60.2844467320027
 30
0.0
 11
1.25000000000013
 21
-2.165063509461021
 31
0.0
210
0.0
220
0.0
230
1.0
 40
0.5773502691896259
 41
3.742856870268589
 42
5.681921090500106
  0
ELLIPSE
  5
BA5C
330
BA10
100
AcDbEntity
  8
0
100
AcDbEllipse
 10
54.21114318176347
 20
76.61437835055723
 30
0.0
 11
1.25000000000013
 21
-2.165063509461021
 31
0.0
210
0.0
220
0.0
230
1.0
 40
0.5773502691896259
 41
3.742856870268589
 42
5.681921090500106
  0
ELLIPSE
  5
BA5D
330
BA10
100
AcDbEntity
  8
0
100
AcDbEllipse
 10
52.79692961939035
 20
-38.51163956025212
 30
0.0
 11
-1.25
 21
2.165063509461096
 31
0.0
210
0.0
220
0.0
230
0.9999999999999998
 40
0.577350269189626
 41
0.0
 42
6.283185307179586
  0
ELLIPSE
  5
BA5E
330
BA10
100
AcDbEntity
  8
0
100
AcDbEllipse
 10
52.79692961939035
 20
-22.18170794169761
 30
0.0
 11
-1.25
 21
2.165063509461096
 31
0.0
210
0.0
220
0.0
230
0.9999999999999998
 40
0.577350269189626
 41
0.0
 42
6.283185307179586
  0
ELLIPSE
  5
BA5F
330
BA10
100
AcDbEntity
  8
0
100
AcDbEllipse
 10
52.79692961939035
 20
-5.851776323143083
 30
0.0
 11
-1.25
 21
2.165063509461096
 31
0.0
210
0.0
220
0.0
230
0.9999999999999998
 40
0.577350269189626
 41
0.0
 42
6.283185307179586
  0
ELLIPSE
  5
BA60
330
BA10
100
AcDbEntity
  8
0
100
AcDbEllipse
 10
52.79692961939035
 20
10.47815529541141
 30
0.0
 11
-1.25
 21
2.165063509461096
 31
0.0
210
0.0
220
0.0
230
0.9999999999999998
 40
0.577350269189626
 41
0.0
 42
6.283185307179586
  0
ELLIPSE
  5
BA61
330
BA10
100
AcDbEntity
  8
0
100
AcDbEllipse
 10
52.79692961939035
 20
26.80808691396594
 30
0.0
 11
-1.25
 21
2.165063509461096
 31
0.0
210
0.0
220
0.0
230
0.9999999999999998
 40
0.577350269189626
 41
0.0
 42
6.283185307179586
  0
ELLIPSE
  5
BA62
330
BA10
100
AcDbEntity
  8
0
100
AcDbEllipse
 10
52.79692961939035
 20
43.13801853252046
 30
0.0
 11
-1.25
 21
2.165063509461096
 31
0.0
210
0.0
220
0.0
230
0.9999999999999998
 40
0.577350269189626
 41
0.0
 42
6.283185307179586
  0
ELLIPSE
  5
BA63
330
BA10
100
AcDbEntity
  8
0
100
AcDbEllipse
 10
52.79692961939035
 20
59.46795015107499
 30
0.0
 11
-1.25
 21
2.165063509461096
 31
0.0
210
0.0
220
0.0
230
0.9999999999999998
 40
0.577350269189626
 41
0.0
 42
6.283185307179586
  0
ELLIPSE
  5
BA64
330
BA10
100
AcDbEntity
  8
0
100
AcDbEllipse
 10
52.79692961939035
 20
75.79788176962948
 30
0.0
 11
-1.25
 21
2.165063509461096
 31
0.0
210
0.0
220
0.0
230
0.9999999999999998
 40
0.577350269189626
 41
0.0
 42
6.283185307179586
  0
ELLIPSE
  5
BA65
330
BA10
100
AcDbEntity
  8
0
100
AcDbEllipse
 10
54.21114318176347
 20
92.94430996911176
 30
0.0
 11
1.25000000000013
 21
-2.165063509461021
 31
0.0
210
0.0
220
0.0
230
1.0
 40
0.5773502691896259
 41
3.742856870268589
 42
5.681921090500106
  0
ELLIPSE
  5
BA66
330
BA10
100
AcDbEntity
  8
0
100
AcDbEllipse
 10
4.713668498705119
 20
119.8886971397267
 30
0.0
 11
1.249999999999999
 21
-2.165063509461096
 31
0.0
210
0.0
220
0.0
230
1.0
 40
0.5773502691896259
 41
0.0
 42
6.283185307179586
  0
ELLIPSE
  5
BA67
330
BA10
100
AcDbEntity
  8
0
100
AcDbEllipse
 10
6.127882061078233
 20
120.7051937206544
 30
0.0
 11
1.250000000000129
 21
-2.165063509461021
 31
0.0
210
0.0
220
0.0
230
1.0
 40
0.5773502691896258
 41
3.742856870268589
 42
5.68192109050011
  0
ELLIPSE
  5
BA68
330
BA10
100
AcDbEntity
  8
0
100
AcDbEllipse
 10
52.79692961939035
 20
92.127813388184
 30
0.0
 11
-1.25
 21
2.165063509461096
 31
0.0
210
0.0
220
0.0
230
0.9999999999999998
 40
0.577350269189626
 41
0.0
 42
6.283185307179586
  0
ELLIPSE
  5
BA69
330
BA10
100
AcDbEntity
  8
0
100
AcDbEllipse
 10
69.76749236786753
 20
-38.51163956025212
 30
0.0
 11
1.250000000000129
 21
-2.165063509461021
 31
0.0
210
0.0
220
0.0
230
1.0
 40
0.577350269189626
 41
3.742856870268591
 42
5.681921090500106
  0
ELLIPSE
  5
BA6A
330
BA10
100
AcDbEntity
  8
0
100
AcDbEllipse
 10
69.76749236786753
 20
-22.1817079416976
 30
0.0
 11
1.250000000000129
 21
-2.165063509461021
 31
0.0
210
0.0
220
0.0
230
1.0
 40
0.5773502691896259
 41
3.742856870268592
 42
5.681921090500106
  0
ELLIPSE
  5
BA6B
330
BA10
100
AcDbEntity
  8
0
100
AcDbEllipse
 10
69.76749236786753
 20
-5.851776323143091
 30
0.0
 11
1.250000000000129
 21
-2.165063509461021
 31
0.0
210
0.0
220
0.0
230
1.0
 40
0.5773502691896259
 41
3.742856870268589
 42
5.681921090500106
  0
ELLIPSE
  5
BA6C
330
BA10
100
AcDbEntity
  8
0
100
AcDbEllipse
 10
69.76749236786753
 20
10.47815529541143
 30
0.0
 11
1.250000000000129
 21
-2.165063509461021
 31
0.0
210
0.0
220
0.0
230
1.0
 40
0.5773502691896259
 41
3.742856870268589
 42
5.681921090500106
  0
ELLIPSE
  5
BA6D
330
BA10
100
AcDbEntity
  8
0
100
AcDbEllipse
 10
69.76749236786753
 20
26.80808691396596
 30
0.0
 11
1.250000000000129
 21
-2.165063509461021
 31
0.0
210
0.0
220
0.0
230
1.0
 40
0.5773502691896259
 41
3.742856870268592
 42
5.681921090500106
  0
ELLIPSE
  5
BA6E
330
BA10
100
AcDbEntity
  8
0
100
AcDbEllipse
 10
69.76749236786753
 20
43.13801853252046
 30
0.0
 11
1.250000000000129
 21
-2.165063509461021
 31
0.0
210
0.0
220
0.0
230
1.0
 40
0.5773502691896259
 41
3.742856870268589
 42
5.681921090500106
  0
ELLIPSE
  5
BA6F
330
BA10
100
AcDbEntity
  8
0
100
AcDbEllipse
 10
69.76749236786753
 20
59.46795015107499
 30
0.0
 11
1.250000000000129
 21
-2.165063509461021
 31
0.0
210
0.0
220
0.0
230
1.0
 40
0.5773502691896259
 41
3.742856870268589
 42
5.681921090500106
  0
ELLIPSE
  5
BA70
330
BA10
100
AcDbEntity
  8
0
100
AcDbEllipse
 10
68.35327880549441
 20
-39.32813614117986
 30
0.0
 11
-1.25
 21
2.165063509461096
 31
0.0
210
0.0
220
0.0
230
0.9999999999999998
 40
0.577350269189626
 41
0.0
 42
6.283185307179586
  0
ELLIPSE
  5
BA71
330
BA10
100
AcDbEntity
  8
0
100
AcDbEllipse
 10
68.35327880549441
 20
-22.99820452262534
 30
0.0
 11
-1.25
 21
2.165063509461096
 31
0.0
210
0.0
220
0.0
230
0.9999999999999998
 40
0.577350269189626
 41
0.0
 42
6.283185307179586
  0
ELLIPSE
  5
BA72
330
BA10
100
AcDbEntity
  8
0
100
AcDbEllipse
 10
68.35327880549441
 20
-6.668272904070828
 30
0.0
 11
-1.25
 21
2.165063509461096
 31
0.0
210
0.0
220
0.0
230
0.9999999999999998
 40
0.577350269189626
 41
0.0
 42
6.283185307179586
  0
ELLIPSE
  5
BA73
330
BA10
100
AcDbEntity
  8
0
100
AcDbEllipse
 10
68.35327880549441
 20
9.661658714483696
 30
0.0
 11
-1.25
 21
2.165063509461096
 31
0.0
210
0.0
220
0.0
230
0.9999999999999998
 40
0.577350269189626
 41
0.0
 42
6.283185307179586
  0
ELLIPSE
  5
BA74
330
BA10
100
AcDbEntity
  8
0
100
AcDbEllipse
 10
68.35327880549441
 20
25.99159033303822
 30
0.0
 11
-1.25
 21
2.165063509461096
 31
0.0
210
0.0
220
0.0
230
0.9999999999999998
 40
0.577350269189626
 41
0.0
 42
6.283185307179586
  0
ELLIPSE
  5
BA75
330
BA10
100
AcDbEntity
  8
0
100
AcDbEllipse
 10
68.35327880549441
 20
42.32152195159272
 30
0.0
 11
-1.25
 21
2.165063509461096
 31
0.0
210
0.0
220
0.0
230
0.9999999999999998
 40
0.577350269189626
 41
0.0
 42
6.283185307179586
  0
ELLIPSE
  5
BA76
330
BA10
100
AcDbEntity
  8
0
100
AcDbEllipse
 10
68.35327880549441
 20
58.65145357014725
 30
0.0
 11
-1.25
 21
2.165063509461096
 31
0.0
210
0.0
220
0.0
230
0.9999999999999998
 40
0.577350269189626
 41
0.0
 42
6.283185307179586
  0
LINE
  5
BA77
330
BA10
100
AcDbEntity
  8
0
100
AcDbLine
 10
-13.95639304236581
 20
4.051770191300967
 30
0.0
 11
-13.26165213478375
 21
3.048998066277075
 31
0.0
  0
LINE
  5
BA78
330
BA10
100
AcDbEntity
  8
0
100
AcDbLine
 10
-18.62085528045094
 20
-26.67243913680013
 30
0.0
 11
-46.90512652791285
 21
-67.49726818318639
 31
0.0
  0
LINE
  5
BA79
330
BA10
100
AcDbEntity
  8
0
100
AcDbLine
 10
-20.03506884282405
 20
-25.8559425558724
 30
0.0
 11
-18.62085528045094
 21
-26.67243913680013
 31
0.0
  0
LINE
  5
BA7A
330
BA10
100
AcDbEntity
  8
0
100
AcDbLine
 10
-48.31934009028595
 20
-66.68077160225866
 30
0.0
 11
-20.03506884282405
 21
-25.8559425558724
 31
0.0
  0
LINE
  5
BA7B
330
BA10
100
AcDbEntity
  8
0
100
AcDbLine
 10
-46.90512652791285
 20
-67.49726818318639
 30
0.0
 11
-48.31934009028595
 21
-66.68077160225866
 31
0.0
  0
LINE
  5
BA7C
330
BA10
100
AcDbEntity
  8
0
100
AcDbLine
 10
-18.62085528045092
 20
101.5175240688529
 30
0.0
 11
-18.62085528045094
 21
-26.67243913680013
 31
0.0
  0
LINE
  5
BA7D
330
BA10
100
AcDbEntity
  8
0
100
AcDbLine
 10
-20.03506884282402
 20
102.3340206497806
 30
0.0
 11
-18.62085528045092
 21
101.5175240688529
 31
0.0
  0
LINE
  5
BA7E
330
BA10
100
AcDbEntity
  8
0
100
AcDbLine
 10
-20.03506884282405
 20
-25.8559425558724
 30
0.0
 11
-20.03506884282402
 21
102.3340206497806
 31
0.0
  0
ELLIPSE
  5
BA7F
330
BA10
100
AcDbEntity
  8
0
100
AcDbEllipse
 10
-3.064506094346906
 20
112.1319796209133
 30
0.0
 11
-3.250000000000006
 21
5.629165124598845
 31
0.0
210
0.0
220
0.0
230
0.9999999999999998
 40
0.5773502691896258
 41
4.71238898038469
 42
7.853981633974483
  0
ELLIPSE
  5
BA80
330
BA10
100
AcDbEntity
  8
0
100
AcDbEllipse
 10
-1.650292531973791
 20
112.948476201841
 30
0.0
 11
-3.249999999999999
 21
5.629165124598848
 31
0.0
210
0.0
220
0.0
230
0.9999999999999996
 40
0.5773502691896258
 41
0.2193254863005931
 42
1.570796326794897
  0
ELLIPSE
  5
BA81
330
BA10
100
AcDbEntity
  8
0
100
AcDbEllipse
 10
-10.84268068739893
 20
120.7051937206544
 30
0.0
 11
1.249999999999999
 21
-2.165063509461096
 31
0.0
210
0.0
220
0.0
230
1.0
 40
0.5773502691896259
 41
0.0
 42
6.283185307179586
  0
ELLIPSE
  5
BA82
330
BA10
100
AcDbEntity
  8
0
100
AcDbEllipse
 10
-9.428467125025816
 20
121.5216903015821
 30
0.0
 11
1.250000000000129
 21
-2.165063509461021
 31
0.0
210
0.0
220
0.0
230
1.0
 40
0.5773502691896258
 41
3.742856870268587
 42
5.68192109050011
  0
LINE
  5
BA83
330
BA10
100
AcDbEntity
  8
0
100
AcDbLine
 10
9.663415967010964
 20
119.4804488492628
 30
0.0
 11
9.663415967010973
 21
121.1134420111183
 31
0.0
  0
ELLIPSE
  5
BA84
330
BA10
100
AcDbEntity
  8
0
100
AcDbEllipse
 10
8.249202404637877
 20
120.2969454301905
 30
0.0
 11
1.999999999999997
 21
-0.0000000000000001
 31
0.0
210
0.0
220
0.0
230
1.0
 40
0.5773502691896255
 41
5.49778714378214
 42
7.068583470577028
  0
LINE
  5
BA85
330
BA10
100
AcDbEntity
  8
0
100
AcDbLine
 10
11.07762952938406
 20
118.6639522683351
 30
0.0
 11
11.07762952938406
 21
-32.08172898544632
 31
0.0
  0
ELLIPSE
  5
BA86
330
BA10
100
AcDbEntity
  8
0
100
AcDbEllipse
 10
8.249202404637877
 20
120.2969454301905
 30
0.0
 11
3.999999999999999
 21
-0.0000000000000003
 31
0.0
210
0.0
220
0.0
230
1.0
 40
0.5773502691896253
 41
5.497787143782135
 42
7.068583470577028
  0
LINE
  5
BA87
330
BA10
100
AcDbEntity
  8
0
100
AcDbLine
 10
9.663415967010973
 20
121.1134420111183
 30
0.0
 11
11.07762952938407
 21
121.929938592046
 31
0.0
  0
LINE
  5
BA88
330
BA10
100
AcDbEntity
  8
0
100
AcDbLine
 10
9.663415967010969
 20
119.4804488492628
 30
0.0
 11
11.07762952938406
 21
118.6639522683351
 31
0.0
  0
LINE
  5
BA89
330
BA10
100
AcDbEntity
  8
0
100
AcDbLine
 10
12.24920240463787
 20
-30.44873582359086
 30
0.0
 11
12.24920240463787
 21
120.2969454301906
 31
0.0
  0
LINE
  5
BA8A
330
BA10
100
AcDbEntity
  8
0
100
AcDbLine
 10
-16.85308832748457
 20
136.4227529035131
 30
0.0
 11
9.663415967010973
 21
121.1134420111183
 31
0.0
  0
LINE
  5
BA8B
330
BA10
100
AcDbEntity
  8
0
100
AcDbLine
 10
-16.85308832748465
 20
104.1711379568679
 30
0.0
 11
-16.85308832748457
 21
136.4227529035131
 31
0.0
  0
LINE
  5
BA8C
330
BA10
100
AcDbEntity
  8
0
100
AcDbLine
 10
-46.90512652791283
 20
-98.52413825843996
 30
0.0
 11
-46.90512652791285
 21
-67.49726818318639
 31
0.0
  0
LINE
  5
BA8D
330
BA10
100
AcDbEntity
  8
0
100
AcDbLine
 10
-18.62085528045092
 20
101.5175240688529
 30
0.0
 11
11.07762952938406
 21
118.6639522683351
 31
0.0
  0
LINE
  5
BA8E
330
BA10
100
AcDbEntity
  8
0
100
AcDbLine
 10
-48.31934009028595
 20
-66.68077160225866
 30
0.0
 11
-48.31934009028592
 21
-97.70764167751224
 31
0.0
  0
LINE
  5
BA8F
330
BA10
100
AcDbEntity
  8
0
100
AcDbLine
 10
9.663415967010969
 20
119.4804488492628
 30
0.0
 11
-20.03506884282402
 21
102.3340206497806
 31
0.0
  0
LINE
  5
BA90
330
BA10
100
AcDbEntity
  8
0
100
AcDbLine
 10
11.07762952938407
 20
121.929938592046
 30
0.0
 11
-15.43887476511146
 21
137.2392494844409
 31
0.0
  0
LINE
  5
BA91
330
BA10
100
AcDbEntity
  8
0
100
AcDbLine
 10
-15.43887476511146
 20
137.2392494844409
 30
0.0
 11
-16.85308832748457
 21
136.4227529035131
 31
0.0
  0
ELLIPSE
  5
BA92
330
BA10
100
AcDbEntity
  8
0
100
AcDbEllipse
 10
19.20935751302936
 20
-57.08693677635787
 30
0.0
 11
1.249999999999871
 21
2.16506350946117
 31
0.0
210
0.0
220
0.0
230
1.0
 40
0.577350269189626
 41
3.742856870268582
 42
5.681921090500118
  0
ELLIPSE
  5
BA93
330
BA10
100
AcDbEntity
  8
0
100
AcDbEllipse
 10
20.62357107540246
 20
-57.90343335728561
 30
0.0
 11
-1.25
 21
-2.165063509461096
 31
0.0
210
0.0
220
0.0
230
0.9999999999999998
 40
0.577350269189626
 41
0.0
 42
6.283185307179586
  0
ELLIPSE
  5
BA94
330
BA10
100
AcDbEntity
  8
0
100
AcDbEllipse
 10
19.20935751302936
 20
-40.75700515780336
 30
0.0
 11
1.249999999999871
 21
2.16506350946117
 31
0.0
210
0.0
220
0.0
230
1.0
 40
0.577350269189626
 41
3.742856870268582
 42
5.681921090500121
  0
ELLIPSE
  5
BA95
330
BA10
100
AcDbEntity
  8
0
100
AcDbEllipse
 10
20.62357107540246
 20
-41.57350173873108
 30
0.0
 11
-1.25
 21
-2.165063509461096
 31
0.0
210
0.0
220
0.0
230
0.9999999999999998
 40
0.577350269189626
 41
0.0
 42
6.283185307179586
  0
ELLIPSE
  5
BA96
330
BA10
100
AcDbEntity
  8
0
100
AcDbEllipse
 10
19.20935751302936
 20
-24.42707353924884
 30
0.0
 11
1.249999999999871
 21
2.16506350946117
 31
0.0
210
0.0
220
0.0
230
1.0
 40
0.577350269189626
 41
3.742856870268582
 42
5.681921090500121
  0
ELLIPSE
  5
BA97
330
BA10
100
AcDbEntity
  8
0
100
AcDbEllipse
 10
20.62357107540246
 20
-25.24357012017657
 30
0.0
 11
-1.25
 21
-2.165063509461096
 31
0.0
210
0.0
220
0.0
230
0.9999999999999998
 40
0.577350269189626
 41
0.0
 42
6.283185307179586
  0
ELLIPSE
  5
BA98
330
BA10
100
AcDbEntity
  8
0
100
AcDbEllipse
 10
19.20935751302936
 20
-8.097141920694328
 30
0.0
 11
1.249999999999871
 21
2.16506350946117
 31
0.0
210
0.0
220
0.0
230
1.0
 40
0.577350269189626
 41
3.742856870268582
 42
5.68192109050012
  0
ELLIPSE
  5
BA99
330
BA10
100
AcDbEntity
  8
0
100
AcDbEllipse
 10
20.62357107540246
 20
-8.913638501622056
 30
0.0
 11
-1.25
 21
-2.165063509461096
 31
0.0
210
0.0
220
0.0
230
0.9999999999999998
 40
0.577350269189626
 41
0.0
 42
6.283185307179586
  0
ELLIPSE
  5
BA9A
330
BA10
100
AcDbEntity
  8
0
100
AcDbEllipse
 10
19.20935751302936
 20
8.232789697860187
 30
0.0
 11
1.249999999999871
 21
2.16506350946117
 31
0.0
210
0.0
220
0.0
230
1.0
 40
0.577350269189626
 41
3.742856870268582
 42
5.68192109050012
  0
ELLIPSE
  5
BA9B
330
BA10
100
AcDbEntity
  8
0
100
AcDbEllipse
 10
20.62357107540246
 20
7.416293116932468
 30
0.0
 11
-1.25
 21
-2.165063509461096
 31
0.0
210
0.0
220
0.0
230
0.9999999999999998
 40
0.577350269189626
 41
0.0
 42
6.283185307179586
  0
ELLIPSE
  5
BA9C
330
BA10
100
AcDbEntity
  8
0
100
AcDbEllipse
 10
19.20935751302936
 20
24.56272131641471
 30
0.0
 11
1.249999999999871
 21
2.16506350946117
 31
0.0
210
0.0
220
0.0
230
1.0
 40
0.577350269189626
 41
3.742856870268582
 42
5.681921090500121
  0
ELLIPSE
  5
BA9D
330
BA10
100
AcDbEntity
  8
0
100
AcDbEllipse
 10
20.62357107540246
 20
23.74622473548699
 30
0.0
 11
-1.25
 21
-2.165063509461096
 31
0.0
210
0.0
220
0.0
230
0.9999999999999998
 40
0.577350269189626
 41
0.0
 42
6.283185307179586
  0
ELLIPSE
  5
BA9E
330
BA10
100
AcDbEntity
  8
0
100
AcDbEllipse
 10
19.20935751302936
 20
40.89265293496923
 30
0.0
 11
1.249999999999871
 21
2.16506350946117
 31
0.0
210
0.0
220
0.0
230
1.0
 40
0.577350269189626
 41
3.742856870268582
 42
5.681921090500104
  0
ELLIPSE
  5
BA9F
330
BA10
100
AcDbEntity
  8
0
100
AcDbEllipse
 10
20.62357107540246
 20
40.0761563540415
 30
0.0
 11
-1.25
 21
-2.165063509461096
 31
0.0
210
0.0
220
0.0
230
0.9999999999999998
 40
0.577350269189626
 41
0.0
 42
6.283185307179586
  0
ELLIPSE
  5
BAA0
330
BA10
100
AcDbEntity
  8
0
100
AcDbEllipse
 10
19.20935751302936
 20
57.22258455352376
 30
0.0
 11
1.249999999999871
 21
2.16506350946117
 31
0.0
210
0.0
220
0.0
230
1.0
 40
0.577350269189626
 41
3.742856870268582
 42
5.681921090500104
  0
ELLIPSE
  5
BAA1
330
BA10
100
AcDbEntity
  8
0
100
AcDbEllipse
 10
20.62357107540246
 20
56.40608797259602
 30
0.0
 11
-1.25
 21
-2.165063509461096
 31
0.0
210
0.0
220
0.0
230
0.9999999999999998
 40
0.577350269189626
 41
0.0
 42
6.283185307179586
  0
ELLIPSE
  5
BAA2
330
BA10
100
AcDbEntity
  8
0
100
AcDbEllipse
 10
-14.73176798392491
 20
-29.32605302481519
 30
0.0
 11
1.249999999999871
 21
2.16506350946117
 31
0.0
210
0.0
220
0.0
230
1.0
 40
0.5773502691896259
 41
3.742856870268582
 42
5.681921090500117
  0
ELLIPSE
  5
BAA3
330
BA10
100
AcDbEntity
  8
0
100
AcDbEllipse
 10
-13.31755442155181
 20
-30.14254960574291
 30
0.0
 11
1.249999999999999
 21
2.165063509461096
 31
0.0
210
0.0
220
0.0
230
1.0
 40
0.5773502691896259
 41
0.0
 42
6.283185307179586
  0
ELLIPSE
  5
BAA4
330
BA10
100
AcDbEntity
  8
0
100
AcDbEllipse
 10
-14.73176798392491
 20
-12.99612140626067
 30
0.0
 11
1.249999999999871
 21
2.16506350946117
 31
0.0
210
0.0
220
0.0
230
1.0
 40
0.5773502691896259
 41
3.742856870268582
 42
5.681921090500121
  0
ELLIPSE
  5
BAA5
330
BA10
100
AcDbEntity
  8
0
100
AcDbEllipse
 10
-13.31755442155181
 20
-13.8126179871884
 30
0.0
 11
1.249999999999999
 21
2.165063509461096
 31
0.0
210
0.0
220
0.0
230
1.0
 40
0.5773502691896259
 41
0.0
 42
6.283185307179586
  0
ELLIPSE
  5
BAA6
330
BA10
100
AcDbEntity
  8
0
100
AcDbEllipse
 10
-14.73176798392491
 20
3.333810212293855
 30
0.0
 11
1.249999999999871
 21
2.16506350946117
 31
0.0
210
0.0
220
0.0
230
1.0
 40
0.5773502691896259
 41
3.742856870268582
 42
5.68192109050012
  0
ELLIPSE
  5
BAA7
330
BA10
100
AcDbEntity
  8
0
100
AcDbEllipse
 10
-13.31755442155181
 20
2.517313631366127
 30
0.0
 11
1.249999999999999
 21
2.165063509461096
 31
0.0
210
0.0
220
0.0
230
1.0
 40
0.5773502691896259
 41
0.0
 42
6.283185307179586
  0
ELLIPSE
  5
BAA8
330
BA10
100
AcDbEntity
  8
0
100
AcDbEllipse
 10
-14.73176798392491
 20
19.66374183084836
 30
0.0
 11
1.249999999999871
 21
2.16506350946117
 31
0.0
210
0.0
220
0.0
230
1.0
 40
0.5773502691896259
 41
3.742856870268582
 42
5.681921090500121
  0
ELLIPSE
  5
BAA9
330
BA10
100
AcDbEntity
  8
0
100
AcDbEllipse
 10
-13.31755442155181
 20
18.84724524992062
 30
0.0
 11
1.249999999999999
 21
2.165063509461096
 31
0.0
210
0.0
220
0.0
230
1.0
 40
0.5773502691896259
 41
0.0
 42
6.283185307179586
  0
ELLIPSE
  5
BAAA
330
BA10
100
AcDbEntity
  8
0
100
AcDbEllipse
 10
-14.73176798392491
 20
35.99367344940289
 30
0.0
 11
1.249999999999871
 21
2.16506350946117
 31
0.0
210
0.0
220
0.0
230
1.0
 40
0.5773502691896259
 41
3.742856870268582
 42
5.681921090500121
  0
ELLIPSE
  5
BAAB
330
BA10
100
AcDbEntity
  8
0
100
AcDbEllipse
 10
-13.31755442155181
 20
35.17717686847515
 30
0.0
 11
1.249999999999999
 21
2.165063509461096
 31
0.0
210
0.0
220
0.0
230
1.0
 40
0.5773502691896259
 41
0.0
 42
6.283185307179586
  0
ELLIPSE
  5
BAAC
330
BA10
100
AcDbEntity
  8
0
100
AcDbEllipse
 10
-14.73176798392491
 20
52.32360506795739
 30
0.0
 11
1.24999999999987
 21
2.16506350946117
 31
0.0
210
0.0
220
0.0
230
1.0
 40
0.5773502691896259
 41
3.742856870268582
 42
5.681921090500103
  0
ELLIPSE
  5
BAAD
330
BA10
100
AcDbEntity
  8
0
100
AcDbEllipse
 10
-13.31755442155181
 20
51.50710848702965
 30
0.0
 11
1.249999999999999
 21
2.165063509461096
 31
0.0
210
0.0
220
0.0
230
1.0
 40
0.5773502691896259
 41
0.0
 42
6.283185307179586
  0
ELLIPSE
  5
BAAE
330
BA10
100
AcDbEntity
  8
0
100
AcDbEllipse
 10
-14.73176798392491
 20
68.65353668651192
 30
0.0
 11
1.249999999999871
 21
2.16506350946117
 31
0.0
210
0.0
220
0.0
230
1.0
 40
0.5773502691896259
 41
3.742856870268582
 42
5.681921090500104
  0
ELLIPSE
  5
BAAF
330
BA10
100
AcDbEntity
  8
0
100
AcDbEllipse
 10
-13.31755442155181
 20
67.83704010558418
 30
0.0
 11
1.249999999999999
 21
2.165063509461096
 31
0.0
210
0.0
220
0.0
230
1.0
 40
0.5773502691896259
 41
0.0
 42
6.283185307179586
  0
ELLIPSE
  5
BAB0
330
BA10
100
AcDbEntity
  8
0
100
AcDbEllipse
 10
-14.73176798392491
 20
84.98346830506642
 30
0.0
 11
1.249999999999871
 21
2.16506350946117
 31
0.0
210
0.0
220
0.0
230
1.0
 40
0.5773502691896259
 41
3.742856870268582
 42
5.681921090500104
  0
ELLIPSE
  5
BAB1
330
BA10
100
AcDbEntity
  8
0
100
AcDbEllipse
 10
-13.31755442155181
 20
84.16697172413869
 30
0.0
 11
1.249999999999999
 21
2.165063509461096
 31
0.0
210
0.0
220
0.0
230
1.0
 40
0.5773502691896259
 41
0.0
 42
6.283185307179586
  0
ELLIPSE
  5
BAB2
330
BA10
100
AcDbEntity
  8
0
100
AcDbEllipse
 10
-14.73176798392491
 20
101.3133999236209
 30
0.0
 11
1.249999999999871
 21
2.16506350946117
 31
0.0
210
0.0
220
0.0
230
1.0
 40
0.5773502691896259
 41
3.742856870268582
 42
5.681921090500104
  0
ELLIPSE
  5
BAB3
330
BA10
100
AcDbEntity
  8
0
100
AcDbEllipse
 10
-13.31755442155181
 20
100.4969033426932
 30
0.0
 11
1.249999999999999
 21
2.165063509461096
 31
0.0
210
0.0
220
0.0
230
1.0
 40
0.5773502691896259
 41
0.0
 42
6.283185307179586
  0
ENDBLK
  5
BA12
330
BA10
100
AcDbEntity
  8
0
100
AcDbBlockEnd
  0
ENDSEC
  0
SECTION
  2
ENTITIES
  0
INSERT
  5
BAB4
330
1F
100
AcDbEntity
  8
0
100
AcDbBlockReference
  2
SAE500_46_2-Front
 10
0.0
 20
0.0
 30
0.0
  0
INSERT
  5
BAB5
330
1F
100
AcDbEntity
  8
0
100
AcDbBlockReference
  2
SAE500_46_2-Left
 10
133.2
 20
0.0
 30
0.0
  0
INSERT
  5
BAB6
330
1F
100
AcDbEntity
  8
0
100
AcDbBlockReference
  2
SAE500_46_2-Right
 10
-133.2
 20
0.0
 30
0.0
  0
INSERT
  5
BAB7
330
1F
100
AcDbEntity
  8
0
100
AcDbBlockReference
  2
SAE500_46_2-Top
 10
0.0
 20
-70.7
 30
0.0
  0
INSERT
  5
BAB8
330
1F
100
AcDbEntity
  8
0
100
AcDbBlockReference
  2
SAE500_46_2-Bottom
 10
0.0
 20
295.7
 30
0.0
  0
INSERT
  5
BAB9
330
1F
100
AcDbEntity
  8
0
100
AcDbBlockReference
  2
SAE500_46_2-ISO
 10
181.519340090286
 20
-207.9392494844409
 30
0.0
  0
MTEXT
  5
BABA
330
1F
100
AcDbEntity
  8
0
100
AcDbMText
 10
0.0
 20
-225.4
 30
0.0
 40
16.65
 41
0.0
 71
     5
 72
     5
  1
SAE500/46/2
 73
     1
 44
1.0
1001
ACAD
1000
MTEXTBEGIN
1070
    73
1070
     1
1070
    44
1040
1.0
1070
    74
1070
     0
1000
MTEXTEND
  0
ENDSEC
  0
SECTION
  2
OBJECTS
  0
DICTIONARY
  5
C
330
0
100
AcDbDictionary
281
     1
  3
ACAD_CIP_PREVIOUS_PRODUCT_INFO
350
216
  3
ACAD_COLOR
350
6B
  3
ACAD_DETAILVIEWSTYLE
350
21B
  3
ACAD_GROUP
350
D
  3
ACAD_LAYOUT
350
1A
  3
ACAD_MATERIAL
350
6A
  3
ACAD_MLEADERSTYLE
350
12D
  3
ACAD_MLINESTYLE
350
17
  3
ACAD_PLOTSETTINGS
350
19
  3
ACAD_PLOTSTYLENAME
350
E
  3
ACAD_SCALELIST
350
10C
  3
ACAD_SECTIONVIEWSTYLE
350
219
  3
ACAD_TABLESTYLE
350
7E
  3
ACAD_VISUALSTYLE
350
EF
  3
ACDB_RECOMPOSE_DATA
350
BBBB
  3
AcDbVariableDictionary
350
5E
  3
DWGPROPS
350
BBBC
  0
DICTIONARY
  5
BB0B
330
8
100
AcDbDictionary
280
     1
281
     1
  0
DICTIONARY
  5
1FF
330
2
100
AcDbDictionary
280
     1
281
     1
  3
ACAD_LAYERSTATES
360
200
  0
DICTIONARY
  5
13C
330
10
100
AcDbDictionary
280
     1
281
     1
  0
DICTIONARY
  5
1CE
330
1F
100
AcDbDictionary
280
     1
281
     1
  3
ACAD_LAYOUTSELFREF
360
BB13
  0
DICTIONARY
  5
BABE
330
D2
100
AcDbDictionary
280
     1
281
     1
  3
ACAD_LAYOUTSELFREF
360
BB1C
  0
DICTIONARY
  5
BAC0
330
D6
100
AcDbDictionary
280
     1
281
     1
  3
ACAD_LAYOUTSELFREF
360
BB1F
  0
XRECORD
  5
216
102
{ACAD_REACTORS
330
C
102
}
330
C
100
AcDbXrecord
280
     1
300
ACD
300
2021
300
87393ACD_2021_0F
  0
DICTIONARY
  5
6B
102
{ACAD_REACTORS
330
C
102
}
330
C
100
AcDbDictionary
281
     1
  0
DICTIONARY
  5
21B
102
{ACAD_REACTORS
330
C
102
}
330
C
100
AcDbDictionary
281
     1
  3
Metric50
350
21C
  0
DICTIONARY
  5
D
102
{ACAD_REACTORS
330
C
102
}
330
C
100
AcDbDictionary
281
     1
  0
DICTIONARY
  5
1A
102
{ACAD_REACTORS
330
C
102
}
330
C
100
AcDbDictionary
281
     1
  3
Layout1
350
D3
  3
Layout2
350
D7
  3
Model
350
22
  0
DICTIONARY
  5
6A
102
{ACAD_REACTORS
330
C
102
}
330
C
100
AcDbDictionary
281
     1
  3
ByBlock
350
ED
  3
ByLayer
350
EC
  3
Global
350
EE
  0
DICTIONARY
  5
12D
102
{ACAD_REACTORS
330
C
102
}
330
C
100
AcDbDictionary
281
     1
  3
Standard
350
12E
  0
DICTIONARY
  5
17
102
{ACAD_REACTORS
330
C
102
}
330
C
100
AcDbDictionary
281
     1
  3
Standard
350
18
  0
DICTIONARY
  5
19
102
{ACAD_REACTORS
330
C
102
}
330
C
100
AcDbDictionary
281
     1
  0
ACDBDICTIONARYWDFLT
  5
E
102
{ACAD_REACTORS
330
C
102
}
330
C
100
AcDbDictionary
281
     1
  3
Normal
350
F
100
AcDbDictionaryWithDefault
340
F
  0
DICTIONARY
  5
10C
102
{ACAD_REACTORS
330
C
102
}
330
C
100
AcDbDictionary
281
     1
  3
A0
350
10D
  3
A1
350
1BE
  3
A2
350
1BF
  3
A3
350
1C0
  3
A4
350
1C1
  3
A5
350
1C2
  3
A6
350
1C3
  3
A7
350
1C4
  3
A8
350
1C5
  3
A9
350
1C6
  3
B0
350
1C7
  3
B1
350
1C8
  3
B2
350
1C9
  3
B3
350
1CA
  3
B4
350
1CB
  3
B5
350
1CC
  3
B6
350
1CD
  0
DICTIONARY
  5
219
102
{ACAD_REACTORS
330
C
102
}
330
C
100
AcDbDictionary
281
     1
  3
Metric50
350
21A
  0
DICTIONARY
  5
7E
102
{ACAD_REACTORS
330
C
102
}
330
C
100
AcDbDictionary
281
     1
  3
Standard
350
7F
  0
DICTIONARY
  5
EF
102
{ACAD_REACTORS
330
C
102
}
330
C
100
AcDbDictionary
281
     1
  3
2dWireframe
350
F5
  3
Basic
350
F4
  3
Brighten
350
FB
  3
ColorChange
350
FF
  3
Conceptual
350
F8
  3
Dim
350
FA
  3
EdgeColorOff
350
1E6
  3
Facepattern
350
FE
  3
Flat
350
F0
  3
FlatWithEdges
350
F1
  3
Gouraud
350
F2
  3
GouraudWithEdges
350
F3
  3
Hidden
350
F7
  3
JitterOff
350
1E4
  3
Linepattern
350
FD
  3
OverhangOff
350
1E5
  3
Realistic
350
F9
  3
Shaded
350
1F3
  3
Shaded with edges
350
1F2
  3
Shades of Gray
350
1EF
  3
Sketchy
350
1F0
  3
Thicken
350
FC
  3
Wireframe
350
F6
  3
X-Ray
350
1F1
  0
XRECORD
  5
BBBB
102
{ACAD_REACTORS
330
C
102
}
330
C
100
AcDbXrecord
280
     1
 90
        1
330
7F
  0
DICTIONARY
  5
5E
102
{ACAD_REACTORS
330
C
102
}
330
C
100
AcDbDictionary
281
     1
  3
CANNOSCALE
350
146
  3
CENTEREXE
350
259
  3
CENTERLTYPEFILE
350
25A
  3
CMLEADERSTYLE
350
145
  3
CTABLESTYLE
350
84
  3
CVIEWDETAILSTYLE
350
227
  3
CVIEWSECTIONSTYLE
350
228
  3
DIMASSOC
350
5F
  3
HIDETEXT
350
63
  3
INDEXCTL
350
BB68
  3
LAYEREVAL
350
1AE
  3
LAYERNOTIFY
350
1AF
  3
LIGHTINGUNITS
350
BB66
  3
MSLTSCALE
350
BB65
  3
PSOLHEIGHT
350
BBB8
  3
PSOLWIDTH
350
BBB7
  3
SORTENTS
350
BB67
  3
XCLIPFRAME
350
BBB9
  0
XRECORD
  5
BBBC
102
{ACAD_REACTORS
330
C
102
}
330
C
100
AcDbXrecord
280
     1
  1
DWGPROPS COOKIE
  2

  3

  4

  6

  7

  8
truole
  9

300
=
301
=
302
=
303
=
304
=
305
=
306
=
307
=
308
=
309
=
 40
0.0080671296296296
 41
2460398.356956019
 42
2460398.376076389
  1

 90
        0
  0
DICTIONARY
  5
200
102
{ACAD_REACTORS
330
1FF
102
}
330
1FF
100
AcDbDictionary
281
     1
  0
XRECORD
  5
BB13
102
{ACAD_REACTORS
330
1CE
102
}
330
1CE
100
AcDbXrecord
280
     1
340
1F
  0
XRECORD
  5
BB1C
102
{ACAD_REACTORS
330
BABE
102
}
330
BABE
100
AcDbXrecord
280
     1
340
D2
  0
XRECORD
  5
BB1F
102
{ACAD_REACTORS
330
BAC0
102
}
330
BAC0
100
AcDbXrecord
280
     1
340
D6
  0
ACDBDETAILVIEWSTYLE
  5
21C
102
{ACAD_XDICTIONARY
360
BBFB
102
}
102
{ACAD_REACTORS
330
21B
102
}
330
21B
100
AcDbModelDocViewStyle
 70
     0
  3
Metric50
290
     0
100
AcDbDetailViewStyle
 70
     0
 71
     0
 90
        3
 71
     1
340
11
 40
5.0
340
0
 40
5.0
300

 40
0.0
280
     1
 71
     2
340
16
 90
       25
 71
     3
340
11
 40
5.0
 90
        0
 40
15.0
 90
        1
300
%<\AcVar ViewDetailId>% (%<\AcVar ViewScale \f "%sn">%)
 71
     4
340
16
 90
       25
340
16
 90
       25
280
     0
  0
LAYOUT
  5
D3
102
{ACAD_XDICTIONARY
360
BBC0
102
}
102
{ACAD_REACTORS
330
1A
102
}
330
1A
100
AcDbPlotSettings
  1

  2
C:\Documents and Settings\basas\Application Data\Autodesk\AutoCAD 2005\R16.1\enu\plotters\Default Windows System Printer.pc3
  4

  6

 40
0.0
 41
0.0
 42
0.0
 43
0.0
 44
0.0
 45
0.0
 46
0.0
 47
0.0
 48
0.0
 49
0.0
140
0.0
141
0.0
142
1.0
143
1.0
 70
   688
 72
     0
 73
     0
 74
     5
  7

 75
    16
147
1.0
148
0.0
149
0.0
100
AcDbLayout
  1
Layout1
 70
     1
 71
     1
 10
0.0
 20
0.0
 11
12.0
 21
9.0
 12
0.0
 22
0.0
 32
0.0
 14
0.0
 24
0.0
 34
0.0
 15
0.0
 25
0.0
 35
0.0
146
0.0
 13
0.0
 23
0.0
 33
0.0
 16
1.0
 26
0.0
 36
0.0
 17
0.0
 27
1.0
 37
0.0
 76
     0
330
D2
  0
LAYOUT
  5
D7
102
{ACAD_XDICTIONARY
360
BBC2
102
}
102
{ACAD_REACTORS
330
1A
102
}
330
1A
100
AcDbPlotSettings
  1

  2
C:\Documents and Settings\basas\Application Data\Autodesk\AutoCAD 2005\R16.1\enu\plotters\Default Windows System Printer.pc3
  4

  6

 40
0.0
 41
0.0
 42
0.0
 43
0.0
 44
0.0
 45
0.0
 46
0.0
 47
0.0
 48
0.0
 49
0.0
140
0.0
141
0.0
142
1.0
143
1.0
 70
   688
 72
     0
 73
     0
 74
     5
  7

 75
    16
147
1.0
148
0.0
149
0.0
100
AcDbLayout
  1
Layout2
 70
     1
 71
     2
 10
0.0
 20
0.0
 11
12.0
 21
9.0
 12
0.0
 22
0.0
 32
0.0
 14
0.0
 24
0.0
 34
0.0
 15
0.0
 25
0.0
 35
0.0
146
0.0
 13
0.0
 23
0.0
 33
0.0
 16
1.0
 26
0.0
 36
0.0
 17
0.0
 27
1.0
 37
0.0
 76
     0
330
D6
  0
LAYOUT
  5
22
102
{ACAD_XDICTIONARY
360
BBBD
102
}
102
{ACAD_REACTORS
330
1A
102
}
330
1A
100
AcDbPlotSettings
  1

  2
none_device
  4
ISO_A4_(210.00_x_297.00_MM)
  6

 40
7.5
 41
20.0
 42
7.5
 43
20.0
 44
210.0
 45
297.0
 46
11.54999923706054
 47
-13.65000009536743
 48
0.0
 49
0.0
140
0.0
141
0.0
142
1.0
143
8.704084754739808
 70
 11952
 72
     1
 73
     0
 74
     0
  7

 75
     0
147
0.1148885871608098
148
0.0
149
0.0
100
AcDbLayout
  1
Model
 70
     1
 71
     0
 10
0.0
 20
0.0
 11
12.0
 21
9.0
 12
0.0
 22
0.0
 32
0.0
 14
0.0
 24
0.0
 34
0.0
 15
0.0
 25
0.0
 35
0.0
146
0.0
 13
0.0
 23
0.0
 33
0.0
 16
1.0
 26
0.0
 36
0.0
 17
0.0
 27
1.0
 37
0.0
 76
     0
330
1F
331
EA
1001
ACAD_PSEXT
1000
None
1000
None
1000
Not applicable
1000
The layout will not be plotted unless a new plotter configuration name is selected.
1070
     0
  0
MATERIAL
  5
ED
102
{ACAD_XDICTIONARY
360
1F9
102
}
102
{ACAD_REACTORS
330
6A
102
}
330
6A
100
AcDbMaterial
  1
ByBlock
  0
MATERIAL
  5
EC
102
{ACAD_XDICTIONARY
360
1F7
102
}
102
{ACAD_REACTORS
330
6A
102
}
330
6A
100
AcDbMaterial
  1
ByLayer
  0
MATERIAL
  5
EE
102
{ACAD_XDICTIONARY
360
173
102
}
102
{ACAD_REACTORS
330
6A
102
}
330
6A
100
AcDbMaterial
  1
Global
 43
0.0007999999797903
 43
0.0
 43
0.0
 43
0.0
 43
0.0
 43
0.0007999999797903
 43
0.0
 43
0.0
 43
0.0
 43
0.0
 43
1.0
 43
0.0
 43
0.0
 43
0.0
 43
0.0
 43
1.0
 49
0.0007999999797903
 49
0.0
 49
0.0
 49
0.0
 49
0.0
 49
0.0007999999797903
 49
0.0
 49
0.0
 49
0.0
 49
0.0
 49
1.0
 49
0.0
 49
0.0
 49
0.0
 49
0.0
 49
1.0
142
0.0007999999797903
142
0.0
142
0.0
142
0.0
142
0.0
142
0.0007999999797903
142
0.0
142
0.0
142
0.0
142
0.0
142
1.0
142
0.0
142
0.0
142
0.0
142
0.0
142
1.0
144
0.0007999999797903
144
0.0
144
0.0
144
0.0
144
0.0
144
0.0007999999797903
144
0.0
144
0.0
144
0.0
144
0.0
144
1.0
144
0.0
144
0.0
144
0.0
144
0.0
144
1.0
1001
ACAD
1070
    -1
1070
     3
1070
     0
1000

1071
        0
1070
     0
  0
MLEADERSTYLE
  5
12E
102
{ACAD_XDICTIONARY
360
BBE7
102
}
102
{ACAD_REACTORS
330
12D
102
}
330
12D
100
AcDbMLeaderStyle
170
     2
171
     1
172
     0
 90
        2
 40
0.0
 41
0.0
173
     1
 91
-1056964608
340
14
 92
       -2
290
     1
 42
2.0
291
     1
 43
8.0
  3
Standard
 44
4.0
300

342
11
174
     1
178
     1
175
     1
176
     0
 93
-1056964608
 45
4.0
292
     0
297
     0
 46
4.0
 94
-1056964608
 47
1.0
 49
1.0
140
1.0
293
     1
141
0.0
294
     1
177
     0
142
1.0
295
     0
296
     0
143
3.75
1001
ACAD_MLEADERVER
1070
     2
  0
MLINESTYLE
  5
18
102
{ACAD_REACTORS
330
17
102
}
330
17
100
AcDbMlineStyle
  2
STANDARD
 70
     0
  3

 62
   256
 51
90.0
 52
90.0
 71
     2
 49
0.5
 62
   256
  6
BYLAYER
 49
-0.5
 62
   256
  6
BYLAYER
  0
ACDBPLACEHOLDER
  5
F
102
{ACAD_REACTORS
330
E
102
}
330
E
  0
SCALE
  5
10D
102
{ACAD_REACTORS
330
10C
102
}
330
10C
100
AcDbScale
 70
     0
300
1:1
140
1.0
141
1.0
290
     1
  0
SCALE
  5
1BE
102
{ACAD_REACTORS
330
10C
102
}
330
10C
100
AcDbScale
 70
     0
300
1:2
140
1.0
141
2.0
290
     0
  0
SCALE
  5
1BF
102
{ACAD_REACTORS
330
10C
102
}
330
10C
100
AcDbScale
 70
     0
300
1:4
140
1.0
141
4.0
290
     0
  0
SCALE
  5
1C0
102
{ACAD_REACTORS
330
10C
102
}
330
10C
100
AcDbScale
 70
     0
300
1:5
140
1.0
141
5.0
290
     0
  0
SCALE
  5
1C1
102
{ACAD_REACTORS
330
10C
102
}
330
10C
100
AcDbScale
 70
     0
300
1:8
140
1.0
141
8.0
290
     0
  0
SCALE
  5
1C2
102
{ACAD_REACTORS
330
10C
102
}
330
10C
100
AcDbScale
 70
     0
300
1:10
140
1.0
141
10.0
290
     0
  0
SCALE
  5
1C3
102
{ACAD_REACTORS
330
10C
102
}
330
10C
100
AcDbScale
 70
     0
300
1:16
140
1.0
141
16.0
290
     0
  0
SCALE
  5
1C4
102
{ACAD_REACTORS
330
10C
102
}
330
10C
100
AcDbScale
 70
     0
300
1:20
140
1.0
141
20.0
290
     0
  0
SCALE
  5
1C5
102
{ACAD_REACTORS
330
10C
102
}
330
10C
100
AcDbScale
 70
     0
300
1:30
140
1.0
141
30.0
290
     0
  0
SCALE
  5
1C6
102
{ACAD_REACTORS
330
10C
102
}
330
10C
100
AcDbScale
 70
     0
300
1:40
140
1.0
141
40.0
290
     0
  0
SCALE
  5
1C7
102
{ACAD_REACTORS
330
10C
102
}
330
10C
100
AcDbScale
 70
     0
300
1:50
140
1.0
141
50.0
290
     0
  0
SCALE
  5
1C8
102
{ACAD_REACTORS
330
10C
102
}
330
10C
100
AcDbScale
 70
     0
300
1:100
140
1.0
141
100.0
290
     0
  0
SCALE
  5
1C9
102
{ACAD_REACTORS
330
10C
102
}
330
10C
100
AcDbScale
 70
     0
300
2:1
140
2.0
141
1.0
290
     0
  0
SCALE
  5
1CA
102
{ACAD_REACTORS
330
10C
102
}
330
10C
100
AcDbScale
 70
     0
300
4:1
140
4.0
141
1.0
290
     0
  0
SCALE
  5
1CB
102
{ACAD_REACTORS
330
10C
102
}
330
10C
100
AcDbScale
 70
     0
300
8:1
140
8.0
141
1.0
290
     0
  0
SCALE
  5
1CC
102
{ACAD_REACTORS
330
10C
102
}
330
10C
100
AcDbScale
 70
     0
300
10:1
140
10.0
141
1.0
290
     0
  0
SCALE
  5
1CD
102
{ACAD_REACTORS
330
10C
102
}
330
10C
100
AcDbScale
 70
     0
300
100:1
140
100.0
141
1.0
290
     0
  0
ACDBSECTIONVIEWSTYLE
  5
21A
102
{ACAD_XDICTIONARY
360
BBF9
102
}
102
{ACAD_REACTORS
330
219
102
}
330
219
100
AcDbModelDocViewStyle
 70
     0
  3
Metric50
290
     0
100
AcDbSectionViewStyle
 70
     0
 71
     0
 90
      102
 71
     1
340
11
 40
5.0
340
0
340
0
 40
5.0
300
I, O, Q, S, X, Z
 40
10.0
 90
        0
 40
2.5
 90
        0
 71
     2
340
16
 90
       25
340
16
 90
       50
 40
5.0
 40
2.5
 40
5.0
 71
     3
340
11
 40
5.0
 90
        0
 40
15.0
 90
        1
300
%<\AcVar ViewSectionStartId>%-%<\AcVar ViewSectionEndId>% (%<\AcVar ViewScale \f "%sn">%)
 71
     4
300
ANSI31
 40
1.0
 90
        0
290
     0
290
     0
 90
        6
 40
0.0
 40
1.570796326794896
 40
0.2617993877991494
 40
1.308996938995747
 40
-0.2617993877991494
 40
1.832595714594046
  0
TABLESTYLE
  5
7F
102
{ACAD_XDICTIONARY
360
162
102
}
102
{ACAD_REACTORS
330
7E
102
}
330
7E
100
AcDbTableStyle
  3
Standard
 70
     0
 71
     0
 40
1.5
 41
1.5
280
     0
281
     0
  7
Standard
140
4.5
170
     2
 62
     0
 63
     7
283
     0
274
    -2
284
     1
 64
     0
275
    -2
285
     1
 65
     0
276
    -2
286
     1
 66
     0
277
    -2
287
     1
 67
     0
278
    -2
288
     1
 68
     0
279
    -2
289
     1
 69
     0
  7
Standard
140
6.0
170
     5
 62
     0
 63
     7
283
     0
274
    -2
284
     1
 64
     0
275
    -2
285
     1
 65
     0
276
    -2
286
     1
 66
     0
277
    -2
287
     1
 67
     0
278
    -2
288
     1
 68
     0
279
    -2
289
     1
 69
     0
  7
Standard
140
4.5
170
     5
 62
     0
 63
     7
283
     0
274
    -2
284
     1
 64
     0
275
    -2
285
     1
 65
     0
276
    -2
286
     1
 66
     0
277
    -2
287
     1
 67
     0
278
    -2
288
     1
 68
     0
279
    -2
289
     1
 69
     0
  0
VISUALSTYLE
  5
F5
102
{ACAD_XDICTIONARY
360
BBD1
102
}
102
{ACAD_REACTORS
330
EF
102
}
330
EF
100
AcDbVisualStyle
  2
2dWireframe
 70
     4
 71
     0
 72
     2
 73
     1
 90
        0
 40
-0.6
 41
-30.0
 62
     5
 63
     7
 74
     1
 91
        4
 64
     7
 65
   257
 75
     1
175
     1
 42
1.0
 92
        0
 66
   257
 43
1.0
 76
     1
 77
     6
 78
     2
 67
     7
 79
     5
170
     0
171
     0
290
     0
174
     0
 93
        1
 44
0.0
173
     0
291
     0
 45
0.0
1001
ACAD
1000
AcDbSavedByObjectVersion
1070
     0
  0
VISUALSTYLE
  5
F4
102
{ACAD_XDICTIONARY
360
BBCF
102
}
102
{ACAD_REACTORS
330
EF
102
}
330
EF
100
AcDbVisualStyle
  2
Basic
 70
     7
 71
     1
 72
     0
 73
     1
 90
        0
 40
-0.6
 41
-30.0
 62
     5
 63
     7
 74
     0
 91
        4
 64
     7
 65
   257
 75
     1
175
     1
 42
1.0
 92
        8
 66
     7
 43
1.0
 76
     1
 77
     6
 78
     2
 67
     7
 79
     5
170
     0
171
     0
290
     0
174
     0
 93
        1
 44
0.0
173
     0
291
     1
 45
0.0
1001
ACAD
1000
AcDbSavedByObjectVersion
1070
     0
  0
VISUALSTYLE
  5
FB
102
{ACAD_XDICTIONARY
360
BBDD
102
}
102
{ACAD_REACTORS
330
EF
102
}
330
EF
100
AcDbVisualStyle
  2
Brighten
 70
    12
 71
     2
 72
     2
 73
     1
 90
        0
 40
-0.6
 41
-30.0
 62
     5
 63
     7
 74
     1
 91
        4
 64
     7
 65
   257
 75
     1
175
     1
 42
1.0
 92
        8
 66
     7
 43
1.0
 76
     1
 77
     6
 78
     2
 67
     7
 79
     5
170
     0
171
     0
290
     0
174
     0
 93
        1
 44
50.0
173
     0
291
     1
 45
0.0
1001
ACAD
1000
AcDbSavedByObjectVersion
1070
     0
  0
VISUALSTYLE
  5
FF
102
{ACAD_XDICTIONARY
360
BBE5
102
}
102
{ACAD_REACTORS
330
EF
102
}
330
EF
100
AcDbVisualStyle
  2
ColorChange
 70
    16
 71
     2
 72
     2
 73
     3
 90
        0
 40
-0.6
 41
-30.0
 62
     5
 63
     8
 74
     1
 91
        4
 64
     7
 65
   257
 75
     1
175
     1
 42
1.0
 92
        8
 66
     8
 43
1.0
 76
     1
 77
     6
 78
     2
 67
     7
 79
     5
170
     0
171
     0
290
     0
174
     0
 93
        1
 44
0.0
173
     0
291
     1
 45
0.0
1001
ACAD
1000
AcDbSavedByObjectVersion
1070
     0
  0
VISUALSTYLE
  5
F8
102
{ACAD_XDICTIONARY
360
BBD7
102
}
102
{ACAD_REACTORS
330
EF
102
}
330
EF
100
AcDbVisualStyle
  2
Conceptual
 70
     9
 71
     3
 72
     2
 73
     1
 90
        0
 40
-0.6
 41
-30.0
 62
     5
 63
     7
 74
     2
 91
        2
 64
     7
 65
   257
 75
     1
175
     1
 42
40.0
 92
        8
 66
     7
 43
1.0
 76
     1
 77
     6
 78
     2
 67
     7
 79
     3
170
     0
171
     0
290
     0
174
     0
 93
        1
 44
0.0
173
     0
291
     0
 45
0.0
1001
ACAD
1000
AcDbSavedByObjectVersion
1070
     0
  0
VISUALSTYLE
  5
FA
102
{ACAD_XDICTIONARY
360
BBDB
102
}
102
{ACAD_REACTORS
330
EF
102
}
330
EF
100
AcDbVisualStyle
  2
Dim
 70
    11
 71
     2
 72
     2
 73
     1
 90
        0
 40
-0.6
 41
-30.0
 62
     5
 63
     7
 74
     1
 91
        4
 64
     7
 65
   257
 75
     1
175
     1
 42
1.0
 92
        8
 66
     7
 43
1.0
 76
     1
 77
     6
 78
     2
 67
     7
 79
     5
170
     0
171
     0
290
     0
174
     0
 93
        1
 44
-50.0
173
     0
291
     1
 45
0.0
1001
ACAD
1000
AcDbSavedByObjectVersion
1070
     0
  0
VISUALSTYLE
  5
1E6
102
{ACAD_XDICTIONARY
360
BBED
102
}
102
{ACAD_REACTORS
330
EF
102
}
330
EF
100
AcDbVisualStyle
  2
EdgeColorOff
 70
    22
 71
     2
 72
     2
 73
     0
 90
        0
 40
-0.6
 41
-30.0
 62
     5
 63
     7
 74
     1
 91
        4
 64
     7
 65
   257
 75
     1
175
     1
 42
1.0
 92
        8
 66
     7
 43
1.0
 76
     1
 77
     6
 78
     2
 67
     7
 79
     5
170
     0
171
     0
290
     0
174
     0
 93
        1
 44
0.0
173
     0
291
     1
 45
0.0
1001
ACAD
1000
AcDbSavedByObjectVersion
1070
     0
  0
VISUALSTYLE
  5
FE
102
{ACAD_XDICTIONARY
360
BBE3
102
}
102
{ACAD_REACTORS
330
EF
102
}
330
EF
100
AcDbVisualStyle
  2
Facepattern
 70
    15
 71
     2
 72
     2
 73
     1
 90
        0
 40
-0.6
 41
-30.0
 62
     5
 63
     7
 74
     1
 91
        4
 64
     7
 65
   257
 75
     1
175
     1
 42
1.0
 92
        8
 66
     7
 43
1.0
 76
     1
 77
     6
 78
     2
 67
     7
 79
     5
170
     0
171
     0
290
     0
174
     0
 93
        1
 44
0.0
173
     0
291
     1
 45
0.0
1001
ACAD
1000
AcDbSavedByObjectVersion
1070
     0
  0
VISUALSTYLE
  5
F0
102
{ACAD_XDICTIONARY
360
BBC7
102
}
102
{ACAD_REACTORS
330
EF
102
}
330
EF
100
AcDbVisualStyle
  2
Flat
 70
     0
 71
     2
 72
     1
 73
     1
 90
        2
 40
-0.6
 41
30.0
 62
     5
 63
     7
 74
     0
 91
        0
 64
     7
 65
   257
 75
     1
175
     1
 42
1.0
 92
        8
 66
     7
 43
1.0
 76
     1
 77
     6
 78
     2
 67
     7
 79
     5
170
     0
171
     0
290
     0
174
     0
 93
       13
 44
0.0
173
     0
291
     1
 45
0.0
1001
ACAD
1000
AcDbSavedByObjectVersion
1070
     0
  0
VISUALSTYLE
  5
F1
102
{ACAD_XDICTIONARY
360
BBC9
102
}
102
{ACAD_REACTORS
330
EF
102
}
330
EF
100
AcDbVisualStyle
  2
FlatWithEdges
 70
     1
 71
     2
 72
     1
 73
     1
 90
        2
 40
-0.6
 41
30.0
 62
     5
 63
     7
 74
     1
 91
        0
 64
     7
 65
   257
 75
     1
175
     1
 42
1.0
 92
        0
 66
   257
 43
1.0
 76
     1
 77
     6
 78
     2
 67
     7
 79
     5
170
     0
171
     0
290
     0
174
     0
 93
       13
 44
0.0
173
     0
291
     1
 45
0.0
1001
ACAD
1000
AcDbSavedByObjectVersion
1070
     0
  0
VISUALSTYLE
  5
F2
102
{ACAD_XDICTIONARY
360
BBCB
102
}
102
{ACAD_REACTORS
330
EF
102
}
330
EF
100
AcDbVisualStyle
  2
Gouraud
 70
     2
 71
     2
 72
     2
 73
     1
 90
        2
 40
-0.6
 41
30.0
 62
     5
 63
     7
 74
     0
 91
        0
 64
     7
 65
   257
 75
     1
175
     1
 42
1.0
 92
        0
 66
     7
 43
1.0
 76
     1
 77
     6
 78
     2
 67
     7
 79
     5
170
     0
171
     0
290
     0
174
     0
 93
       13
 44
0.0
173
     0
291
     1
 45
0.0
1001
ACAD
1000
AcDbSavedByObjectVersion
1070
     0
  0
VISUALSTYLE
  5
F3
102
{ACAD_XDICTIONARY
360
BBCD
102
}
102
{ACAD_REACTORS
330
EF
102
}
330
EF
100
AcDbVisualStyle
  2
GouraudWithEdges
 70
     3
 71
     2
 72
     2
 73
     1
 90
        2
 40
-0.6
 41
30.0
 62
     5
 63
     7
 74
     1
 91
        0
 64
     7
 65
   257
 75
     1
175
     1
 42
1.0
 92
        0
 66
   257
 43
1.0
 76
     1
 77
     6
 78
     2
 67
     7
 79
     5
170
     0
171
     0
290
     0
174
     0
 93
       13
 44
0.0
173
     0
291
     1
 45
0.0
1001
ACAD
1000
AcDbSavedByObjectVersion
1070
     0
  0
VISUALSTYLE
  5
F7
102
{ACAD_XDICTIONARY
360
BBD5
102
}
102
{ACAD_REACTORS
330
EF
102
}
330
EF
100
AcDbVisualStyle
  2
Hidden
 70
     6
 71
     1
 72
     2
 73
     2
 90
        0
 40
-0.6
 41
-30.0
 62
     5
 63
     7
 74
     2
 91
        2
 64
     7
 65
   257
 75
     2
175
     1
 42
40.0
 92
        0
 66
   257
 43
1.0
 76
     1
 77
     6
 78
     2
 67
     7
 79
     3
170
     0
171
     0
290
     0
174
     0
 93
        1
 44
0.0
173
     0
291
     0
 45
0.0
1001
ACAD
1000
AcDbSavedByObjectVersion
1070
     0
  0
VISUALSTYLE
  5
1E4
102
{ACAD_XDICTIONARY
360
BBE9
102
}
102
{ACAD_REACTORS
330
EF
102
}
330
EF
100
AcDbVisualStyle
  2
JitterOff
 70
    20
 71
     2
 72
     2
 73
     0
 90
        0
 40
-0.6
 41
-30.0
 62
     5
 63
     7
 74
     1
 91
        4
 64
     7
 65
   257
 75
     1
175
     1
 42
1.0
 92
       10
 66
     7
 43
1.0
 76
     1
 77
     6
 78
     2
 67
     7
 79
     5
170
     0
171
     0
290
     0
174
     0
 93
        1
 44
0.0
173
     0
291
     1
 45
0.0
1001
ACAD
1000
AcDbSavedByObjectVersion
1070
     0
  0
VISUALSTYLE
  5
FD
102
{ACAD_XDICTIONARY
360
BBE1
102
}
102
{ACAD_REACTORS
330
EF
102
}
330
EF
100
AcDbVisualStyle
  2
Linepattern
 70
    14
 71
     2
 72
     2
 73
     1
 90
        0
 40
-0.6
 41
-30.0
 62
     5
 63
     7
 74
     1
 91
        4
 64
     7
 65
   257
 75
     7
175
     7
 42
1.0
 92
        8
 66
     7
 43
1.0
 76
     1
 77
     6
 78
     2
 67
     7
 79
     5
170
     0
171
     0
290
     0
174
     0
 93
        1
 44
0.0
173
     0
291
     1
 45
0.0
1001
ACAD
1000
AcDbSavedByObjectVersion
1070
     0
  0
VISUALSTYLE
  5
1E5
102
{ACAD_XDICTIONARY
360
BBEB
102
}
102
{ACAD_REACTORS
330
EF
102
}
330
EF
100
AcDbVisualStyle
  2
OverhangOff
 70
    21
 71
     2
 72
     2
 73
     0
 90
        0
 40
-0.6
 41
-30.0
 62
     5
 63
     7
 74
     1
 91
        4
 64
     7
 65
   257
 75
     1
175
     1
 42
1.0
 92
        9
 66
     7
 43
1.0
 76
     1
 77
     6
 78
     2
 67
     7
 79
     5
170
     0
171
     0
290
     0
174
     0
 93
        1
 44
0.0
173
     0
291
     1
 45
0.0
1001
ACAD
1000
AcDbSavedByObjectVersion
1070
     0
  0
VISUALSTYLE
  5
F9
102
{ACAD_XDICTIONARY
360
BBD9
102
}
102
{ACAD_REACTORS
330
EF
102
}
330
EF
100
AcDbVisualStyle
  2
Realistic
 70
     8
 71
     2
 72
     2
 73
     0
 90
        2
 40
-0.6
 41
30.0
 62
     5
 63
     7
 74
     0
 91
        0
 64
     7
 65
   257
 75
     1
175
     1
 42
1.0
 92
        8
 66
   257
 43
1.0
 76
     1
 77
     6
 78
     2
 67
     7
 79
     3
170
     0
171
     0
290
     0
174
     0
 93
       13
 44
0.0
173
     0
291
     0
 45
0.0
1001
ACAD
1000
AcDbSavedByObjectVersion
1070
     0
  0
VISUALSTYLE
  5
1F3
102
{ACAD_XDICTIONARY
360
BBF7
102
}
102
{ACAD_REACTORS
330
EF
102
}
330
EF
100
AcDbVisualStyle
  2
Shaded
 70
    27
 71
     2
 72
     2
 73
     1
 90
        2
 40
-0.6
 41
30.0
 62
     5
 63
     7
 74
     0
 91
        4
 64
     7
 65
   257
 75
     1
175
     1
 42
1.0
 92
        8
 66
   257
 43
1.0
 76
     1
 77
     6
 78
     2
 67
     8
 79
     3
170
     0
171
     0
290
     0
174
     0
 93
        5
 44
0.0
173
     0
291
     0
 45
0.0
1001
ACAD
1000
AcDbSavedByObjectVersion
1070
     0
  0
VISUALSTYLE
  5
1F2
102
{ACAD_XDICTIONARY
360
BBF5
102
}
102
{ACAD_REACTORS
330
EF
102
}
330
EF
100
AcDbVisualStyle
  2
Shaded with edges
 70
    26
 71
     2
 72
     2
 73
     1
 90
        2
 40
-0.6
 41
30.0
 62
     5
 63
     7
 74
     1
 91
        2
 64
     7
 65
   257
 75
     2
175
     1
 42
1.0
 92
        8
 66
   257
 43
1.0
 76
     1
 77
     6
 78
     2
 67
     7
 79
     3
170
     0
171
     0
290
     0
174
     0
 93
        5
 44
0.0
173
     0
291
     0
 45
0.0
1001
ACAD
1000
AcDbSavedByObjectVersion
1070
     0
  0
VISUALSTYLE
  5
1EF
102
{ACAD_XDICTIONARY
360
BBEF
102
}
102
{ACAD_REACTORS
330
EF
102
}
330
EF
100
AcDbVisualStyle
  2
Shades of Gray
 70
    23
 71
     2
 72
     2
 73
     3
 90
        0
 40
-0.6
 41
-30.0
 62
     5
 63
     7
 74
     2
 91
        2
 64
     7
 65
     7
 75
     1
175
     1
 42
40.0
 92
        8
 66
     7
 43
1.0
 76
     1
 77
     6
 78
     2
 67
     7
 79
     3
170
     0
171
     0
290
     0
174
     0
 93
        1
 44
0.0
173
     0
291
     0
 45
0.0
1001
ACAD
1000
AcDbSavedByObjectVersion
1070
     0
  0
VISUALSTYLE
  5
1F0
102
{ACAD_XDICTIONARY
360
BBF1
102
}
102
{ACAD_REACTORS
330
EF
102
}
330
EF
100
AcDbVisualStyle
  2
Sketchy
 70
    24
 71
     1
 72
     2
 73
     2
 90
        0
 40
-0.6
 41
-30.0
 62
     5
 63
     7
 74
     2
 91
        2
 64
     7
 65
     7
 75
     1
175
     1
 42
40.0
 92
       11
 66
     7
 43
1.0
 76
     1
 77
     6
 78
     2
 67
     7
 79
     6
170
     0
171
     0
290
     0
174
     0
 93
        1
 44
0.0
173
     0
291
     0
 45
0.0
1001
ACAD
1000
AcDbSavedByObjectVersion
1070
     0
  0
VISUALSTYLE
  5
FC
102
{ACAD_XDICTIONARY
360
BBDF
102
}
102
{ACAD_REACTORS
330
EF
102
}
330
EF
100
AcDbVisualStyle
  2
Thicken
 70
    13
 71
     2
 72
     2
 73
     1
 90
        0
 40
-0.6
 41
-30.0
 62
     5
 63
     7
 74
     1
 91
        4
 64
     7
 65
   257
 75
     1
175
     1
 42
1.0
 92
       12
 66
     7
 43
1.0
 76
     1
 77
     6
 78
     2
 67
     7
 79
     5
170
     0
171
     0
290
     0
174
     0
 93
        1
 44
0.0
173
     0
291
     1
 45
0.0
1001
ACAD
1000
AcDbSavedByObjectVersion
1070
     0
  0
VISUALSTYLE
  5
F6
102
{ACAD_XDICTIONARY
360
BBD3
102
}
102
{ACAD_REACTORS
330
EF
102
}
330
EF
100
AcDbVisualStyle
  2
Wireframe
 70
     5
 71
     0
 72
     2
 73
     0
 90
        0
 40
-0.6
 41
-30.0
 62
     5
 63
     7
 74
     1
 91
        4
 64
     7
 65
   257
 75
     1
175
     1
 42
1.0
 92
        0
 66
   257
 43
1.0
 76
     1
 77
     6
 78
     2
 67
     7
 79
     3
170
     0
171
     0
290
     0
174
     0
 93
        1
 44
0.0
173
     0
291
     0
 45
0.0
1001
ACAD
1000
AcDbSavedByObjectVersion
1070
     0
  0
VISUALSTYLE
  5
1F1
102
{ACAD_XDICTIONARY
360
BBF3
102
}
102
{ACAD_REACTORS
330
EF
102
}
330
EF
100
AcDbVisualStyle
  2
X-Ray
 70
    25
 71
     2
 72
     2
 73
     1
 90
        1
 40
0.5
 41
-30.0
 62
     5
 63
     7
 74
     1
 91
        0
 64
     7
 65
   257
 75
     1
175
     1
 42
1.0
 92
        8
 66
     7
 43
1.0
 76
     1
 77
     6
 78
     2
 67
     7
 79
     3
170
     0
171
     0
290
     0
174
     0
 93
       13
 44
0.0
173
     0
291
     0
 45
0.0
1001
ACAD
1000
AcDbSavedByObjectVersion
1070
     0
  0
DICTIONARYVAR
  5
146
102
{ACAD_REACTORS
330
5E
102
}
330
5E
100
DictionaryVariables
280
     0
  1
1:1
  0
DICTIONARYVAR
  5
259
102
{ACAD_REACTORS
330
5E
102
}
330
5E
100
DictionaryVariables
280
     0
  1
3.500000
  0
DICTIONARYVAR
  5
25A
102
{ACAD_REACTORS
330
5E
102
}
330
5E
100
DictionaryVariables
280
     0
  1
acadiso.lin
  0
DICTIONARYVAR
  5
145
102
{ACAD_REACTORS
330
5E
102
}
330
5E
100
DictionaryVariables
280
     0
  1
STANDARD
  0
DICTIONARYVAR
  5
84
102
{ACAD_REACTORS
330
5E
102
}
330
5E
100
DictionaryVariables
280
     0
  1
STANDARD
  0
DICTIONARYVAR
  5
227
102
{ACAD_REACTORS
330
5E
102
}
330
5E
100
DictionaryVariables
280
     0
  1
Metric50
  0
DICTIONARYVAR
  5
228
102
{ACAD_REACTORS
330
5E
102
}
330
5E
100
DictionaryVariables
280
     0
  1
Metric50
  0
DICTIONARYVAR
  5
5F
102
{ACAD_REACTORS
330
5E
102
}
330
5E
100
DictionaryVariables
280
     0
  1
2
  0
DICTIONARYVAR
  5
63
102
{ACAD_REACTORS
330
5E
102
}
330
5E
100
DictionaryVariables
280
     0
  1
1
  0
DICTIONARYVAR
  5
BB68
102
{ACAD_REACTORS
330
5E
102
}
330
5E
100
DictionaryVariables
280
     0
  1
0
  0
DICTIONARYVAR
  5
1AE
102
{ACAD_REACTORS
330
5E
102
}
330
5E
100
DictionaryVariables
280
     0
  1
0
  0
DICTIONARYVAR
  5
1AF
102
{ACAD_REACTORS
330
5E
102
}
330
5E
100
DictionaryVariables
280
     0
  1
0
  0
DICTIONARYVAR
  5
BB66
102
{ACAD_REACTORS
330
5E
102
}
330
5E
100
DictionaryVariables
280
     0
  1
2
  0
DICTIONARYVAR
  5
BB65
102
{ACAD_REACTORS
330
5E
102
}
330
5E
100
DictionaryVariables
280
     0
  1
1
  0
DICTIONARYVAR
  5
BBB8
102
{ACAD_REACTORS
330
5E
102
}
330
5E
100
DictionaryVariables
280
     0
  1
80.000000
  0
DICTIONARYVAR
  5
BBB7
102
{ACAD_REACTORS
330
5E
102
}
330
5E
100
DictionaryVariables
280
     0
  1
5.000000
  0
DICTIONARYVAR
  5
BB67
102
{ACAD_REACTORS
330
5E
102
}
330
5E
100
DictionaryVariables
280
     0
  1
127
  0
DICTIONARYVAR
  5
BBB9
102
{ACAD_REACTORS
330
5E
102
}
330
5E
100
DictionaryVariables
280
     0
  1
2
  0
DICTIONARY
  5
BBFB
330
21C
100
AcDbDictionary
280
     1
281
     1
  3
ACAD_XREC_ROUNDTRIP
360
BBFC
  0
DICTIONARY
  5
BBC0
330
D3
100
AcDbDictionary
280
     1
281
     1
  3
ACAD_XREC_ROUNDTRIP
360
BBC1
  0
DICTIONARY
  5
BBC2
330
D7
100
AcDbDictionary
280
     1
281
     1
  3
ACAD_XREC_ROUNDTRIP
360
BBC3
  0
DICTIONARY
  5
BBBD
330
22
100
AcDbDictionary
280
     1
281
     1
  3
ACAD_XREC_ROUNDTRIP
360
BBBE
  0
DICTIONARY
  5
1F9
330
ED
100
AcDbDictionary
280
     1
281
     1
  3
ACAD_XREC_ROUNDTRIP
360
BBC5
  3
FBXASSET
360
1FA
  0
DICTIONARY
  5
1F7
330
EC
100
AcDbDictionary
280
     1
281
     1
  3
ACAD_XREC_ROUNDTRIP
360
BBC4
  3
FBXASSET
360
1F8
  0
DICTIONARY
  5
173
330
EE
100
AcDbDictionary
280
     1
281
     1
  3
ACAD_XREC_ROUNDTRIP
360
BBC6
  3
BUMPTILE
360
175
  3
DIFFUSETILE
360
174
  3
FBXASSET
360
1FB
  3
OPACITYTILE
360
176
  3
REFLECTIONTILE
360
177
  0
DICTIONARY
  5
BBE7
330
12E
100
AcDbDictionary
280
     1
281
     1
  3
ACAD_XREC_ROUNDTRIP
360
BBE8
  0
DICTIONARY
  5
BBF9
330
21A
100
AcDbDictionary
280
     1
281
     1
  3
ACAD_XREC_ROUNDTRIP
360
BBFA
  0
DICTIONARY
  5
162
330
7F
100
AcDbDictionary
280
     1
281
     1
  3
ACAD_ROUNDTRIP_2008_TABLESTYLE_CELLSTYLEMAP
360
BBBA
  3
ACAD_XREC_ROUNDTRIP
360
BBBF
  0
DICTIONARY
  5
BBD1
330
F5
100
AcDbDictionary
280
     1
281
     1
  3
ACAD_XREC_ROUNDTRIP
360
BBD2
  0
DICTIONARY
  5
BBCF
330
F4
100
AcDbDictionary
280
     1
281
     1
  3
ACAD_XREC_ROUNDTRIP
360
BBD0
  0
DICTIONARY
  5
BBDD
330
FB
100
AcDbDictionary
280
     1
281
     1
  3
ACAD_XREC_ROUNDTRIP
360
BBDE
  0
DICTIONARY
  5
BBE5
330
FF
100
AcDbDictionary
280
     1
281
     1
  3
ACAD_XREC_ROUNDTRIP
360
BBE6
  0
DICTIONARY
  5
BBD7
330
F8
100
AcDbDictionary
280
     1
281
     1
  3
ACAD_XREC_ROUNDTRIP
360
BBD8
  0
DICTIONARY
  5
BBDB
330
FA
100
AcDbDictionary
280
     1
281
     1
  3
ACAD_XREC_ROUNDTRIP
360
BBDC
  0
DICTIONARY
  5
BBED
330
1E6
100
AcDbDictionary
280
     1
281
     1
  3
ACAD_XREC_ROUNDTRIP
360
BBEE
  0
DICTIONARY
  5
BBE3
330
FE
100
AcDbDictionary
280
     1
281
     1
  3
ACAD_XREC_ROUNDTRIP
360
BBE4
  0
DICTIONARY
  5
BBC7
330
F0
100
AcDbDictionary
280
     1
281
     1
  3
ACAD_XREC_ROUNDTRIP
360
BBC8
  0
DICTIONARY
  5
BBC9
330
F1
100
AcDbDictionary
280
     1
281
     1
  3
ACAD_XREC_ROUNDTRIP
360
BBCA
  0
DICTIONARY
  5
BBCB
330
F2
100
AcDbDictionary
280
     1
281
     1
  3
ACAD_XREC_ROUNDTRIP
360
BBCC
  0
DICTIONARY
  5
BBCD
330
F3
100
AcDbDictionary
280
     1
281
     1
  3
ACAD_XREC_ROUNDTRIP
360
BBCE
  0
DICTIONARY
  5
BBD5
330
F7
100
AcDbDictionary
280
     1
281
     1
  3
ACAD_XREC_ROUNDTRIP
360
BBD6
  0
DICTIONARY
  5
BBE9
330
1E4
100
AcDbDictionary
280
     1
281
     1
  3
ACAD_XREC_ROUNDTRIP
360
BBEA
  0
DICTIONARY
  5
BBE1
330
FD
100
AcDbDictionary
280
     1
281
     1
  3
ACAD_XREC_ROUNDTRIP
360
BBE2
  0
DICTIONARY
  5
BBEB
330
1E5
100
AcDbDictionary
280
     1
281
     1
  3
ACAD_XREC_ROUNDTRIP
360
BBEC
  0
DICTIONARY
  5
BBD9
330
F9
100
AcDbDictionary
280
     1
281
     1
  3
ACAD_XREC_ROUNDTRIP
360
BBDA
  0
DICTIONARY
  5
BBF7
330
1F3
100
AcDbDictionary
280
     1
281
     1
  3
ACAD_XREC_ROUNDTRIP
360
BBF8
  0
DICTIONARY
  5
BBF5
330
1F2
100
AcDbDictionary
280
     1
281
     1
  3
ACAD_XREC_ROUNDTRIP
360
BBF6
  0
DICTIONARY
  5
BBEF
330
1EF
100
AcDbDictionary
280
     1
281
     1
  3
ACAD_XREC_ROUNDTRIP
360
BBF0
  0
DICTIONARY
  5
BBF1
330
1F0
100
AcDbDictionary
280
     1
281
     1
  3
ACAD_XREC_ROUNDTRIP
360
BBF2
  0
DICTIONARY
  5
BBDF
330
FC
100
AcDbDictionary
280
     1
281
     1
  3
ACAD_XREC_ROUNDTRIP
360
BBE0
  0
DICTIONARY
  5
BBD3
330
F6
100
AcDbDictionary
280
     1
281
     1
  3
ACAD_XREC_ROUNDTRIP
360
BBD4
  0
DICTIONARY
  5
BBF3
330
1F1
100
AcDbDictionary
280
     1
281
     1
  3
ACAD_XREC_ROUNDTRIP
360
BBF4
  0
XRECORD
  5
BBFC
102
{ACAD_REACTORS
330
BBFB
102
}
330
BBFB
100
AcDbXrecord
280
     1
102
DISPLAYNAME
  1
Metric50
102
FLAGS
 90
        0
  0
XRECORD
  5
BBC1
102
{ACAD_REACTORS
330
BBC0
102
}
330
BBC0
100
AcDbXrecord
280
     1
102
SHADEPLOT
 70
     0
102
SHADEPLOTRESLEVEL
 70
     2
102
SHADEPLOTCUSTOMDPI
 70
   300
  0
XRECORD
  5
BBC3
102
{ACAD_REACTORS
330
BBC2
102
}
330
BBC2
100
AcDbXrecord
280
     1
102
SHADEPLOT
 70
     0
102
SHADEPLOTRESLEVEL
 70
     2
102
SHADEPLOTCUSTOMDPI
 70
   300
  0
XRECORD
  5
BBBE
102
{ACAD_REACTORS
330
BBBD
102
}
330
BBBD
100
AcDbXrecord
280
     1
102
SHADEPLOT
 70
     0
102
SHADEPLOTRESLEVEL
 70
     2
102
SHADEPLOTCUSTOMDPI
 70
   300
  0
XRECORD
  5
BBC5
102
{ACAD_REACTORS
330
1F9
102
}
330
1F9
100
AcDbXrecord
280
     1
102
MATERIAL
148
0.0
149
0.0
149
0.0
 93
        0
 94
       63
282
     0
 72
     1
 77
     1
171
     1
175
     1
179
     1
273
     0
  0
XRECORD
  5
1FA
102
{ACAD_REACTORS
330
1F9
102
}
330
1F9
100
AcDbXrecord
280
     1
 70
     1
 90
429727718
  1
D62C5603-E3A1-4AEA-B7FB-FE5D8D0755AF
310
504B03040A0000080000CC70623B3DEE336E79000000790000001B0000006175746F6465736B2D64657369676E2D7061636B6167652E786D6C3C3F786D6C2076657273696F6E3D22312E302220656E636F64696E673D227574662D3822203F3E3C666F726D6174733E3C666F726D61743E687474703A2F2F736368656D612E
310
6175746F6465736B2E636F6D2F64657369676E2D7061636B6167652F323030393C2F666F726D61743E3C2F666F726D6174733E504B0304140006080800CC70623BD486FD9CA0000000F4000000130000005B436F6E74656E745F54797065735D2E786D6C7D8EC10E82300C865F65E91D8A1E8C310C0EEA1BF002731658846E
310
D98AC1B77784ABF1D8FE5FBFBF75BBCE937A534CCEB38643598122B6FEE978D0B0485F9C41B54DDD7D022595594E1A469170414C76A4D9A4D207E29CF43ECE46F218070CC6BECC4078ACAA135ACF422C856C0E68EA1BF5669944DDD7BCDE7B1F8E415D77AECB980613C2E4AC91FC167A2B244592486606FC29C8FD7F045B9A
310
EF7053A7E60B504B0304140006080800CC70623B853B8169EB0000007C01000008000000636F72652E786D6C8D90416EC3201045AF62CDB6C206821CC7C244919D9CA01740401C94182C03558F5F9C3852BBEB6A467FFE9B197D7EFC9E1EC5975982F5AE035262288C535E5B377690E21535501C055FBC8FBF6C503839990E
310
5619041F179FE64D52DE45E362569DD7661365082642A11EB9E920A89B99642953CC8E702F67A9EE7234257977194EC9EAE275C4EABCCF5EAD5940D4AC6F0E35A568B8F43562CD7046CD199FD07E60174276A7BE677B5EADB0E0D14EEFFB6A31321A0D82627C4084204C3F096B71DD52F6819B16635EADF63F509AF53FA164
310
5DDCD1EDDD17164090FCC8732078B56691CB33A85CD7DCC40F504B0304140006080800CC70623B55019EA25F0000007C00000007000000636E782E786D6C4DCB3B0E80201045D1AD90E915ED2CF8AC45050C11660C8261F98AB1B07AC9C97D42D718D865D3E909258CFD00CCE24AC6E326A164D74DC0B4128928FF32603847
310
2BA13128B1252AC747C6BAB984FC68F0B87FE8960A5C09FE86CFB69FBA01504B0304140006080800CC70623BDBABAAF470010000D40300000C0000006662782F636F72652E786D6CC553D16E823014FD95A6AF4B694182CC941A83FA05FB810A9511A125A5257EFE2E82712ECEB8A7F100CD39F7F69E734AF9FADC366850B6
310
AF8DCE7018308C942E4C59EB2AC3DE1D498AD15A706B8CFB56869196ADCAF00863C12B6B7C374385D14E6907A836A59A41D9F7CA615434B0C8705F7CAA5606D23BA8E84F41278B93AC54100640439DE0BDB320004D43C63716C7C399D30917DCFBBA9CD9BA8469F5B156168B24CED3F7248AC8769F27244EB73B92EED8862C
310
B7F13E0C179B3C8F979C8ECD82BBBABDAA2BAC924E9558448CBD9330242CFA08E3154B5651FCC6D215639C8EE5774DBE2B5F6CF2B5768B68963BB5F5588420E442FC700B1139D4CB01F450C1E918227C2E09DF070D8140C84E1E9AAB8F1340832A9CB13130A5F1376A908D57309505ECF2A0DF179C4E9D30F5B239B87E3823
310
7A79C6F31DE1A8A5AEC08474B03C7837EAE4938639B44E5932B833D2C6B6B279CDC613877FA26EE21F4A2A4C63EC7F29A2F301D1F9F7A0E37D145F504B0304140006080800CC70623B9C113CC27E0000009D0000000B0000006662782F636E782E786D6C4DCCDF0A83201C86E15B91DFB94BFB330DD428C8FB886521330DA7
310
6397BF1A1DECE883878F57749FCDA1B7892F1BBC047A23808C7F84D9FA55424E0BE6803A256208E9EF06C84F9B91703228B1C690F78B66B34CD9A5439DF5CF0BFBF65E35BCA1B8D6A5C6F540381E886698B5741C695F9503EBA150A2F8958E3DC3EA0B504B0304140006080800CC70623B7DF2F77C2A010000120200003100
310
00006662782F41393633353835312D344632462D344230382D423046372D3739314545314133324237412F636F72652E786D6C8D51DB8EC22014FC15C2939B0D2DB4B45643319AE817EC0F6041255A68B86CFCFC856D4D76DF7CE190393373060EDB3DC707F856CE6B6B7A480A0C81328395DA5C7B18C3057510EC3873D686
310
3F34088C18550F330C39BB3A1BA7051AAC09CA84841A2BD5020AEF55806078A44B0FFD7053A328440C89E1EFC52486BBB8AA8214A99D789CF9E05200300FC927E4FB4D5B375D43103D5527440FB843077C5AA3F5861C8F645F5787F59E95B390B318B55CE45AA638FAA2957BD7248B390B7A7CC51F9C124149C82B8C378810
310
84AB2F42B7B8DD56F413775B8C5999E9FF4471926F8AA236A1AE96B8B3CC434E5839373893369E1FAF30EA395917409EB7F26AF8801C171837A4A6AC9C89E9F9C9B1A58BA30FD6A5EF5DDDCF894B9AD9B6A59C957943A9FCAE2FD5BC4DFE03504B0304140006080800CC70623BAD7543B64E01000033030000300000006662
310
782F41393633353835312D344632462D344230382D423046372D3739314545314133324237412F636E782E786D6CD593CD6EC32010845F0571AD6CE3D48AD20813A9873E410FBD12D82434182C7EAAE6EDBB2424CD25871E7B41D6EC30B3FA84F9E67BB2E40B4234DE8DB46F1925E094D7C6ED479AD3AE5951B2113C789FEE
310
6C943839C1488B4C05DF079FE72A69D8C96C13AAD6B8631503449F83828872B949AC57D26200B826A308D316B4064D6E46FCDA41C05550DC9E483A00797BFD207EFB092A45DE9514C1BBD22178396BD39D891265658C238DEA00936C654E5E433CB65A26D9F6EDB5EBC14EBF49A45CB856E66048291F6939A9A81BB5C89177
310
38143CA680F4AA299D66A042CEB3354A2684DC9D8D178FE0D9B8B41CAAD720F880EE7EF93C0C18769E099ECC04D5A102C8049A8A05632F4DDF376CF1DE0F6BB65C2F8627B65A33C6BB62177CEBBDAD973006829F89F22E814B54F4BC2BE347F8AA8F681390B50FA73F804400B5F542E796F19FF974E7F78DB802FE05E20750
310
4B0304140006080800CC70623BE75B7789680500003C100000340000006662782F41393633353835312D344632462D344230382D423046372D3739314545314133324237412F6F626A656374732E786D6CAD575B8F9B3818FD2B887D06C22499CB8AA1CA655245D5B455A356FB305264C061D8018C6C3393D95FBFC7600890
310
A4CD5EF210B0B1BFEBF98E3F7B1FF6596ABC522E1296DF9BAE3D320D9A872C4AF2F8DE2CE5CEBA358D0FBEC719939D65A691938CDE9B6ADAF4BD98B3B2D05311DD91329583D9D5FC0F438434A7A611A644887B5384CF34233629258BA878B12322891DEFF6B66BD70BFB62634E8AE781D082709A4B588AF91C528CDA28B73F
310
1C998EEF39EABBEFA97FBD6A7C7E9553F9D3D79FE442923C3C523610337627CB87ABE99D359D4CC6D6E4FACAB5E6ABF9D2726FC6A3C5F56271377BB88362213924694B38DD99FE47C48627A1E7D49F5A8BB5E1A74C0A599ED3B0F21F1E56366B89112D681E218F0915D0D6F17AD41FBA2A369DCF6335D62ABBD39779D5DDD1
310
11D4D8DE3CBB96B2E04FB8202E41051754A1AA8E8F76B4C6DFE810B580B1547F4B84911149794252234D024EF8BBE963A95AE27B3D310A9D5C215C7960FAEE415ED75694C6AFB17BCACA5D99A60A9AA65F217B0BFC53292ACB92BF283FAD0D3621576592CB5BED907C2FA8E9DF794E35E97BEA31BED21FEB401ABB94C44839
310
DCACBF0E1C5DA8DA5B2F4DFFD32AD86F543D9E565E7056502E157C00AD2671CD534549AB752FCA9CDA00677A313F04E51B22FF19E57B300579E3C97EB29F682D92935CEC18CF901B7B54FD8C51F362B56FC72FE0B3C1EAE335EDCCBF5AEC39ADB17DC238973F804BA5E6F6BFE7AF1FB32E523BE9F3BD571418E3631DCA4D48
310
5250CF639223210A9446CA30052EDF057BD35F8329C1ECD84552BF0DC8D18BE7BCE23BFE6BD960AB4A7DE79923A103BEBD80F911CBAA2C60DB19B01CF164A5583B772EE6D3FFA56666CBCDA74DC97724A48F9A58967497E489C4D979006FD7A05E227A1EBDD0F737C623387A9C844D3709995625106D157315F8B8392CD4E0
310
A0B9A720C4BE9829CEF37EA1E13111214D53925356365ADA634861B52519DD27A00AEB808EAF0628E6F435519D446F45CF2C9CF5214F0A15B2F6D06B79DA3EE3CBF7F56780D2F4E7EF73A0F5E5B02A38D07DC852C6B7C1FBB6664213E0C39E3EBA7FF4E1AD23EA2829407C85E586727488B751B2DB9502BC7B228A3FD68B6E
310
A65A22397E690AA8D158D7E404EC8CDA235CC3B7D1898680131CEC2CDF2638C65196279577750F15884AEE19F94199155B92B13297978469D4F8D358DF0AEF7631E28DC8F0D9F437D5D39A83B2231A1D52D543813A824EF8D44BCFF2FA6A31BD1E8DAD87F1CCB526B3879935BF59CDADD5C37479BB1CDD4CA7B3556B516589
310
EF352754B706114D9C885EC9131DE6EFEB43D99AFE2391C2F958179413D7CFEF6B1B6DB1E7600F00DE6E5C67454A339A4BA2E0FBA85ED26F045D454F463DBFCE484C2F90F2E5E3666003662ED8F755951A7D1BECD5B30B550B2785C8E7320B7292A4838DDA71BBC863ED7613CAF659337A3354231D4FF4A182A54904C2898C
310
98B28C4AD0CE056CCF332A80986E571EE9DBC305BB5FEB7E509220A58D25CF042D712A806AC0AD0C657FDEF80D2D9CEAA2EE4D1C76F60BFE74219A06527D6F82DF6412526107381E55E353090704D085B52408A8913C4ED159D79BDA71BB4BC506F4831350EB6F975CD22D69BF7AC49B91A2C0A9DDA3D5CA36AD20FC478E37
310
E61844E2352865EBCB61A275A65283CAAA9DD27703B4102F5AF51EF5F573B75CBB5AD38BC845F7A49F82A0966A49C2E3EA5EA0ECD326CD965F1DB402C6FA8B51A4658C5C5E2EC9E214602E55810345408596591009A82E7E7FFACA19EEA299B14A0081A705CB3296EBC14CDF658DCD336EA6D1136881AAEB87B81AB9EE53D5
310
F5EB8BC8362082DA24122F98680A4E7930C01A0079749CEA14382A0783E5EBA5A10F8C098456A03D6A4AEB6BB881E2513747552A5DB22C7EDAF83BD5528081A365F7FF06504B0304140006080000CC70623B000000000000000000000000350000006662782F41393633353835312D344632462D344230382D423046372D37
310
39314545314133324237412F76657274696365732E62696E504B0304140006080800CC70623BF270F1330600000004000000360000006662782F41393633353835312D344632462D344230382D423046372D3739314545314133324237412F747269616E676C65732E62696E636660600000504B0304140006080000CC7062
310
3B000000000000000000000000370000006662782F41393633353835312D344632462D344230382D423046372D3739314545314133324237412F617474726962757465732E62696E504B0304140006080800CC70623B08DA0BD19000000041010000360000006662782F41393633353835312D344632462D344230382D4230
310
46372D3739314545314133324237412F6469726563746F72792E786D6C858F410AC3201045AF22B36F53E9A60B35CBEEBAE80D244E44489C6234F4F835464A48035D0DF398FF9F8AF63D0E6CC63039F212F8F9020C7D47C6792B21C5FE7403D62A1188E2E60C98D7234A5830286103A55745067B9D86B8A3CF9C7F90C11DE6
310
07FB144396D7B6A82D282E9A152AD114D5EF2CB866EEE831B8EEA07A7BB5A8D7D61A2BAAEB7FD5F70921FF497D00504B0304140006080800CC70623BEDD1DC58FD000000A00100003B0000006662782F41393633353835312D344632462D344230382D423046372D3739314545314133324237412F7265736F75726365732F
310
636F72652E786D6C8D504B6E833010BD0A9A6D65B00922041947112427E8052C33A156828DFCA97AFC9A40A576D7CDCCE87D344F8F9FBFE667F689CE6B6B3A6039850C8DB2A336530731DC4903D95970676DF82583CCC8193B5861107C72362E3BA4AC096842428D1D7107A5F7182053CF7474E0D507CE32973124857FE48B
310
540F3961CEF244279DE03EB81420DB9EAC1384436FA353E879B1B182C7A8C75DA3C7F453DF353A1075D537A7BA6464B8F535A99AE14A9A2BBD90E350DD183B5CFABE3AF262350B1EF4FC9351399401471025A527C218A1E53BAB5A5AB765F5469B96525EACF23FA6B88CFF34456DC2A1DCE36E360F82A5202F42F062ED2BAD
310
579969AFDD8A6F504B010214000A0000080000CC70623B3DEE336E79000000790000001B00000000000000000000000000000000006175746F6465736B2D64657369676E2D7061636B6167652E786D6C504B01021400140006080800CC70623BD486FD9CA0000000F40000001300000000000000000000000000B20000005B
310
436F6E74656E745F54797065735D2E786D6C504B01021400140006080800CC70623B853B8169EB0000007C010000080000000000000000000000000083010000636F72652E786D6C504B01021400140006080800CC70623B55019EA25F0000007C000000070000000000000000000000000094020000636E782E786D6C504B
310
01021400140006080800CC70623BDBABAAF470010000D40300000C00000000000000000000000000180300006662782F636F72652E786D6C504B01021400140006080800CC70623B9C113CC27E0000009D0000000B00000000000000000000000000B20400006662782F636E782E786D6C504B01021400140006080800CC70
310
623B7DF2F77C2A010000120200003100000000000000000000000000590500006662782F41393633353835312D344632462D344230382D423046372D3739314545314133324237412F636F72652E786D6C504B01021400140006080800CC70623BAD7543B64E010000330300003000000000000000000000000000D2060000
310
6662782F41393633353835312D344632462D344230382D423046372D3739314545314133324237412F636E782E786D6C504B01021400140006080800CC70623BE75B7789680500003C10000034000000000000000000000000006E0800006662782F41393633353835312D344632462D344230382D423046372D3739314545
310
314133324237412F6F626A656374732E786D6C504B01021400140006080000CC70623B0000000000000000000000003500000000000000000000000000280E00006662782F41393633353835312D344632462D344230382D423046372D3739314545314133324237412F76657274696365732E62696E504B01021400140006
310
080800CC70623BF270F133060000000400000036000000000000000000000000007B0E00006662782F41393633353835312D344632462D344230382D423046372D3739314545314133324237412F747269616E676C65732E62696E504B01021400140006080000CC70623B0000000000000000000000003700000000000000
310
000000000000D50E00006662782F41393633353835312D344632462D344230382D423046372D3739314545314133324237412F617474726962757465732E62696E504B01021400140006080800CC70623B08DA0BD1900000004101000036000000000000000000000000002A0F00006662782F41393633353835312D344632
310
462D344230382D423046372D3739314545314133324237412F6469726563746F72792E786D6C504B01021400140006080800CC70623BEDD1DC58FD000000A00100003B000000000000000000000000000E1000006662782F41393633353835312D344632462D344230382D423046372D3739314545314133324237412F7265
310
736F75726365732F636F72652E786D6C504B0506000000000E000E0080040000641100000000
  0
XRECORD
  5
BBC4
102
{ACAD_REACTORS
330
1F7
102
}
330
1F7
100
AcDbXrecord
280
     1
102
MATERIAL
148
0.0
149
0.0
149
0.0
 93
        0
 94
       63
282
     0
 72
     1
 77
     1
171
     1
175
     1
179
     1
273
     0
  0
XRECORD
  5
1F8
102
{ACAD_REACTORS
330
1F7
102
}
330
1F7
100
AcDbXrecord
280
     1
 70
     1
 90
429727718
  1
30362254-06B7-45E0-A893-8CFA70E3D6BC
310
504B03040A0000080000CC70623B3DEE336E79000000790000001B0000006175746F6465736B2D64657369676E2D7061636B6167652E786D6C3C3F786D6C2076657273696F6E3D22312E302220656E636F64696E673D227574662D3822203F3E3C666F726D6174733E3C666F726D61743E687474703A2F2F736368656D612E
310
6175746F6465736B2E636F6D2F64657369676E2D7061636B6167652F323030393C2F666F726D61743E3C2F666F726D6174733E504B0304140006080800CC70623BD486FD9CA0000000F4000000130000005B436F6E74656E745F54797065735D2E786D6C7D8EC10E82300C865F65E91D8A1E8C310C0EEA1BF002731658846E
310
D98AC1B77784ABF1D8FE5FBFBF75BBCE937A534CCEB38643598122B6FEE978D0B0485F9C41B54DDD7D022595594E1A469170414C76A4D9A4D207E29CF43ECE46F218070CC6BECC4078ACAA135ACF422C856C0E68EA1BF5669944DDD7BCDE7B1F8E415D77AECB980613C2E4AC91FC167A2B244592486606FC29C8FD7F045B9A
310
EF7053A7E60B504B0304140006080800CC70623B1EC5D7A3EB0000007C01000008000000636F72652E786D6C8D90416EC3201045AF82665B6103C6756C6122AB4D4ED00B204C5C94182C03558F5F9C3852BBEB6A467FFE9B197D71FC9E6FE8CBACC17AD7032D0820E3B41FAD9B7A48F1820F808E52ACDEC75F36404ECDA687
310
4D0629A6D5A76597B477D1B89855E747B38B2A041301E95B6E7A08FAD3CCAA50296647B8168BD2573599823EBB0CA76447F43862C7BCCF5EAC59410E4DDD9C7973C2755553CCCFA4C603E3040F1565ED3B1FDE4E432BCA0D9622DAF9795FAF464533826484B498524CD807E51D79ED187F21878E10516EF63F505AC67F42C9
310
BA58B1FDDD071640D2FCC87D2045B96591CB3DA85CB7DCE40F504B0304140006080800CC70623B55019EA25F0000007C00000007000000636E782E786D6C4DCB3B0E80201045D1AD90E915ED2CF8AC45050C11660C8261F98AB1B07AC9C97D42D718D865D3E909258CFD00CCE24AC6E326A164D74DC0B4128928FF32603847
310
2BA13128B1252AC747C6BAB984FC68F0B87FE8960A5C09FE86CFB69FBA01504B0304140006080800CC70623B8C9102E971010000D40300000C0000006662782F636F72652E786D6CC5535B6E833010BC8AE5DF0A6C08340F1947A84D4ED00B38C6A128602363A31CBFCB234A53A551FA553EC09AD9F5CE8C31DB9E9B1AF5CA
310
7695D1198E428A91D2D214952E33ECDD315861B4E5CC1AE3BE9561A445A3323CC098B3D21ADFCE9034DA29ED00D5A6503328BA4E398C640D8B0C77F253352214DE4145770A5B214FA2546114020D759C75CE8200340D19DE981F0F6746269C33EFAB6266AB02A655C74A59CCF365BADC27CB5D902ED22848F6340DF238A141
310
BE88E2F57B92BFEDF23523433367AE6A2EEAA455C2A902F398D2751045018D3FA264435F3771F242571B4A1919CA6F9A7C5B3CD9E42BED16F12C776AEB308F40C848FC700B1139D4891EF410CEC810227CC6846F8386402064270EF5C5C709A05E49676C024C61FC95EA45ED154CA5211D1FF4FB8291A913A68E9B83EBBB33
310
E2A7673CDE118E5AE8124C0807CB8377834E366998436B950D7A7746DAD846D4CFD978E0F04FD455FC5D49D2D4C6FE9722321F10997F0F32DC47FE05504B0304140006080800CC70623BFFEA85907E0000009D0000000B0000006662782F636E782E786D6C4DCCD10A83201886E15B91FFDC95D95A811AB6F23E625948A6C3
310
E9D8E5AF46073BFAE0E1E365ED67B3E8ADC3CB78C7815C7240DA3DFC64DCC221C519D7805AC182F7F1EF06C88D9BE6703008B6049F9E274D7A1E938DBB5AE3D6131B2589BA0D3D965551E0B2EA732C9B9A624AAEB41E3A557677029960D9AFB4EF11165F504B0304140006080800CC70623B4FEEA4082C0100001202000031
310
0000006662782F39464131463745442D413632322D343644302D413938332D3331353338454246344243312F636F72652E786D6C8D515B6EC32010BC0AE2AB55850DD871ED0813254D72825EC00192A2C460F1A872FC42ED48ED5F7E00CDCECCCEB26C731F6FE05B39AFADE921293004CA082BB5B9F43086336A21D870E6AC
310
0D7F68109861543DCC30E4ECE26C9C164858139409093556AA051CBC570102714B8F1E7AF1A5C6A11862480C7F2DA6415C878B2A4891CA89C7990F2E050073937C42DE1DB7E4F87ED8A36D4329AA9B3D46DBAEAD504556557BD81DEBDD0761E52CE42C462D17B996298E3E6BE59E35C962CE821E1FF18553435012728A7187
310
0841987E927A8D9B35ADDF70BBC6989599FE4F1427F9A4286A132ABAC49D651EF234CD5CE04CDA78BA3DC2A8FB645D00B9DF8B57E215725C60BCA2A463E54C4CE327C7A65E1C7DB02E7DEFCBF594B864C5CA6CDBD49C957943E9FA5D5FBAF336F90F504B0304140006080800CC70623BAD7543B64E01000033030000300000
310
006662782F39464131463745442D413632322D343644302D413938332D3331353338454246344243312F636E782E786D6CD593CD6EC32010845F0571AD6CE3D48AD20813A9873E410FBD12D82434182C7EAAE6EDBB2424CD25871E7B41D6EC30B3FA84F9E67BB2E40B4234DE8DB46F1925E094D7C6ED479AD3AE5951B2113C
310
789FEE6C943839C1488B4C05DF079FE72A69D8C96C13AAD6B8631503449F83828872B949AC57D26200B826A308D316B4064D6E46FCDA41C05550DC9E483A00797BFD207EFB092A45DE9514C1BBD22178396BD39D891265658C238DEA00936C654E5E433CB65A26D9F6EDB5EBC14EBF49A45CB856E66048291F6939A9A81BB5
310
C8917738143CA680F4AA299D66A042CEB3354A2684DC9D8D178FE0D9B8B41CAAD720F880EE7EF93C0C18769E099ECC04D5A102C8049A8A05632F4DDF376CF1DE0F6BB65C2F8627B65A33C6BB62177CEBBDAD973006829F89F22E814B54F4BC2BE347F8AA8F681390B50FA73F804400B5F542E796F19FF974E7F78DB802FE05
310
E207504B0304140006080800CC70623B16AB87BA640500003C100000340000006662782F39464131463745442D413632322D343644302D413938332D3331353338454246344243312F6F626A656374732E786D6CAD575B6FA33818FD2B887DE6924B3BED8A326A92B68A663B534DD4D13E548A0C38942D60649B369D5FBFC7
310
600890A493BDE42160637FD7F31D7FF63E6FB3D478A55C242CBF3247B66B1A340F5994E4F19559CA8D75611A9F7D8F33263BCB4C232719BD32D5B4E97B316765A1A722BA21652A07B3B7B33F0D11D29C9A46981221AE4C113ED38CD8A4942CA2E2C58E882476BCD9DA23BB5ED8171B73523C0F841684D35CC252CCE79062D4
310
468DFA43D7747CCF51DF7D4FFDEB5593E3AB9CCA9FBEFE241792E4E19EB28198C968BAB8199F5D5A67D3E9C49A9E8F47D6EC76B6B0469F26EEFC7C3EBFBCBEB98462213924694B38DD98FE1D62C393D073EA4FADC5DAF04326852CCF6958F90F0F2B9BB5C48816348F90C7840A68EB78EDF68723159BCEE7891A6B95DDE9D3
310
BCEAEEE8086A6C6F9E5D4B59F0175C10A7A0820BAA5055C7473B5AE3CFDD452D602CD5DF12616444529E90D448938013FE6EFA58AA96F85E4F8C42275708571E98FE6827AF6B2B4AE3D7D83D64E5A64C53054DD3AF90BD06FEA9149565C94FCA0F6B834DC85599E4F2423B24DF0B6AFA979E534DFA9E7A4CC6FA631D486393
310
921829879BF5D781A373557BCB85E97FB90DB62B558F8795179C15944B051F40AB495CF35451D26A4727654E6D8033BD98EF82F21D91FF8AF2DD9982BCF1643BDD4EB516C9492E368C67C88DED563FC36D5EACF66DFF057C3658BDBFA69DF9578B3DA735B64F18C7F20770A9D45CFCF7FCF563D6456A277DBEF78A02637CA2
310
43B90A490AEAB94F72244481D24819A6C0E59B606BFA4B3025981DBB48EAB701D97BF19C577CC77F2D1B6C55A9EF3C732474C0B727303F625995056C3B02963D9EAC146BE78EC5FCEC7FA999EBC5EACBAAE41B12D27B4D2C0BBA49F244E2ECDC81B76B502F113D8F5EE8FB1BE3111CDD4FC2AA9B844CAB1288B68AB90A7CDC
310
1C166AB0D3DC5310625FCC14E779BFD0709F8890A629C9292B1B2DED31A4B0DA928CEE135085754027E3018A397D4D5427D15BD1330B677DC8934285AC3DF45A9EB68FF8F2B8FC0A509AFEECFD0FF2DE25CC6047F7214B195F07EFEB9A094D800F7BFAE8FED187B78EA8A3A400F115961BCAD1215E47C966530AF0EE8128FE
310
58CEBB996A8964FFA529A046635D9353B0336A8F700DDF46271A024E70B0B37C9DE01847591E54DED53D54202AB947E4076556AC49C6CA5C9E1226B7F1A7B1BE15DEED62C41B91E1B3E9AFAAA735036547343A925075041DF0A9979E893B391F8FCFA6967B3EFB644DCF6E5CEBFAE272625DCC6FAF3FB93793C5F90CE1EF57
310
407342756B10D1C489E8953CD1617E5CEECAD6F4EF8914CE5D5D504E5C3F1F9736DA62CFC11E00BCDDB8CC8A9466349744C1F75EBDA4DF09BA8A9E8C7A7E9991989E20E5DBDD6A6003664ED8F7A04A8DBE0DF6EAD9B9AA858342E47399053949D2C146EDB85DE4B176BB0965FBAC19BD19AA918E27FA50C1D22402E144464C
310
59462568E704B6E71915404CB72B8FF4EDE184DDAF753F284990D2C6926782963815403548A70C657FDEF80D2D9CEAA2AE4C1C76F60BFE74219A06527D6582DF6412526107381E55E353090704D085B52408D0933C4ED159D79BDA71BB4BC506F4831350EB6F979CD22D69BF7AC49B91A2C0A9DDA3D5CA36AD20FC478E37E6
310
1844E2352865EBCB6EA275A652E3836BE04EFB400BF1A2556F515F1FBB35B2AB35BD889C744FFA1004B5544B121E57F70215746DD2F5E2C1412B602CBF19455AC6C8E5E9922C4E01E65215385004546899059180EAFCF7A707CE7017CD8CDB0410789AB32C63B91E5CEBBBACB17AC6CD347A022D5075FD106377347AAABA7E
310
7D11590744509B44E205134DC1290F06580320F78E537D3D73540E06CB970B431F185308AD40BBD794D6D77003C5A36E8EAA54BA64597CD8F83BD552A080A365F7FF06504B0304140006080000CC70623B000000000000000000000000350000006662782F39464131463745442D413632322D343644302D413938332D3331
310
353338454246344243312F76657274696365732E62696E504B0304140006080800CC70623BF270F1330600000004000000360000006662782F39464131463745442D413632322D343644302D413938332D3331353338454246344243312F747269616E676C65732E62696E636660600000504B0304140006080000CC70623B
310
000000000000000000000000370000006662782F39464131463745442D413632322D343644302D413938332D3331353338454246344243312F617474726962757465732E62696E504B0304140006080800CC70623B08DA0BD19000000041010000360000006662782F39464131463745442D413632322D343644302D413938
310
332D3331353338454246344243312F6469726563746F72792E786D6C858F410AC3201045AF22B36F53E9A60B35CBEEBAE80D244E44489C6234F4F835464A48035D0DF398FF9F8AF63D0E6CC63039F212F8F9020C7D47C6792B21C5FE7403D62A1188E2E60C98D7234A5830286103A55745067B9D86B8A3CF9C7F90C11DE607
310
FB144396D7B6A82D282E9A152AD114D5EF2CB866EEE831B8EEA07A7BB5A8D7D61A2BAAEB7FD5F70921FF497D00504B0304140006080800CC70623B0D6EF93BFE000000A00100003B0000006662782F39464131463745442D413632322D343644302D413938332D3331353338454246344243312F7265736F75726365732F63
310
6F72652E786D6C8D50596E833010BD0A9ADFCA60B334011947A8694ED00B586642AC041B79A97AFC9A40A5F6AF3F33A3B7689E1E3F7DCD8FEC139DD7D6F4C0720A191A65476DA61E62B892236427C19DB5E1970C322367EC618541F0C9D9B8EC90B226A009093576C41D94DE63804C3DD2D18357379C652E63480A7FCF17A9
310
EE72C29CE5894E3AC17D702940B63D59270887DE46A7D0F36263058F518FBB468FE9A7BE6A7420864373B8D4873369AA8691FA421B3294352543C5CAF65C0F6FEF43CB8BD52C78D0F34F46E550061C419494B6843142CB0F5677F4B52BEB177AEC28E5C52AFF638ACBF84F53D42654E51E77B379102C05791282176B5F693D
310
CB4C7BED567C03504B010214000A0000080000CC70623B3DEE336E79000000790000001B00000000000000000000000000000000006175746F6465736B2D64657369676E2D7061636B6167652E786D6C504B01021400140006080800CC70623BD486FD9CA0000000F40000001300000000000000000000000000B20000005B
310
436F6E74656E745F54797065735D2E786D6C504B01021400140006080800CC70623B1EC5D7A3EB0000007C010000080000000000000000000000000083010000636F72652E786D6C504B01021400140006080800CC70623B55019EA25F0000007C000000070000000000000000000000000094020000636E782E786D6C504B
310
01021400140006080800CC70623B8C9102E971010000D40300000C00000000000000000000000000180300006662782F636F72652E786D6C504B01021400140006080800CC70623BFFEA85907E0000009D0000000B00000000000000000000000000B30400006662782F636E782E786D6C504B01021400140006080800CC70
310
623B4FEEA4082C0100001202000031000000000000000000000000005A0500006662782F39464131463745442D413632322D343644302D413938332D3331353338454246344243312F636F72652E786D6C504B01021400140006080800CC70623BAD7543B64E010000330300003000000000000000000000000000D5060000
310
6662782F39464131463745442D413632322D343644302D413938332D3331353338454246344243312F636E782E786D6C504B01021400140006080800CC70623B16AB87BA640500003C1000003400000000000000000000000000710800006662782F39464131463745442D413632322D343644302D413938332D3331353338
310
454246344243312F6F626A656374732E786D6C504B01021400140006080000CC70623B0000000000000000000000003500000000000000000000000000270E00006662782F39464131463745442D413632322D343644302D413938332D3331353338454246344243312F76657274696365732E62696E504B01021400140006
310
080800CC70623BF270F133060000000400000036000000000000000000000000007A0E00006662782F39464131463745442D413632322D343644302D413938332D3331353338454246344243312F747269616E676C65732E62696E504B01021400140006080000CC70623B0000000000000000000000003700000000000000
310
000000000000D40E00006662782F39464131463745442D413632322D343644302D413938332D3331353338454246344243312F617474726962757465732E62696E504B01021400140006080800CC70623B08DA0BD190000000410100003600000000000000000000000000290F00006662782F39464131463745442D413632
310
322D343644302D413938332D3331353338454246344243312F6469726563746F72792E786D6C504B01021400140006080800CC70623B0D6EF93BFE000000A00100003B000000000000000000000000000D1000006662782F39464131463745442D413632322D343644302D413938332D3331353338454246344243312F7265
310
736F75726365732F636F72652E786D6C504B0506000000000E000E0080040000641100000000
  0
XRECORD
  5
BBC6
102
{ACAD_REACTORS
330
173
102
}
330
173
100
AcDbXrecord
280
     1
102
MATERIAL
148
0.0
149
0.0
149
0.0
 93
        0
 94
       63
282
     0
 72
     1
 77
     1
171
     1
175
     1
179
     1
273
     0
  0
XRECORD
  5
175
102
{ACAD_REACTORS
330
173
102
}
330
173
100
AcDbXrecord
280
     1
270
     1
271
     1
  0
XRECORD
  5
174
102
{ACAD_REACTORS
330
173
102
}
330
173
100
AcDbXrecord
280
     1
270
     1
271
     1
  0
XRECORD
  5
1FB
102
{ACAD_REACTORS
330
173
102
}
330
173
100
AcDbXrecord
280
     1
 70
     0
 90
1673772943
  1
ECE7A1D2-D628-4531-984C-D00F80459256
310
504B03040A0000080000CC70623B3DEE336E79000000790000001B0000006175746F6465736B2D64657369676E2D7061636B6167652E786D6C3C3F786D6C2076657273696F6E3D22312E302220656E636F64696E673D227574662D3822203F3E3C666F726D6174733E3C666F726D61743E687474703A2F2F736368656D612E
310
6175746F6465736B2E636F6D2F64657369676E2D7061636B6167652F323030393C2F666F726D61743E3C2F666F726D6174733E504B0304140006080800CC70623BD486FD9CA0000000F4000000130000005B436F6E74656E745F54797065735D2E786D6C7D8EC10E82300C865F65E91D8A1E8C310C0EEA1BF002731658846E
310
D98AC1B77784ABF1D8FE5FBFBF75BBCE937A534CCEB38643598122B6FEE978D0B0485F9C41B54DDD7D022595594E1A469170414C76A4D9A4D207E29CF43ECE46F218070CC6BECC4078ACAA135ACF422C856C0E68EA1BF5669944DDD7BCDE7B1F8E415D77AECB980613C2E4AC91FC167A2B244592486606FC29C8FD7F045B9A
310
EF7053A7E60B504B0304140006080800CC70623BD9DDAED0EC0000007C01000008000000636F72652E786D6C8D90416EC3201045AF82665B61836D9CD8C2444DD39CA01740405C94182C03558F5F9C3852BBEB6A467FFE9B197D7EF89E6EE8CB2CC17A37002D0820E394D7D68D03A478C17B4007C117EFE32F1B20272733C0
310
2A83E0E3E2D3BC49CABB685CCCAAF3DA6CA20CC14440EA969B0182FA34932C648AD911AEC52CD5558EA6A0CF2EC329598D1E47ACCEFBECC59A050463A7EA5833865FEBDD0E37353BE3EE8DBDE3F6786A48D375FBF6CC78B9C282473B3DEFABC5C86834888A900E538A49F5419B9EB47DD5BC907D4F082F57FB1F28CDFA9F50
310
B22ED6D5F6EE030B20687EE43E10BC5CB3C8E51E54AE6B6EE207504B0304140006080800CC70623B55019EA25F0000007C00000007000000636E782E786D6C4DCB3B0E80201045D1AD90E915ED2CF8AC45050C11660C8261F98AB1B07AC9C97D42D718D865D3E909258CFD00CCE24AC6E326A164D74DC0B4128928FF326038
310
472BA13128B1252AC747C6BAB984FC68F0B87FE8960A5C09FE86CFB69FBA01504B0304140006080800CC70623BA24EB22D72010000D40300000C0000006662782F636F72652E786D6CC5535B6E833010BC8AE5DF0A6C5E49888CA3A6694ED00B38E05014B091B1518EDFE511A5A9D228FD2A1F60CDEC7A67C6986DCE4D8D7A
310
69BA4AAB0C073EC548AA5C17952A33ECECD15B61B4E1CC686DBF9561A44423333CC098B3D268D7CE50AE9595CA02AA74216750749DB418E5352C32DCE59FB211BE70162ABA93DF8AFC244AE9073ED050C759670D0840D390E18DF9F1706664C23973AE2A66B62A605A75ACA4C13C4976E1364A12EF355A2EBD384AF65EFA96
310
BC7B8BED2EA6719AAE16FB8491A199335B351775B991C2CA02F390D2D40B028F861F41BCA68B7518BFD0D59A524686F29B26D7164F36B94AD9289CE54E6D1DE6010819891F6E21228B3AD1831EC219194284CF98F06DD01008846CC5A1BEF83801D4CBDC6A1303536877A57A513B0953A94FC707FDBE6064EA84A9E3E6E0FA
310
EE8CF0E9198F7784A316AA0413C2C2F2E0ECA0934D1AE6D05A69BCDE9E91D2A611F573361E38FC1375157F5752AE6B6DFE4B11990F88CCBF0719EE23FF02504B0304140006080800CC70623B408A7D3B7C0000009D0000000B0000006662782F636E782E786D6C4DCCD10A83201886E15B91FFDC552A92A0064DBC8F581632
310
D3703A76F9ABD1C18E3E78F878E5F0D9027ABBFCF2292AE86E2D20171F69F6715550CB827B40839639A5F2770314A7CD293819B45C73AAFB45B35BA61ACAA1C1C7E7855C58C15BC331339661262CC762340413D68D77DA5B42298546CBE6573AF60CEB2F504B0304140006080800CC70623B449FB9BD290100001202000031
310
0000006662782F36394639363044362D344446342D343946362D394244322D3234314243333846323333332F636F72652E786D6C8D515B6EC32010BC0AE22B55850D98B871848994463E412FE002495162B07854397EA176A4F62F3F2C9A9D991D587EB84F37F0AD7D30CEF6905418026DA553C65E7A98E219ED203808EE9D
310
8B7F6810D871D23D2C3014FCE25D9A57483A1BB58D19B54EE9151C43D0110279CB971E06F9A5A7B11A53CC8C70ADE6515EC78BAE4895DB992778883E0700CB907242D17643D7E2538BD869608875438BBAE38922CAC8F1BDD90DB4691A5E2F42C153326A951B95E398B3D1FE599322163C9AE9115F7A3D46ADA0A018778810
310
84E907617BDCEE297BC5BB3DC6BC2EF47FA234AB2745C9D8D8D035EE220B50105E2F0DC1954B9FB747187D9F9D8FA0CCDB042D5FA0C015C65B42DF78BD10F3F3B363CB56C7109DCFDFBBB97E662ED92EB62D13BC2E1BCAE5777DB9966D8A1F504B0304140006080800CC70623BAD7543B64E01000033030000300000006662
310
782F36394639363044362D344446342D343946362D394244322D3234314243333846323333332F636E782E786D6CD593CD6EC32010845F0571AD6CE3D48AD20813A9873E410FBD12D82434182C7EAAE6EDBB2424CD25871E7B41D6EC30B3FA84F9E67BB2E40B4234DE8DB46F1925E094D7C6ED479AD3AE5951B2113C789FEE
310
6C943839C1488B4C05DF079FE72A69D8C96C13AAD6B8631503449F83828872B949AC57D26200B826A308D316B4064D6E46FCDA41C05550DC9E483A00797BFD207EFB092A45DE9514C1BBD22178396BD39D891265658C238DEA00936C654E5E433CB65A26D9F6EDB5EBC14EBF49A45CB856E66048291F6939A9A81BB5C89177
310
38143CA680F4AA299D66A042CEB3354A2684DC9D8D178FE0D9B8B41CAAD720F880EE7EF93C0C18769E099ECC04D5A102C8049A8A05632F4DDF376CF1DE0F6BB65C2F8627B65A33C6BB62177CEBBDAD973006829F89F22E814B54F4BC2BE347F8AA8F681390B50FA73F804400B5F542E796F19FF974E7F78DB802FE05E20750
310
4B0304140006080800CC70623B8D05915C650500003B100000340000006662782F36394639363044362D344446342D343946362D394244322D3234314243333846323333332F6F626A656374732E786D6CAD575B6FA33814FE2B887D06429276DA1565D4266D158D3A339A6846FB502932E050B66023DB74D2FDF5FB190C01
310
9276B2973C046C8ECFF53B17071F77456EBD502133CEAE6CDF9DD81665314F32965ED995DA3A17B6F5310C04E7AA47665B8C14F4CAD6DB7618A48257A5D94AE89654B91AEDDEDDFC61C998326A5B714EA4BCB265FC440BE2924AF184CA6737218AB8E976E7FA6E4338649B0A523E8D98964450A6A029F619B8588D52FE7039
310
B1BD30F0F4F730D0FF866AF6369557DB33949F31A9088B0F848DD8CCFCF9F2767A76E99CCDE733677E3EF59D9BBB9BA5E37F984D16E78BC5E5F5ED25044B25C0C96822E8D60EEFE11B91C581D77CEA34368A1F5329E68CD1B8B61F16D63A1B8E092D294B10C78C4A48EB593D192E7DED9BDEE7995E1B91FDEDD3ACEA9FE831
310
6A756F9F7D4D79F4274C90A7A04248AA51D5F8C718DAE06FB2F75AC4796EBE65D22A88A22223B995679120E2D50E41AA49C260C046A35368846B0BECD0DFF3EBEB8AD4F835768F69B9ADF25C43D30E6B646F807FAA64AD59F61715C7A54127C4AACA98BA3006A9D792DAE165E0D59B61A01FB3A9F9D838D2DAE62445C86166
310
F37564E842E7DE6A69879FEEA2DD5AE7E371E1A5E025154AC307D06A03D73EB5978C58FFA4C8E9033066E0F3BD53BEC1F39F91BE7B55103791EDE6BBB991A2046172CB4581D8B893FA674DDA17A77B3B7C413D1B511FD2743BFF8A38F03A658705E3ADF8015C3A3417FF3D7E439FF591DA0B5F18BC20C1B8981957AE6392A3
310
F43C640C01D1A0B4728E2DD4F26DB4B3C3152A252A3B4E913CEC1C72F012782FF88EFF8637AA552DBEF76408E8A8DE9E50F9E1CB3A2DA0DB1B6039A893B56063DC5B3E3FFB5F72E67AB9FEB4AEC496C4F4C1149625DD662C53E89D7BF0F6151A046260D1337DFDC94502430F83B0EE07A130A224BCAD7DAE1D9FB6CD422FF6
310
920702629C4BB9AE79C12F243C6432A6794E18E5552BA56B431AAB5D91317302B2B071E86C3A42B1A02F999E24061403B5D0EB639195DA655DD3EBEAB4FB862DDF579F014AD0E73C22F99E28DA57FB98E75C6CA2D74D53086D600F4786E0FE3144B771A8A7B900F03594DB8A633CBC49B2EDB69228BB479CF863B5E807AAAB
310
23872F6DFEB4129B949CA33823F58830E86D65621E10047D9DB34D862E8EAC3C2ABC2F7B2C40D67CDFE01F5545B92105AF983AC54D93D69E56FB8E797F88913F898A9FEC705D3F9D1B54EC8426FB500D40A03BD0119B06E1B95DDC7EB8F6975367793EBD70E66733DFB9BC982F9CE564727731999F5D4ECFCE3B8D6A4DC2A0
310
6D50FD148437D110834A64C6CDDF57FBACB5C307A2A477DFE4939736CFEF2B175371E0E10CF0DD1D5C15654E0BCA14D1E87DD02FF93782A162C0A3D95F1524A52770F972BF1EE9809D13CE7DD599467F8ECE9ADD85CE85A34CD45355448C64F9E8A031DC2D596ACC6E5DD93D9B82DE2EF5CAF81363A8E47996A0DE24564A79
310
4115AACE09C55E14540231FDA13C319787134EBF34E3A022514E5B4D9E0826E25C02D5805B15ABE1BEF51B26383D445DD9E875EE33FE4C22DA16427D65A3BCA92CA6D28DD01DF5DC53330704308475351050232CCD31583787BA75774AFB06E5070DD0C8EF484E19968C5D83BA5B90B244D31E54D55A372320FE4786B7EA58
310
44E135AA5467CB7EA333A61683CC6A8C3257034C10CF46F40EF9F5BE59BE5BD30C3C72D235E95D10345C1D45445A5F0BB47E46A5EBE5570F9380B5FA629579952296A773720405982B9DE04011506178964401AA8BDF1FBF0A8EAB6861DD6580C0E38217056766716DAEB2D6FA0917D3E4116581EADB879C4E7CFFB11EFACD
310
3D641311495D92C8676CB409A72D18610D803CE8A626049E8EC1887CB5B44CC39883690DDA8399B4B9855B481E7D71D4A9D22F96E5BB73BF5793020C02137BF837504B0304140006080000CC70623B000000000000000000000000350000006662782F36394639363044362D344446342D343946362D394244322D32343142
310
43333846323333332F76657274696365732E62696E504B0304140006080800CC70623BF270F1330600000004000000360000006662782F36394639363044362D344446342D343946362D394244322D3234314243333846323333332F747269616E676C65732E62696E636660600000504B0304140006080000CC70623B0000
310
00000000000000000000370000006662782F36394639363044362D344446342D343946362D394244322D3234314243333846323333332F617474726962757465732E62696E504B0304140006080800CC70623B08DA0BD19000000041010000360000006662782F36394639363044362D344446342D343946362D394244322D
310
3234314243333846323333332F6469726563746F72792E786D6C858F410AC3201045AF22B36F53E9A60B35CBEEBAE80D244E44489C6234F4F835464A48035D0DF398FF9F8AF63D0E6CC63039F212F8F9020C7D47C6792B21C5FE7403D62A1188E2E60C98D7234A5830286103A55745067B9D86B8A3CF9C7F90C11DE607FB14
310
4396D7B6A82D282E9A152AD114D5EF2CB866EEE831B8EEA07A7BB5A8D7D61A2BAAEB7FD5F70921FF497D00504B0304140006080800CC70623BCA768048FE000000A00100003B0000006662782F36394639363044362D344446342D343946362D394244322D3234314243333846323333332F7265736F75726365732F636F72
310
652E786D6C8D50596E833010BD0A9ADFCA60D600328E9AA639412F609909B1126CE4A5EAF16B0295DABFFECC8CDEA2797AECF8353F924FB44E193D409E5248504B332A3D0D10FC95B4901C39B3C6F85F3248B49871801506CE266BC2B243D2688FDA47549B11775038871E12F988C7004EDE7016A9083E2ADC3D5D84BC8B09
310
D33C8D74D471E6BC8D0192EDC93A815B742658898E651BCB59086ADC356A8C3FD555A1055ED7E7E254D615792D0F075295F585746FF53B694EE78A565DD736979A65AB9933AFE69F8CD2A2F038022F28ED489E135A7CE4554F9BBEA85E68DB53CAB255FEC71496F19FA6A0B42F8B3DEE6673C0F318E4497096AD7DC5F52C33
310
EEB55BFE0D504B010214000A0000080000CC70623B3DEE336E79000000790000001B00000000000000000000000000000000006175746F6465736B2D64657369676E2D7061636B6167652E786D6C504B01021400140006080800CC70623BD486FD9CA0000000F40000001300000000000000000000000000B20000005B436F
310
6E74656E745F54797065735D2E786D6C504B01021400140006080800CC70623BD9DDAED0EC0000007C010000080000000000000000000000000083010000636F72652E786D6C504B01021400140006080800CC70623B55019EA25F0000007C000000070000000000000000000000000095020000636E782E786D6C504B0102
310
1400140006080800CC70623BA24EB22D72010000D40300000C00000000000000000000000000190300006662782F636F72652E786D6C504B01021400140006080800CC70623B408A7D3B7C0000009D0000000B00000000000000000000000000B50400006662782F636E782E786D6C504B01021400140006080800CC70623B
310
449FB9BD290100001202000031000000000000000000000000005A0500006662782F36394639363044362D344446342D343946362D394244322D3234314243333846323333332F636F72652E786D6C504B01021400140006080800CC70623BAD7543B64E010000330300003000000000000000000000000000D20600006662
310
782F36394639363044362D344446342D343946362D394244322D3234314243333846323333332F636E782E786D6C504B01021400140006080800CC70623B8D05915C650500003B10000034000000000000000000000000006E0800006662782F36394639363044362D344446342D343946362D394244322D32343142433338
310
46323333332F6F626A656374732E786D6C504B01021400140006080000CC70623B0000000000000000000000003500000000000000000000000000250E00006662782F36394639363044362D344446342D343946362D394244322D3234314243333846323333332F76657274696365732E62696E504B010214001400060808
310
00CC70623BF270F13306000000040000003600000000000000000000000000780E00006662782F36394639363044362D344446342D343946362D394244322D3234314243333846323333332F747269616E676C65732E62696E504B01021400140006080000CC70623B00000000000000000000000037000000000000000000
310
00000000D20E00006662782F36394639363044362D344446342D343946362D394244322D3234314243333846323333332F617474726962757465732E62696E504B01021400140006080800CC70623B08DA0BD190000000410100003600000000000000000000000000270F00006662782F36394639363044362D344446342D
310
343946362D394244322D3234314243333846323333332F6469726563746F72792E786D6C504B01021400140006080800CC70623BCA768048FE000000A00100003B000000000000000000000000000B1000006662782F36394639363044362D344446342D343946362D394244322D3234314243333846323333332F7265736F
310
75726365732F636F72652E786D6C504B0506000000000E000E0080040000621100000000
  0
XRECORD
  5
176
102
{ACAD_REACTORS
330
173
102
}
330
173
100
AcDbXrecord
280
     1
270
     1
271
     1
  0
XRECORD
  5
177
102
{ACAD_REACTORS
330
173
102
}
330
173
100
AcDbXrecord
280
     1
270
     1
271
     1
  0
XRECORD
  5
BBE8
102
{ACAD_REACTORS
330
BBE7
102
}
330
BBE7
100
AcDbXrecord
280
     1
102
ACAD_ROUNDTRIP_2012_MLEADER_STYLE
298
     1
  0
XRECORD
  5
BBFA
102
{ACAD_REACTORS
330
BBF9
102
}
330
BBF9
100
AcDbXrecord
280
     1
102
DISPLAYNAME
  1
Metric50
102
FLAGS
 90
        0
  0
CELLSTYLEMAP
  5
BBBA
102
{ACAD_REACTORS
330
162
102
}
330
162
100
AcDbCellStyleMap
 90
        3
300
CELLSTYLE
  1
TABLEFORMAT_BEGIN
 90
        5
170
     1
 91
        0
 92
    32768
 62
   257
 93
        1
300
CONTENTFORMAT
  1
CONTENTFORMAT_BEGIN
 90
        0
 91
        0
 92
      512
 93
        0
300

 40
0.0
140
1.0
 94
        5
 62
     0
340
11
144
6.0
309
CONTENTFORMAT_END
171
     1
301
MARGIN
  1
CELLMARGIN_BEGIN
 40
1.5
 40
1.5
 40
1.5
 40
1.5
 40
4.5
 40
4.5
309
CELLMARGIN_END
 94
        6
 95
        1
302
GRIDFORMAT
  1
GRIDFORMAT_BEGIN
 90
        0
 91
        1
 62
     0
 92
       -2
340
14
 93
        0
 40
1.125
309
GRIDFORMAT_END
 95
        2
302
GRIDFORMAT
  1
GRIDFORMAT_BEGIN
 90
        0
 91
        1
 62
     0
 92
       -2
340
14
 93
        0
 40
1.125
309
GRIDFORMAT_END
 95
        4
302
GRIDFORMAT
  1
GRIDFORMAT_BEGIN
 90
        0
 91
        1
 62
     0
 92
       -2
340
14
 93
        0
 40
1.125
309
GRIDFORMAT_END
 95
        8
302
GRIDFORMAT
  1
GRIDFORMAT_BEGIN
 90
        0
 91
        1
 62
     0
 92
       -2
340
14
 93
        0
 40
1.125
309
GRIDFORMAT_END
 95
       16
302
GRIDFORMAT
  1
GRIDFORMAT_BEGIN
 90
        0
 91
        1
 62
     0
 92
       -2
340
14
 93
        0
 40
1.125
309
GRIDFORMAT_END
 95
       32
302
GRIDFORMAT
  1
GRIDFORMAT_BEGIN
 90
        0
 91
        1
 62
     0
 92
       -2
340
14
 93
        0
 40
1.125
309
GRIDFORMAT_END
309
TABLEFORMAT_END
  1
CELLSTYLE_BEGIN
 90
        1
 91
        1
300
_TITLE
309
CELLSTYLE_END
300
CELLSTYLE
  1
TABLEFORMAT_BEGIN
 90
        5
170
     1
 91
        0
 92
        0
 62
   257
 93
        1
300
CONTENTFORMAT
  1
CONTENTFORMAT_BEGIN
 90
        0
 91
        0
 92
      512
 93
        0
300

 40
0.0
140
1.0
 94
        5
 62
     0
340
11
144
4.5
309
CONTENTFORMAT_END
171
     1
301
MARGIN
  1
CELLMARGIN_BEGIN
 40
1.5
 40
1.5
 40
1.5
 40
1.5
 40
4.5
 40
4.5
309
CELLMARGIN_END
 94
        6
 95
        1
302
GRIDFORMAT
  1
GRIDFORMAT_BEGIN
 90
        0
 91
        1
 62
     0
 92
       -2
340
14
 93
        0
 40
1.125
309
GRIDFORMAT_END
 95
        2
302
GRIDFORMAT
  1
GRIDFORMAT_BEGIN
 90
        0
 91
        1
 62
     0
 92
       -2
340
14
 93
        0
 40
1.125
309
GRIDFORMAT_END
 95
        4
302
GRIDFORMAT
  1
GRIDFORMAT_BEGIN
 90
        0
 91
        1
 62
     0
 92
       -2
340
14
 93
        0
 40
1.125
309
GRIDFORMAT_END
 95
        8
302
GRIDFORMAT
  1
GRIDFORMAT_BEGIN
 90
        0
 91
        1
 62
     0
 92
       -2
340
14
 93
        0
 40
1.125
309
GRIDFORMAT_END
 95
       16
302
GRIDFORMAT
  1
GRIDFORMAT_BEGIN
 90
        0
 91
        1
 62
     0
 92
       -2
340
14
 93
        0
 40
1.125
309
GRIDFORMAT_END
 95
       32
302
GRIDFORMAT
  1
GRIDFORMAT_BEGIN
 90
        0
 91
        1
 62
     0
 92
       -2
340
14
 93
        0
 40
1.125
309
GRIDFORMAT_END
309
TABLEFORMAT_END
  1
CELLSTYLE_BEGIN
 90
        2
 91
        1
300
_HEADER
309
CELLSTYLE_END
300
CELLSTYLE
  1
TABLEFORMAT_BEGIN
 90
        5
170
     1
 91
        0
 92
        0
 62
   257
 93
        1
300
CONTENTFORMAT
  1
CONTENTFORMAT_BEGIN
 90
        0
 91
        0
 92
      512
 93
        0
300

 40
0.0
140
1.0
 94
        2
 62
     0
340
11
144
4.5
309
CONTENTFORMAT_END
171
     1
301
MARGIN
  1
CELLMARGIN_BEGIN
 40
1.5
 40
1.5
 40
1.5
 40
1.5
 40
4.5
 40
4.5
309
CELLMARGIN_END
 94
        6
 95
        1
302
GRIDFORMAT
  1
GRIDFORMAT_BEGIN
 90
        0
 91
        1
 62
     0
 92
       -2
340
14
 93
        0
 40
1.125
309
GRIDFORMAT_END
 95
        2
302
GRIDFORMAT
  1
GRIDFORMAT_BEGIN
 90
        0
 91
        1
 62
     0
 92
       -2
340
14
 93
        0
 40
1.125
309
GRIDFORMAT_END
 95
        4
302
GRIDFORMAT
  1
GRIDFORMAT_BEGIN
 90
        0
 91
        1
 62
     0
 92
       -2
340
14
 93
        0
 40
1.125
309
GRIDFORMAT_END
 95
        8
302
GRIDFORMAT
  1
GRIDFORMAT_BEGIN
 90
        0
 91
        1
 62
     0
 92
       -2
340
14
 93
        0
 40
1.125
309
GRIDFORMAT_END
 95
       16
302
GRIDFORMAT
  1
GRIDFORMAT_BEGIN
 90
        0
 91
        1
 62
     0
 92
       -2
340
14
 93
        0
 40
1.125
309
GRIDFORMAT_END
 95
       32
302
GRIDFORMAT
  1
GRIDFORMAT_BEGIN
 90
        0
 91
        1
 62
     0
 92
       -2
340
14
 93
        0
 40
1.125
309
GRIDFORMAT_END
309
TABLEFORMAT_END
  1
CELLSTYLE_BEGIN
 90
        3
 91
        2
300
_DATA
309
CELLSTYLE_END
  0
XRECORD
  5
BBBF
102
{ACAD_REACTORS
330
162
102
}
330
162
100
AcDbXrecord
280
     1
102
ACAD_ROUNDTRIP_PRE2007_TABLESTYLE
 90
      512
 91
        0
  1

 92
      512
 93
        0
  2

 94
      512
 95
        0
  3

  0
XRECORD
  5
BBD2
102
{ACAD_REACTORS
330
BBD1
102
}
330
BBD1
100
AcDbXrecord
280
     1
102
RTVSPost2010Prop28
280
     1
102
RTVSPost2010PropOp28
 70
     1
102
RTVSPost2010Prop29
280
     1
102
RTVSPost2010PropOp29
 70
     1
102
RTVSPost2010Prop30
280
     0
102
RTVSPost2010PropOp30
 70
     1
102
RTVSPost2010Prop31
280
     0
102
RTVSPost2010PropOp31
 70
     1
102
RTVSPost2010Prop32
280
     0
102
RTVSPost2010PropOp32
 70
     1
102
RTVSPost2010Prop33
280
     0
102
RTVSPost2010PropOp33
 70
     1
102
RTVSPost2010Prop34
280
     0
102
RTVSPost2010PropOp34
 70
     1
102
RTVSPost2010Prop35
280
     0
102
RTVSPost2010PropOp35
 70
     1
102
RTVSPost2010Prop36
280
     0
102
RTVSPost2010PropOp36
 70
     1
102
RTVSPost2010Prop37
 90
       50
102
RTVSPost2010PropOp37
 70
     1
102
RTVSPost2010Prop38
140
0.0
102
RTVSPost2010PropOp38
 70
     1
102
RTVSPost2010Prop39
140
1.0
102
RTVSPost2010PropOp39
 70
     1
102
RTVSPost2010Prop40
 90
        0
102
RTVSPost2010PropOp40
 70
     1
102
RTVSPost2010Prop41ColorIndex
 90
       18
102
RTVSPost2010Prop41ColorRGB
 90
        0
102
RTVSPost2010PropOp41
 70
     1
102
RTVSPost2010Prop42
 90
       50
102
RTVSPost2010PropOp42
 70
     1
102
RTVSPost2010Prop43
 90
        3
102
RTVSPost2010PropOp43
 70
     1
102
RTVSPost2010Prop44ColorIndex
 90
        5
102
RTVSPost2010Prop44ColorRGB
 90
      255
102
RTVSPost2010PropOp44
 70
     1
102
RTVSPost2010Prop45
280
     0
102
RTVSPost2010PropOp45
 70
     1
102
RTVSPost2010Prop46
 90
       50
102
RTVSPost2010PropOp46
 70
     1
102
RTVSPost2010Prop47
 90
       50
102
RTVSPost2010PropOp47
 70
     1
102
RTVSPost2010Prop48
 90
       50
102
RTVSPost2010PropOp48
 70
     1
102
RTVSPost2010Prop49
280
     0
102
RTVSPost2010PropOp49
 70
     1
102
RTVSPost2010Prop50
 90
       50
102
RTVSPost2010PropOp50
 70
     1
102
RTVSPost2010Prop51ColorIndex
 90
      256
102
RTVSPost2010Prop51ColorRGB
 90
-16777216
102
RTVSPost2010PropOp51
 70
     0
102
RTVSPost2010Prop52
140
1.0
102
RTVSPost2010PropOp52
 70
     0
102
RTVSPost2010Prop53
 90
        2
102
RTVSPost2010PropOp53
 70
     1
102
RTVSPost2010Prop54
  1
strokes_ogs.tif
102
RTVSPost2010PropOp54
 70
     1
102
RTVSPost2010Prop55
280
     0
102
RTVSPost2010PropOp55
 70
     1
102
RTVSPost2010Prop56
140
1.0
102
RTVSPost2010PropOp56
 70
     1
102
RTVSPost2010Prop57
140
1.0
102
RTVSPost2010PropOp57
 70
     1
102
RTVSPropertyOp0
 70
     1
102
RTVSPropertyOp1
 70
     1
102
RTVSPropertyOp2
 70
     1
102
RTVSPropertyOp3
 70
     1
102
RTVSPropertyOp4
 70
     1
102
RTVSPropertyOp5
 70
     1
102
RTVSPropertyOp6
 70
     1
102
RTVSPropertyOp7
 70
     1
102
RTVSPropertyOp8
 70
     1
102
RTVSPropertyOp9
 70
     1
102
RTVSPropertyOp10
 70
     1
102
RTVSPropertyOp11
 70
     1
102
RTVSPropertyOp12
 70
     1
102
RTVSPropertyOp13
 70
     1
102
RTVSPropertyOp14
 70
     1
102
RTVSPropertyOp15
 70
     1
102
RTVSPropertyOp16
 70
     1
102
RTVSPropertyOp17
 70
     1
102
RTVSPropertyOp18
 70
     1
102
RTVSPropertyOp19
 70
     1
102
RTVSPropertyOp20
 70
     1
102
RTVSPropertyOp21
 70
     1
102
RTVSPropertyOp22
 70
     1
102
RTVSPropertyOp23
 70
     1
102
RTVSPropertyOp24
 70
     1
102
RTVSPropertyOp25
 70
     1
102
RTVSPropertyOp26
 70
     1
102
RTVSPropertyOp27
 70
     1
102
RTVSPropertyOp28
 70
     1
102
RTVSPropertyOp29
 70
     1
102
RTVSPropertyOp30
 70
     1
102
RTVSPropertyOp31
 70
     1
102
RTVSPropertyOp32
 70
     1
102
RTVSPropertyOp33
 70
     1
102
RTVSPropertyOp34
 70
     1
102
RTVSPropertyOp35
 70
     1
102
RTVSPropertyOp36
 70
     1
102
RTVSPropertyOp37
 70
     1
102
RTVSPropertyOp38
 70
     1
102
RTVSPropertyOp39
 70
     1
102
RTVSPropertyOp40
 70
     1
102
RTVSPropertyOp41
 70
     1
102
RTVSPropertyOp42
 70
     1
102
RTVSPropertyOp43
 70
     1
102
RTVSPropertyOp44
 70
     1
102
RTVSPropertyOp45
 70
     1
102
RTVSPropertyOp46
 70
     1
102
RTVSPropertyOp47
 70
     1
102
RTVSPropertyOp48
 70
     1
102
RTVSPropertyOp49
 70
     1
102
RTVSPropertyOp50
 70
     1
102
RTVSPropertyOp51
 70
     0
102
RTVSPropertyOp52
 70
     0
102
RTVSPropertyOp53
 70
     1
102
RTVSPropertyOp54
 70
     1
102
RTVSPropertyOp55
 70
     1
102
RTVSPropertyOp56
 70
     1
102
RTVSPropertyOp57
 70
     1
102
RTVSPropertyOp58
 70
     1
102
RTVSPropertyOp59
 70
     1
102
RTVSPropertyOp60
 70
     1
102
RTVSPropertyOp61
 70
     1
102
RTVSPropertyOp62
 70
     1
  0
XRECORD
  5
BBD0
102
{ACAD_REACTORS
330
BBCF
102
}
330
BBCF
100
AcDbXrecord
280
     1
102
RTVSPost2010Prop28
280
     0
102
RTVSPost2010PropOp28
 70
     1
102
RTVSPost2010Prop29
280
     1
102
RTVSPost2010PropOp29
 70
     1
102
RTVSPost2010Prop30
280
     1
102
RTVSPost2010PropOp30
 70
     1
102
RTVSPost2010Prop31
280
     0
102
RTVSPost2010PropOp31
 70
     1
102
RTVSPost2010Prop32
280
     0
102
RTVSPost2010PropOp32
 70
     1
102
RTVSPost2010Prop33
280
     0
102
RTVSPost2010PropOp33
 70
     1
102
RTVSPost2010Prop34
280
     0
102
RTVSPost2010PropOp34
 70
     1
102
RTVSPost2010Prop35
280
     0
102
RTVSPost2010PropOp35
 70
     1
102
RTVSPost2010Prop36
280
     0
102
RTVSPost2010PropOp36
 70
     1
102
RTVSPost2010Prop37
 90
       50
102
RTVSPost2010PropOp37
 70
     1
102
RTVSPost2010Prop38
140
0.0
102
RTVSPost2010PropOp38
 70
     1
102
RTVSPost2010Prop39
140
1.0
102
RTVSPost2010PropOp39
 70
     1
102
RTVSPost2010Prop40
 90
        0
102
RTVSPost2010PropOp40
 70
     1
102
RTVSPost2010Prop41ColorIndex
 90
       18
102
RTVSPost2010Prop41ColorRGB
 90
        0
102
RTVSPost2010PropOp41
 70
     1
102
RTVSPost2010Prop42
 90
       50
102
RTVSPost2010PropOp42
 70
     1
102
RTVSPost2010Prop43
 90
        3
102
RTVSPost2010PropOp43
 70
     1
102
RTVSPost2010Prop44ColorIndex
 90
        5
102
RTVSPost2010Prop44ColorRGB
 90
      255
102
RTVSPost2010PropOp44
 70
     1
102
RTVSPost2010Prop45
280
     0
102
RTVSPost2010PropOp45
 70
     1
102
RTVSPost2010Prop46
 90
       50
102
RTVSPost2010PropOp46
 70
     1
102
RTVSPost2010Prop47
 90
       50
102
RTVSPost2010PropOp47
 70
     1
102
RTVSPost2010Prop48
 90
       50
102
RTVSPost2010PropOp48
 70
     1
102
RTVSPost2010Prop49
280
     0
102
RTVSPost2010PropOp49
 70
     1
102
RTVSPost2010Prop50
 90
       50
102
RTVSPost2010PropOp50
 70
     1
102
RTVSPost2010Prop51ColorIndex
 90
      256
102
RTVSPost2010Prop51ColorRGB
 90
-16777216
102
RTVSPost2010PropOp51
 70
     0
102
RTVSPost2010Prop52
140
1.0
102
RTVSPost2010PropOp52
 70
     0
102
RTVSPost2010Prop53
 90
        2
102
RTVSPost2010PropOp53
 70
     1
102
RTVSPost2010Prop54
  1
strokes_ogs.tif
102
RTVSPost2010PropOp54
 70
     1
102
RTVSPost2010Prop55
280
     0
102
RTVSPost2010PropOp55
 70
     1
102
RTVSPost2010Prop56
140
1.0
102
RTVSPost2010PropOp56
 70
     1
102
RTVSPost2010Prop57
140
1.0
102
RTVSPost2010PropOp57
 70
     1
102
RTVSPropertyOp0
 70
     1
102
RTVSPropertyOp1
 70
     1
102
RTVSPropertyOp2
 70
     1
102
RTVSPropertyOp3
 70
     1
102
RTVSPropertyOp4
 70
     1
102
RTVSPropertyOp5
 70
     1
102
RTVSPropertyOp6
 70
     1
102
RTVSPropertyOp7
 70
     1
102
RTVSPropertyOp8
 70
     1
102
RTVSPropertyOp9
 70
     1
102
RTVSPropertyOp10
 70
     1
102
RTVSPropertyOp11
 70
     1
102
RTVSPropertyOp12
 70
     1
102
RTVSPropertyOp13
 70
     1
102
RTVSPropertyOp14
 70
     1
102
RTVSPropertyOp15
 70
     1
102
RTVSPropertyOp16
 70
     1
102
RTVSPropertyOp17
 70
     1
102
RTVSPropertyOp18
 70
     1
102
RTVSPropertyOp19
 70
     1
102
RTVSPropertyOp20
 70
     1
102
RTVSPropertyOp21
 70
     1
102
RTVSPropertyOp22
 70
     1
102
RTVSPropertyOp23
 70
     1
102
RTVSPropertyOp24
 70
     1
102
RTVSPropertyOp25
 70
     1
102
RTVSPropertyOp26
 70
     1
102
RTVSPropertyOp27
 70
     1
102
RTVSPropertyOp28
 70
     1
102
RTVSPropertyOp29
 70
     1
102
RTVSPropertyOp30
 70
     1
102
RTVSPropertyOp31
 70
     1
102
RTVSPropertyOp32
 70
     1
102
RTVSPropertyOp33
 70
     1
102
RTVSPropertyOp34
 70
     1
102
RTVSPropertyOp35
 70
     1
102
RTVSPropertyOp36
 70
     1
102
RTVSPropertyOp37
 70
     1
102
RTVSPropertyOp38
 70
     1
102
RTVSPropertyOp39
 70
     1
102
RTVSPropertyOp40
 70
     1
102
RTVSPropertyOp41
 70
     1
102
RTVSPropertyOp42
 70
     1
102
RTVSPropertyOp43
 70
     1
102
RTVSPropertyOp44
 70
     1
102
RTVSPropertyOp45
 70
     1
102
RTVSPropertyOp46
 70
     1
102
RTVSPropertyOp47
 70
     1
102
RTVSPropertyOp48
 70
     1
102
RTVSPropertyOp49
 70
     1
102
RTVSPropertyOp50
 70
     1
102
RTVSPropertyOp51
 70
     0
102
RTVSPropertyOp52
 70
     0
102
RTVSPropertyOp53
 70
     1
102
RTVSPropertyOp54
 70
     1
102
RTVSPropertyOp55
 70
     1
102
RTVSPropertyOp56
 70
     1
102
RTVSPropertyOp57
 70
     1
102
RTVSPropertyOp58
 70
     1
102
RTVSPropertyOp59
 70
     1
102
RTVSPropertyOp60
 70
     1
102
RTVSPropertyOp61
 70
     1
102
RTVSPropertyOp62
 70
     1
  0
XRECORD
  5
BBDE
102
{ACAD_REACTORS
330
BBDD
102
}
330
BBDD
100
AcDbXrecord
280
     1
102
RTVSPost2010Prop28
280
     0
102
RTVSPost2010PropOp28
 70
     1
102
RTVSPost2010Prop29
280
     1
102
RTVSPost2010PropOp29
 70
     1
102
RTVSPost2010Prop30
280
     1
102
RTVSPost2010PropOp30
 70
     1
102
RTVSPost2010Prop31
280
     0
102
RTVSPost2010PropOp31
 70
     1
102
RTVSPost2010Prop32
280
     0
102
RTVSPost2010PropOp32
 70
     1
102
RTVSPost2010Prop33
280
     0
102
RTVSPost2010PropOp33
 70
     1
102
RTVSPost2010Prop34
280
     0
102
RTVSPost2010PropOp34
 70
     1
102
RTVSPost2010Prop35
280
     0
102
RTVSPost2010PropOp35
 70
     1
102
RTVSPost2010Prop36
280
     0
102
RTVSPost2010PropOp36
 70
     1
102
RTVSPost2010Prop37
 90
       50
102
RTVSPost2010PropOp37
 70
     1
102
RTVSPost2010Prop38
140
0.0
102
RTVSPost2010PropOp38
 70
     1
102
RTVSPost2010Prop39
140
1.0
102
RTVSPost2010PropOp39
 70
     1
102
RTVSPost2010Prop40
 90
        0
102
RTVSPost2010PropOp40
 70
     1
102
RTVSPost2010Prop41ColorIndex
 90
       18
102
RTVSPost2010Prop41ColorRGB
 90
        0
102
RTVSPost2010PropOp41
 70
     1
102
RTVSPost2010Prop42
 90
       50
102
RTVSPost2010PropOp42
 70
     1
102
RTVSPost2010Prop43
 90
        3
102
RTVSPost2010PropOp43
 70
     1
102
RTVSPost2010Prop44ColorIndex
 90
        5
102
RTVSPost2010Prop44ColorRGB
 90
      255
102
RTVSPost2010PropOp44
 70
     1
102
RTVSPost2010Prop45
280
     0
102
RTVSPost2010PropOp45
 70
     1
102
RTVSPost2010Prop46
 90
       50
102
RTVSPost2010PropOp46
 70
     1
102
RTVSPost2010Prop47
 90
       50
102
RTVSPost2010PropOp47
 70
     1
102
RTVSPost2010Prop48
 90
       50
102
RTVSPost2010PropOp48
 70
     1
102
RTVSPost2010Prop49
280
     0
102
RTVSPost2010PropOp49
 70
     1
102
RTVSPost2010Prop50
 90
       50
102
RTVSPost2010PropOp50
 70
     1
102
RTVSPost2010Prop51ColorIndex
 90
      256
102
RTVSPost2010Prop51ColorRGB
 90
-16777216
102
RTVSPost2010PropOp51
 70
     0
102
RTVSPost2010Prop52
140
1.0
102
RTVSPost2010PropOp52
 70
     0
102
RTVSPost2010Prop53
 90
        2
102
RTVSPost2010PropOp53
 70
     1
102
RTVSPost2010Prop54
  1
strokes_ogs.tif
102
RTVSPost2010PropOp54
 70
     1
102
RTVSPost2010Prop55
280
     0
102
RTVSPost2010PropOp55
 70
     1
102
RTVSPost2010Prop56
140
1.0
102
RTVSPost2010PropOp56
 70
     1
102
RTVSPost2010Prop57
140
1.0
102
RTVSPost2010PropOp57
 70
     1
102
RTVSPropertyOp0
 70
     1
102
RTVSPropertyOp1
 70
     1
102
RTVSPropertyOp2
 70
     1
102
RTVSPropertyOp3
 70
     1
102
RTVSPropertyOp4
 70
     1
102
RTVSPropertyOp5
 70
     1
102
RTVSPropertyOp6
 70
     1
102
RTVSPropertyOp7
 70
     1
102
RTVSPropertyOp8
 70
     1
102
RTVSPropertyOp9
 70
     1
102
RTVSPropertyOp10
 70
     1
102
RTVSPropertyOp11
 70
     1
102
RTVSPropertyOp12
 70
     1
102
RTVSPropertyOp13
 70
     1
102
RTVSPropertyOp14
 70
     1
102
RTVSPropertyOp15
 70
     1
102
RTVSPropertyOp16
 70
     1
102
RTVSPropertyOp17
 70
     1
102
RTVSPropertyOp18
 70
     1
102
RTVSPropertyOp19
 70
     1
102
RTVSPropertyOp20
 70
     1
102
RTVSPropertyOp21
 70
     1
102
RTVSPropertyOp22
 70
     1
102
RTVSPropertyOp23
 70
     1
102
RTVSPropertyOp24
 70
     1
102
RTVSPropertyOp25
 70
     1
102
RTVSPropertyOp26
 70
     1
102
RTVSPropertyOp27
 70
     1
102
RTVSPropertyOp28
 70
     1
102
RTVSPropertyOp29
 70
     1
102
RTVSPropertyOp30
 70
     1
102
RTVSPropertyOp31
 70
     1
102
RTVSPropertyOp32
 70
     1
102
RTVSPropertyOp33
 70
     1
102
RTVSPropertyOp34
 70
     1
102
RTVSPropertyOp35
 70
     1
102
RTVSPropertyOp36
 70
     1
102
RTVSPropertyOp37
 70
     1
102
RTVSPropertyOp38
 70
     1
102
RTVSPropertyOp39
 70
     1
102
RTVSPropertyOp40
 70
     1
102
RTVSPropertyOp41
 70
     1
102
RTVSPropertyOp42
 70
     1
102
RTVSPropertyOp43
 70
     1
102
RTVSPropertyOp44
 70
     1
102
RTVSPropertyOp45
 70
     1
102
RTVSPropertyOp46
 70
     1
102
RTVSPropertyOp47
 70
     1
102
RTVSPropertyOp48
 70
     1
102
RTVSPropertyOp49
 70
     1
102
RTVSPropertyOp50
 70
     1
102
RTVSPropertyOp51
 70
     0
102
RTVSPropertyOp52
 70
     0
102
RTVSPropertyOp53
 70
     1
102
RTVSPropertyOp54
 70
     1
102
RTVSPropertyOp55
 70
     1
102
RTVSPropertyOp56
 70
     1
102
RTVSPropertyOp57
 70
     1
102
RTVSPropertyOp58
 70
     1
102
RTVSPropertyOp59
 70
     1
102
RTVSPropertyOp60
 70
     1
102
RTVSPropertyOp61
 70
     1
102
RTVSPropertyOp62
 70
     1
  0
XRECORD
  5
BBE6
102
{ACAD_REACTORS
330
BBE5
102
}
330
BBE5
100
AcDbXrecord
280
     1
102
RTVSPost2010Prop28
280
     0
102
RTVSPost2010PropOp28
 70
     1
102
RTVSPost2010Prop29
280
     1
102
RTVSPost2010PropOp29
 70
     1
102
RTVSPost2010Prop30
280
     1
102
RTVSPost2010PropOp30
 70
     1
102
RTVSPost2010Prop31
280
     0
102
RTVSPost2010PropOp31
 70
     1
102
RTVSPost2010Prop32
280
     0
102
RTVSPost2010PropOp32
 70
     1
102
RTVSPost2010Prop33
280
     0
102
RTVSPost2010PropOp33
 70
     1
102
RTVSPost2010Prop34
280
     0
102
RTVSPost2010PropOp34
 70
     1
102
RTVSPost2010Prop35
280
     0
102
RTVSPost2010PropOp35
 70
     1
102
RTVSPost2010Prop36
280
     0
102
RTVSPost2010PropOp36
 70
     1
102
RTVSPost2010Prop37
 90
       50
102
RTVSPost2010PropOp37
 70
     1
102
RTVSPost2010Prop38
140
0.0
102
RTVSPost2010PropOp38
 70
     1
102
RTVSPost2010Prop39
140
1.0
102
RTVSPost2010PropOp39
 70
     1
102
RTVSPost2010Prop40
 90
        0
102
RTVSPost2010PropOp40
 70
     1
102
RTVSPost2010Prop41ColorIndex
 90
       18
102
RTVSPost2010Prop41ColorRGB
 90
        0
102
RTVSPost2010PropOp41
 70
     1
102
RTVSPost2010Prop42
 90
       50
102
RTVSPost2010PropOp42
 70
     1
102
RTVSPost2010Prop43
 90
        3
102
RTVSPost2010PropOp43
 70
     1
102
RTVSPost2010Prop44ColorIndex
 90
        5
102
RTVSPost2010Prop44ColorRGB
 90
      255
102
RTVSPost2010PropOp44
 70
     1
102
RTVSPost2010Prop45
280
     0
102
RTVSPost2010PropOp45
 70
     1
102
RTVSPost2010Prop46
 90
       50
102
RTVSPost2010PropOp46
 70
     1
102
RTVSPost2010Prop47
 90
       50
102
RTVSPost2010PropOp47
 70
     1
102
RTVSPost2010Prop48
 90
       50
102
RTVSPost2010PropOp48
 70
     1
102
RTVSPost2010Prop49
280
     0
102
RTVSPost2010PropOp49
 70
     1
102
RTVSPost2010Prop50
 90
       50
102
RTVSPost2010PropOp50
 70
     1
102
RTVSPost2010Prop51ColorIndex
 90
      256
102
RTVSPost2010Prop51ColorRGB
 90
-16777216
102
RTVSPost2010PropOp51
 70
     0
102
RTVSPost2010Prop52
140
1.0
102
RTVSPost2010PropOp52
 70
     0
102
RTVSPost2010Prop53
 90
        2
102
RTVSPost2010PropOp53
 70
     1
102
RTVSPost2010Prop54
  1
strokes_ogs.tif
102
RTVSPost2010PropOp54
 70
     1
102
RTVSPost2010Prop55
280
     0
102
RTVSPost2010PropOp55
 70
     1
102
RTVSPost2010Prop56
140
1.0
102
RTVSPost2010PropOp56
 70
     1
102
RTVSPost2010Prop57
140
1.0
102
RTVSPost2010PropOp57
 70
     1
102
RTVSPropertyOp0
 70
     1
102
RTVSPropertyOp1
 70
     1
102
RTVSPropertyOp2
 70
     1
102
RTVSPropertyOp3
 70
     1
102
RTVSPropertyOp4
 70
     1
102
RTVSPropertyOp5
 70
     1
102
RTVSPropertyOp6
 70
     1
102
RTVSPropertyOp7
 70
     1
102
RTVSPropertyOp8
 70
     1
102
RTVSPropertyOp9
 70
     1
102
RTVSPropertyOp10
 70
     1
102
RTVSPropertyOp11
 70
     1
102
RTVSPropertyOp12
 70
     1
102
RTVSPropertyOp13
 70
     1
102
RTVSPropertyOp14
 70
     1
102
RTVSPropertyOp15
 70
     1
102
RTVSPropertyOp16
 70
     1
102
RTVSPropertyOp17
 70
     1
102
RTVSPropertyOp18
 70
     1
102
RTVSPropertyOp19
 70
     1
102
RTVSPropertyOp20
 70
     1
102
RTVSPropertyOp21
 70
     1
102
RTVSPropertyOp22
 70
     1
102
RTVSPropertyOp23
 70
     1
102
RTVSPropertyOp24
 70
     1
102
RTVSPropertyOp25
 70
     1
102
RTVSPropertyOp26
 70
     1
102
RTVSPropertyOp27
 70
     1
102
RTVSPropertyOp28
 70
     1
102
RTVSPropertyOp29
 70
     1
102
RTVSPropertyOp30
 70
     1
102
RTVSPropertyOp31
 70
     1
102
RTVSPropertyOp32
 70
     1
102
RTVSPropertyOp33
 70
     1
102
RTVSPropertyOp34
 70
     1
102
RTVSPropertyOp35
 70
     1
102
RTVSPropertyOp36
 70
     1
102
RTVSPropertyOp37
 70
     1
102
RTVSPropertyOp38
 70
     1
102
RTVSPropertyOp39
 70
     1
102
RTVSPropertyOp40
 70
     1
102
RTVSPropertyOp41
 70
     1
102
RTVSPropertyOp42
 70
     1
102
RTVSPropertyOp43
 70
     1
102
RTVSPropertyOp44
 70
     1
102
RTVSPropertyOp45
 70
     1
102
RTVSPropertyOp46
 70
     1
102
RTVSPropertyOp47
 70
     1
102
RTVSPropertyOp48
 70
     1
102
RTVSPropertyOp49
 70
     1
102
RTVSPropertyOp50
 70
     1
102
RTVSPropertyOp51
 70
     0
102
RTVSPropertyOp52
 70
     0
102
RTVSPropertyOp53
 70
     1
102
RTVSPropertyOp54
 70
     1
102
RTVSPropertyOp55
 70
     1
102
RTVSPropertyOp56
 70
     1
102
RTVSPropertyOp57
 70
     1
102
RTVSPropertyOp58
 70
     1
102
RTVSPropertyOp59
 70
     1
102
RTVSPropertyOp60
 70
     1
102
RTVSPropertyOp61
 70
     1
102
RTVSPropertyOp62
 70
     1
  0
XRECORD
  5
BBD8
102
{ACAD_REACTORS
330
BBD7
102
}
330
BBD7
100
AcDbXrecord
280
     1
102
RTVSPost2010Prop28
280
     0
102
RTVSPost2010PropOp28
 70
     1
102
RTVSPost2010Prop29
280
     1
102
RTVSPost2010PropOp29
 70
     1
102
RTVSPost2010Prop30
280
     1
102
RTVSPost2010PropOp30
 70
     1
102
RTVSPost2010Prop31
280
     0
102
RTVSPost2010PropOp31
 70
     1
102
RTVSPost2010Prop32
280
     0
102
RTVSPost2010PropOp32
 70
     1
102
RTVSPost2010Prop33
280
     0
102
RTVSPost2010PropOp33
 70
     1
102
RTVSPost2010Prop34
280
     0
102
RTVSPost2010PropOp34
 70
     1
102
RTVSPost2010Prop35
280
     0
102
RTVSPost2010PropOp35
 70
     1
102
RTVSPost2010Prop36
280
     0
102
RTVSPost2010PropOp36
 70
     1
102
RTVSPost2010Prop37
 90
       50
102
RTVSPost2010PropOp37
 70
     1
102
RTVSPost2010Prop38
140
0.0
102
RTVSPost2010PropOp38
 70
     1
102
RTVSPost2010Prop39
140
1.0
102
RTVSPost2010PropOp39
 70
     1
102
RTVSPost2010Prop40
 90
        0
102
RTVSPost2010PropOp40
 70
     1
102
RTVSPost2010Prop41ColorIndex
 90
       18
102
RTVSPost2010Prop41ColorRGB
 90
        0
102
RTVSPost2010PropOp41
 70
     1
102
RTVSPost2010Prop42
 90
       50
102
RTVSPost2010PropOp42
 70
     1
102
RTVSPost2010Prop43
 90
        3
102
RTVSPost2010PropOp43
 70
     1
102
RTVSPost2010Prop44ColorIndex
 90
        5
102
RTVSPost2010Prop44ColorRGB
 90
      255
102
RTVSPost2010PropOp44
 70
     1
102
RTVSPost2010Prop45
280
     0
102
RTVSPost2010PropOp45
 70
     1
102
RTVSPost2010Prop46
 90
       50
102
RTVSPost2010PropOp46
 70
     1
102
RTVSPost2010Prop47
 90
       50
102
RTVSPost2010PropOp47
 70
     1
102
RTVSPost2010Prop48
 90
       50
102
RTVSPost2010PropOp48
 70
     1
102
RTVSPost2010Prop49
280
     0
102
RTVSPost2010PropOp49
 70
     1
102
RTVSPost2010Prop50
 90
       50
102
RTVSPost2010PropOp50
 70
     1
102
RTVSPost2010Prop51ColorIndex
 90
      256
102
RTVSPost2010Prop51ColorRGB
 90
-16777216
102
RTVSPost2010PropOp51
 70
     0
102
RTVSPost2010Prop52
140
1.0
102
RTVSPost2010PropOp52
 70
     0
102
RTVSPost2010Prop53
 90
        2
102
RTVSPost2010PropOp53
 70
     1
102
RTVSPost2010Prop54
  1
strokes_ogs.tif
102
RTVSPost2010PropOp54
 70
     1
102
RTVSPost2010Prop55
280
     0
102
RTVSPost2010PropOp55
 70
     1
102
RTVSPost2010Prop56
140
1.0
102
RTVSPost2010PropOp56
 70
     1
102
RTVSPost2010Prop57
140
1.0
102
RTVSPost2010PropOp57
 70
     1
102
RTVSPropertyOp0
 70
     1
102
RTVSPropertyOp1
 70
     1
102
RTVSPropertyOp2
 70
     1
102
RTVSPropertyOp3
 70
     1
102
RTVSPropertyOp4
 70
     1
102
RTVSPropertyOp5
 70
     1
102
RTVSPropertyOp6
 70
     1
102
RTVSPropertyOp7
 70
     1
102
RTVSPropertyOp8
 70
     1
102
RTVSPropertyOp9
 70
     1
102
RTVSPropertyOp10
 70
     1
102
RTVSPropertyOp11
 70
     1
102
RTVSPropertyOp12
 70
     1
102
RTVSPropertyOp13
 70
     1
102
RTVSPropertyOp14
 70
     1
102
RTVSPropertyOp15
 70
     1
102
RTVSPropertyOp16
 70
     1
102
RTVSPropertyOp17
 70
     1
102
RTVSPropertyOp18
 70
     1
102
RTVSPropertyOp19
 70
     1
102
RTVSPropertyOp20
 70
     1
102
RTVSPropertyOp21
 70
     1
102
RTVSPropertyOp22
 70
     1
102
RTVSPropertyOp23
 70
     1
102
RTVSPropertyOp24
 70
     1
102
RTVSPropertyOp25
 70
     1
102
RTVSPropertyOp26
 70
     1
102
RTVSPropertyOp27
 70
     1
102
RTVSPropertyOp28
 70
     1
102
RTVSPropertyOp29
 70
     1
102
RTVSPropertyOp30
 70
     1
102
RTVSPropertyOp31
 70
     1
102
RTVSPropertyOp32
 70
     1
102
RTVSPropertyOp33
 70
     1
102
RTVSPropertyOp34
 70
     1
102
RTVSPropertyOp35
 70
     1
102
RTVSPropertyOp36
 70
     1
102
RTVSPropertyOp37
 70
     1
102
RTVSPropertyOp38
 70
     1
102
RTVSPropertyOp39
 70
     1
102
RTVSPropertyOp40
 70
     1
102
RTVSPropertyOp41
 70
     1
102
RTVSPropertyOp42
 70
     1
102
RTVSPropertyOp43
 70
     1
102
RTVSPropertyOp44
 70
     1
102
RTVSPropertyOp45
 70
     1
102
RTVSPropertyOp46
 70
     1
102
RTVSPropertyOp47
 70
     1
102
RTVSPropertyOp48
 70
     1
102
RTVSPropertyOp49
 70
     1
102
RTVSPropertyOp50
 70
     1
102
RTVSPropertyOp51
 70
     0
102
RTVSPropertyOp52
 70
     0
102
RTVSPropertyOp53
 70
     1
102
RTVSPropertyOp54
 70
     1
102
RTVSPropertyOp55
 70
     1
102
RTVSPropertyOp56
 70
     1
102
RTVSPropertyOp57
 70
     1
102
RTVSPropertyOp58
 70
     1
102
RTVSPropertyOp59
 70
     1
102
RTVSPropertyOp60
 70
     1
102
RTVSPropertyOp61
 70
     1
102
RTVSPropertyOp62
 70
     1
  0
XRECORD
  5
BBDC
102
{ACAD_REACTORS
330
BBDB
102
}
330
BBDB
100
AcDbXrecord
280
     1
102
RTVSPost2010Prop28
280
     0
102
RTVSPost2010PropOp28
 70
     1
102
RTVSPost2010Prop29
280
     1
102
RTVSPost2010PropOp29
 70
     1
102
RTVSPost2010Prop30
280
     1
102
RTVSPost2010PropOp30
 70
     1
102
RTVSPost2010Prop31
280
     0
102
RTVSPost2010PropOp31
 70
     1
102
RTVSPost2010Prop32
280
     0
102
RTVSPost2010PropOp32
 70
     1
102
RTVSPost2010Prop33
280
     0
102
RTVSPost2010PropOp33
 70
     1
102
RTVSPost2010Prop34
280
     0
102
RTVSPost2010PropOp34
 70
     1
102
RTVSPost2010Prop35
280
     0
102
RTVSPost2010PropOp35
 70
     1
102
RTVSPost2010Prop36
280
     0
102
RTVSPost2010PropOp36
 70
     1
102
RTVSPost2010Prop37
 90
       50
102
RTVSPost2010PropOp37
 70
     1
102
RTVSPost2010Prop38
140
0.0
102
RTVSPost2010PropOp38
 70
     1
102
RTVSPost2010Prop39
140
1.0
102
RTVSPost2010PropOp39
 70
     1
102
RTVSPost2010Prop40
 90
        0
102
RTVSPost2010PropOp40
 70
     1
102
RTVSPost2010Prop41ColorIndex
 90
       18
102
RTVSPost2010Prop41ColorRGB
 90
        0
102
RTVSPost2010PropOp41
 70
     1
102
RTVSPost2010Prop42
 90
       50
102
RTVSPost2010PropOp42
 70
     1
102
RTVSPost2010Prop43
 90
        3
102
RTVSPost2010PropOp43
 70
     1
102
RTVSPost2010Prop44ColorIndex
 90
        5
102
RTVSPost2010Prop44ColorRGB
 90
      255
102
RTVSPost2010PropOp44
 70
     1
102
RTVSPost2010Prop45
280
     0
102
RTVSPost2010PropOp45
 70
     1
102
RTVSPost2010Prop46
 90
       50
102
RTVSPost2010PropOp46
 70
     1
102
RTVSPost2010Prop47
 90
       50
102
RTVSPost2010PropOp47
 70
     1
102
RTVSPost2010Prop48
 90
       50
102
RTVSPost2010PropOp48
 70
     1
102
RTVSPost2010Prop49
280
     0
102
RTVSPost2010PropOp49
 70
     1
102
RTVSPost2010Prop50
 90
       50
102
RTVSPost2010PropOp50
 70
     1
102
RTVSPost2010Prop51ColorIndex
 90
      256
102
RTVSPost2010Prop51ColorRGB
 90
-16777216
102
RTVSPost2010PropOp51
 70
     0
102
RTVSPost2010Prop52
140
1.0
102
RTVSPost2010PropOp52
 70
     0
102
RTVSPost2010Prop53
 90
        2
102
RTVSPost2010PropOp53
 70
     1
102
RTVSPost2010Prop54
  1
strokes_ogs.tif
102
RTVSPost2010PropOp54
 70
     1
102
RTVSPost2010Prop55
280
     0
102
RTVSPost2010PropOp55
 70
     1
102
RTVSPost2010Prop56
140
1.0
102
RTVSPost2010PropOp56
 70
     1
102
RTVSPost2010Prop57
140
1.0
102
RTVSPost2010PropOp57
 70
     1
102
RTVSPropertyOp0
 70
     1
102
RTVSPropertyOp1
 70
     1
102
RTVSPropertyOp2
 70
     1
102
RTVSPropertyOp3
 70
     1
102
RTVSPropertyOp4
 70
     1
102
RTVSPropertyOp5
 70
     1
102
RTVSPropertyOp6
 70
     1
102
RTVSPropertyOp7
 70
     1
102
RTVSPropertyOp8
 70
     1
102
RTVSPropertyOp9
 70
     1
102
RTVSPropertyOp10
 70
     1
102
RTVSPropertyOp11
 70
     1
102
RTVSPropertyOp12
 70
     1
102
RTVSPropertyOp13
 70
     1
102
RTVSPropertyOp14
 70
     1
102
RTVSPropertyOp15
 70
     1
102
RTVSPropertyOp16
 70
     1
102
RTVSPropertyOp17
 70
     1
102
RTVSPropertyOp18
 70
     1
102
RTVSPropertyOp19
 70
     1
102
RTVSPropertyOp20
 70
     1
102
RTVSPropertyOp21
 70
     1
102
RTVSPropertyOp22
 70
     1
102
RTVSPropertyOp23
 70
     1
102
RTVSPropertyOp24
 70
     1
102
RTVSPropertyOp25
 70
     1
102
RTVSPropertyOp26
 70
     1
102
RTVSPropertyOp27
 70
     1
102
RTVSPropertyOp28
 70
     1
102
RTVSPropertyOp29
 70
     1
102
RTVSPropertyOp30
 70
     1
102
RTVSPropertyOp31
 70
     1
102
RTVSPropertyOp32
 70
     1
102
RTVSPropertyOp33
 70
     1
102
RTVSPropertyOp34
 70
     1
102
RTVSPropertyOp35
 70
     1
102
RTVSPropertyOp36
 70
     1
102
RTVSPropertyOp37
 70
     1
102
RTVSPropertyOp38
 70
     1
102
RTVSPropertyOp39
 70
     1
102
RTVSPropertyOp40
 70
     1
102
RTVSPropertyOp41
 70
     1
102
RTVSPropertyOp42
 70
     1
102
RTVSPropertyOp43
 70
     1
102
RTVSPropertyOp44
 70
     1
102
RTVSPropertyOp45
 70
     1
102
RTVSPropertyOp46
 70
     1
102
RTVSPropertyOp47
 70
     1
102
RTVSPropertyOp48
 70
     1
102
RTVSPropertyOp49
 70
     1
102
RTVSPropertyOp50
 70
     1
102
RTVSPropertyOp51
 70
     0
102
RTVSPropertyOp52
 70
     0
102
RTVSPropertyOp53
 70
     1
102
RTVSPropertyOp54
 70
     1
102
RTVSPropertyOp55
 70
     1
102
RTVSPropertyOp56
 70
     1
102
RTVSPropertyOp57
 70
     1
102
RTVSPropertyOp58
 70
     1
102
RTVSPropertyOp59
 70
     1
102
RTVSPropertyOp60
 70
     1
102
RTVSPropertyOp61
 70
     1
102
RTVSPropertyOp62
 70
     1
  0
XRECORD
  5
BBEE
102
{ACAD_REACTORS
330
BBED
102
}
330
BBED
100
AcDbXrecord
280
     1
102
RTVSPost2010Prop28
280
     0
102
RTVSPost2010PropOp28
 70
     1
102
RTVSPost2010Prop29
280
     1
102
RTVSPost2010PropOp29
 70
     1
102
RTVSPost2010Prop30
280
     1
102
RTVSPost2010PropOp30
 70
     1
102
RTVSPost2010Prop31
280
     0
102
RTVSPost2010PropOp31
 70
     1
102
RTVSPost2010Prop32
280
     0
102
RTVSPost2010PropOp32
 70
     1
102
RTVSPost2010Prop33
280
     0
102
RTVSPost2010PropOp33
 70
     1
102
RTVSPost2010Prop34
280
     0
102
RTVSPost2010PropOp34
 70
     1
102
RTVSPost2010Prop35
280
     0
102
RTVSPost2010PropOp35
 70
     1
102
RTVSPost2010Prop36
280
     0
102
RTVSPost2010PropOp36
 70
     1
102
RTVSPost2010Prop37
 90
       50
102
RTVSPost2010PropOp37
 70
     1
102
RTVSPost2010Prop38
140
0.0
102
RTVSPost2010PropOp38
 70
     1
102
RTVSPost2010Prop39
140
1.0
102
RTVSPost2010PropOp39
 70
     1
102
RTVSPost2010Prop40
 90
        0
102
RTVSPost2010PropOp40
 70
     1
102
RTVSPost2010Prop41ColorIndex
 90
       18
102
RTVSPost2010Prop41ColorRGB
 90
        0
102
RTVSPost2010PropOp41
 70
     1
102
RTVSPost2010Prop42
 90
       50
102
RTVSPost2010PropOp42
 70
     1
102
RTVSPost2010Prop43
 90
        3
102
RTVSPost2010PropOp43
 70
     1
102
RTVSPost2010Prop44ColorIndex
 90
        5
102
RTVSPost2010Prop44ColorRGB
 90
      255
102
RTVSPost2010PropOp44
 70
     1
102
RTVSPost2010Prop45
280
     0
102
RTVSPost2010PropOp45
 70
     1
102
RTVSPost2010Prop46
 90
       50
102
RTVSPost2010PropOp46
 70
     1
102
RTVSPost2010Prop47
 90
       50
102
RTVSPost2010PropOp47
 70
     1
102
RTVSPost2010Prop48
 90
       50
102
RTVSPost2010PropOp48
 70
     1
102
RTVSPost2010Prop49
280
     0
102
RTVSPost2010PropOp49
 70
     1
102
RTVSPost2010Prop50
 90
       50
102
RTVSPost2010PropOp50
 70
     1
102
RTVSPost2010Prop51ColorIndex
 90
      256
102
RTVSPost2010Prop51ColorRGB
 90
-16777216
102
RTVSPost2010PropOp51
 70
     0
102
RTVSPost2010Prop52
140
1.0
102
RTVSPost2010PropOp52
 70
     0
102
RTVSPost2010Prop53
 90
        2
102
RTVSPost2010PropOp53
 70
     1
102
RTVSPost2010Prop54
  1
strokes_ogs.tif
102
RTVSPost2010PropOp54
 70
     1
102
RTVSPost2010Prop55
280
     0
102
RTVSPost2010PropOp55
 70
     1
102
RTVSPost2010Prop56
140
1.0
102
RTVSPost2010PropOp56
 70
     1
102
RTVSPost2010Prop57
140
1.0
102
RTVSPost2010PropOp57
 70
     1
102
RTVSPropertyOp0
 70
     0
102
RTVSPropertyOp1
 70
     0
102
RTVSPropertyOp2
 70
     0
102
RTVSPropertyOp3
 70
     0
102
RTVSPropertyOp4
 70
     0
102
RTVSPropertyOp5
 70
     0
102
RTVSPropertyOp6
 70
     0
102
RTVSPropertyOp7
 70
     0
102
RTVSPropertyOp8
 70
     0
102
RTVSPropertyOp9
 70
     0
102
RTVSPropertyOp10
 70
     0
102
RTVSPropertyOp11
 70
     0
102
RTVSPropertyOp12
 70
     0
102
RTVSPropertyOp13
 70
     0
102
RTVSPropertyOp14
 70
     2
102
RTVSPropertyOp15
 70
     0
102
RTVSPropertyOp16
 70
     0
102
RTVSPropertyOp17
 70
     0
102
RTVSPropertyOp18
 70
     0
102
RTVSPropertyOp19
 70
     0
102
RTVSPropertyOp20
 70
     0
102
RTVSPropertyOp21
 70
     0
102
RTVSPropertyOp22
 70
     0
102
RTVSPropertyOp23
 70
     0
102
RTVSPropertyOp24
 70
     0
102
RTVSPropertyOp25
 70
     0
102
RTVSPropertyOp26
 70
     0
102
RTVSPropertyOp27
 70
     0
102
RTVSPropertyOp28
 70
     1
102
RTVSPropertyOp29
 70
     1
102
RTVSPropertyOp30
 70
     1
102
RTVSPropertyOp31
 70
     1
102
RTVSPropertyOp32
 70
     1
102
RTVSPropertyOp33
 70
     1
102
RTVSPropertyOp34
 70
     1
102
RTVSPropertyOp35
 70
     1
102
RTVSPropertyOp36
 70
     1
102
RTVSPropertyOp37
 70
     1
102
RTVSPropertyOp38
 70
     1
102
RTVSPropertyOp39
 70
     1
102
RTVSPropertyOp40
 70
     1
102
RTVSPropertyOp41
 70
     1
102
RTVSPropertyOp42
 70
     1
102
RTVSPropertyOp43
 70
     1
102
RTVSPropertyOp44
 70
     1
102
RTVSPropertyOp45
 70
     1
102
RTVSPropertyOp46
 70
     1
102
RTVSPropertyOp47
 70
     1
102
RTVSPropertyOp48
 70
     1
102
RTVSPropertyOp49
 70
     1
102
RTVSPropertyOp50
 70
     1
102
RTVSPropertyOp51
 70
     0
102
RTVSPropertyOp52
 70
     0
102
RTVSPropertyOp53
 70
     1
102
RTVSPropertyOp54
 70
     1
102
RTVSPropertyOp55
 70
     1
102
RTVSPropertyOp56
 70
     1
102
RTVSPropertyOp57
 70
     1
102
RTVSPropertyOp58
 70
     1
102
RTVSPropertyOp59
 70
     1
102
RTVSPropertyOp60
 70
     1
102
RTVSPropertyOp61
 70
     1
102
RTVSPropertyOp62
 70
     1
  0
XRECORD
  5
BBE4
102
{ACAD_REACTORS
330
BBE3
102
}
330
BBE3
100
AcDbXrecord
280
     1
102
RTVSPost2010Prop28
280
     0
102
RTVSPost2010PropOp28
 70
     1
102
RTVSPost2010Prop29
280
     1
102
RTVSPost2010PropOp29
 70
     1
102
RTVSPost2010Prop30
280
     1
102
RTVSPost2010PropOp30
 70
     1
102
RTVSPost2010Prop31
280
     0
102
RTVSPost2010PropOp31
 70
     1
102
RTVSPost2010Prop32
280
     0
102
RTVSPost2010PropOp32
 70
     1
102
RTVSPost2010Prop33
280
     0
102
RTVSPost2010PropOp33
 70
     1
102
RTVSPost2010Prop34
280
     0
102
RTVSPost2010PropOp34
 70
     1
102
RTVSPost2010Prop35
280
     0
102
RTVSPost2010PropOp35
 70
     1
102
RTVSPost2010Prop36
280
     0
102
RTVSPost2010PropOp36
 70
     1
102
RTVSPost2010Prop37
 90
       50
102
RTVSPost2010PropOp37
 70
     1
102
RTVSPost2010Prop38
140
0.0
102
RTVSPost2010PropOp38
 70
     1
102
RTVSPost2010Prop39
140
1.0
102
RTVSPost2010PropOp39
 70
     1
102
RTVSPost2010Prop40
 90
        0
102
RTVSPost2010PropOp40
 70
     1
102
RTVSPost2010Prop41ColorIndex
 90
       18
102
RTVSPost2010Prop41ColorRGB
 90
        0
102
RTVSPost2010PropOp41
 70
     1
102
RTVSPost2010Prop42
 90
       50
102
RTVSPost2010PropOp42
 70
     1
102
RTVSPost2010Prop43
 90
        3
102
RTVSPost2010PropOp43
 70
     1
102
RTVSPost2010Prop44ColorIndex
 90
        5
102
RTVSPost2010Prop44ColorRGB
 90
      255
102
RTVSPost2010PropOp44
 70
     1
102
RTVSPost2010Prop45
280
     0
102
RTVSPost2010PropOp45
 70
     1
102
RTVSPost2010Prop46
 90
       50
102
RTVSPost2010PropOp46
 70
     1
102
RTVSPost2010Prop47
 90
       50
102
RTVSPost2010PropOp47
 70
     1
102
RTVSPost2010Prop48
 90
       50
102
RTVSPost2010PropOp48
 70
     1
102
RTVSPost2010Prop49
280
     0
102
RTVSPost2010PropOp49
 70
     1
102
RTVSPost2010Prop50
 90
       50
102
RTVSPost2010PropOp50
 70
     1
102
RTVSPost2010Prop51ColorIndex
 90
      256
102
RTVSPost2010Prop51ColorRGB
 90
-16777216
102
RTVSPost2010PropOp51
 70
     0
102
RTVSPost2010Prop52
140
1.0
102
RTVSPost2010PropOp52
 70
     0
102
RTVSPost2010Prop53
 90
        2
102
RTVSPost2010PropOp53
 70
     1
102
RTVSPost2010Prop54
  1
strokes_ogs.tif
102
RTVSPost2010PropOp54
 70
     1
102
RTVSPost2010Prop55
280
     0
102
RTVSPost2010PropOp55
 70
     1
102
RTVSPost2010Prop56
140
1.0
102
RTVSPost2010PropOp56
 70
     1
102
RTVSPost2010Prop57
140
1.0
102
RTVSPost2010PropOp57
 70
     1
102
RTVSPropertyOp0
 70
     1
102
RTVSPropertyOp1
 70
     1
102
RTVSPropertyOp2
 70
     1
102
RTVSPropertyOp3
 70
     1
102
RTVSPropertyOp4
 70
     1
102
RTVSPropertyOp5
 70
     1
102
RTVSPropertyOp6
 70
     1
102
RTVSPropertyOp7
 70
     1
102
RTVSPropertyOp8
 70
     1
102
RTVSPropertyOp9
 70
     1
102
RTVSPropertyOp10
 70
     1
102
RTVSPropertyOp11
 70
     1
102
RTVSPropertyOp12
 70
     1
102
RTVSPropertyOp13
 70
     1
102
RTVSPropertyOp14
 70
     1
102
RTVSPropertyOp15
 70
     1
102
RTVSPropertyOp16
 70
     1
102
RTVSPropertyOp17
 70
     1
102
RTVSPropertyOp18
 70
     1
102
RTVSPropertyOp19
 70
     1
102
RTVSPropertyOp20
 70
     1
102
RTVSPropertyOp21
 70
     1
102
RTVSPropertyOp22
 70
     1
102
RTVSPropertyOp23
 70
     1
102
RTVSPropertyOp24
 70
     1
102
RTVSPropertyOp25
 70
     1
102
RTVSPropertyOp26
 70
     1
102
RTVSPropertyOp27
 70
     1
102
RTVSPropertyOp28
 70
     1
102
RTVSPropertyOp29
 70
     1
102
RTVSPropertyOp30
 70
     1
102
RTVSPropertyOp31
 70
     1
102
RTVSPropertyOp32
 70
     1
102
RTVSPropertyOp33
 70
     1
102
RTVSPropertyOp34
 70
     1
102
RTVSPropertyOp35
 70
     1
102
RTVSPropertyOp36
 70
     1
102
RTVSPropertyOp37
 70
     1
102
RTVSPropertyOp38
 70
     1
102
RTVSPropertyOp39
 70
     1
102
RTVSPropertyOp40
 70
     1
102
RTVSPropertyOp41
 70
     1
102
RTVSPropertyOp42
 70
     1
102
RTVSPropertyOp43
 70
     1
102
RTVSPropertyOp44
 70
     1
102
RTVSPropertyOp45
 70
     1
102
RTVSPropertyOp46
 70
     1
102
RTVSPropertyOp47
 70
     1
102
RTVSPropertyOp48
 70
     1
102
RTVSPropertyOp49
 70
     1
102
RTVSPropertyOp50
 70
     1
102
RTVSPropertyOp51
 70
     0
102
RTVSPropertyOp52
 70
     0
102
RTVSPropertyOp53
 70
     1
102
RTVSPropertyOp54
 70
     1
102
RTVSPropertyOp55
 70
     1
102
RTVSPropertyOp56
 70
     1
102
RTVSPropertyOp57
 70
     1
102
RTVSPropertyOp58
 70
     1
102
RTVSPropertyOp59
 70
     1
102
RTVSPropertyOp60
 70
     1
102
RTVSPropertyOp61
 70
     1
102
RTVSPropertyOp62
 70
     1
  0
XRECORD
  5
BBC8
102
{ACAD_REACTORS
330
BBC7
102
}
330
BBC7
100
AcDbXrecord
280
     1
102
RTVSPost2010Prop28
280
     0
102
RTVSPost2010PropOp28
 70
     1
102
RTVSPost2010Prop29
280
     1
102
RTVSPost2010PropOp29
 70
     1
102
RTVSPost2010Prop30
280
     1
102
RTVSPost2010PropOp30
 70
     1
102
RTVSPost2010Prop31
280
     0
102
RTVSPost2010PropOp31
 70
     1
102
RTVSPost2010Prop32
280
     0
102
RTVSPost2010PropOp32
 70
     1
102
RTVSPost2010Prop33
280
     0
102
RTVSPost2010PropOp33
 70
     1
102
RTVSPost2010Prop34
280
     0
102
RTVSPost2010PropOp34
 70
     1
102
RTVSPost2010Prop35
280
     0
102
RTVSPost2010PropOp35
 70
     1
102
RTVSPost2010Prop36
280
     0
102
RTVSPost2010PropOp36
 70
     1
102
RTVSPost2010Prop37
 90
       50
102
RTVSPost2010PropOp37
 70
     1
102
RTVSPost2010Prop38
140
0.0
102
RTVSPost2010PropOp38
 70
     1
102
RTVSPost2010Prop39
140
1.0
102
RTVSPost2010PropOp39
 70
     1
102
RTVSPost2010Prop40
 90
        0
102
RTVSPost2010PropOp40
 70
     1
102
RTVSPost2010Prop41ColorIndex
 90
       18
102
RTVSPost2010Prop41ColorRGB
 90
        0
102
RTVSPost2010PropOp41
 70
     1
102
RTVSPost2010Prop42
 90
       50
102
RTVSPost2010PropOp42
 70
     1
102
RTVSPost2010Prop43
 90
        3
102
RTVSPost2010PropOp43
 70
     1
102
RTVSPost2010Prop44ColorIndex
 90
        5
102
RTVSPost2010Prop44ColorRGB
 90
      255
102
RTVSPost2010PropOp44
 70
     1
102
RTVSPost2010Prop45
280
     0
102
RTVSPost2010PropOp45
 70
     1
102
RTVSPost2010Prop46
 90
       50
102
RTVSPost2010PropOp46
 70
     1
102
RTVSPost2010Prop47
 90
       50
102
RTVSPost2010PropOp47
 70
     1
102
RTVSPost2010Prop48
 90
       50
102
RTVSPost2010PropOp48
 70
     1
102
RTVSPost2010Prop49
280
     0
102
RTVSPost2010PropOp49
 70
     1
102
RTVSPost2010Prop50
 90
       50
102
RTVSPost2010PropOp50
 70
     1
102
RTVSPost2010Prop51ColorIndex
 90
      256
102
RTVSPost2010Prop51ColorRGB
 90
-16777216
102
RTVSPost2010PropOp51
 70
     0
102
RTVSPost2010Prop52
140
1.0
102
RTVSPost2010PropOp52
 70
     0
102
RTVSPost2010Prop53
 90
        2
102
RTVSPost2010PropOp53
 70
     1
102
RTVSPost2010Prop54
  1
strokes_ogs.tif
102
RTVSPost2010PropOp54
 70
     1
102
RTVSPost2010Prop55
280
     0
102
RTVSPost2010PropOp55
 70
     1
102
RTVSPost2010Prop56
140
1.0
102
RTVSPost2010PropOp56
 70
     1
102
RTVSPost2010Prop57
140
1.0
102
RTVSPost2010PropOp57
 70
     1
102
RTVSPropertyOp0
 70
     1
102
RTVSPropertyOp1
 70
     1
102
RTVSPropertyOp2
 70
     1
102
RTVSPropertyOp3
 70
     1
102
RTVSPropertyOp4
 70
     1
102
RTVSPropertyOp5
 70
     1
102
RTVSPropertyOp6
 70
     1
102
RTVSPropertyOp7
 70
     1
102
RTVSPropertyOp8
 70
     1
102
RTVSPropertyOp9
 70
     1
102
RTVSPropertyOp10
 70
     1
102
RTVSPropertyOp11
 70
     1
102
RTVSPropertyOp12
 70
     1
102
RTVSPropertyOp13
 70
     1
102
RTVSPropertyOp14
 70
     1
102
RTVSPropertyOp15
 70
     1
102
RTVSPropertyOp16
 70
     1
102
RTVSPropertyOp17
 70
     1
102
RTVSPropertyOp18
 70
     1
102
RTVSPropertyOp19
 70
     1
102
RTVSPropertyOp20
 70
     1
102
RTVSPropertyOp21
 70
     1
102
RTVSPropertyOp22
 70
     1
102
RTVSPropertyOp23
 70
     1
102
RTVSPropertyOp24
 70
     1
102
RTVSPropertyOp25
 70
     1
102
RTVSPropertyOp26
 70
     1
102
RTVSPropertyOp27
 70
     1
102
RTVSPropertyOp28
 70
     1
102
RTVSPropertyOp29
 70
     1
102
RTVSPropertyOp30
 70
     1
102
RTVSPropertyOp31
 70
     1
102
RTVSPropertyOp32
 70
     1
102
RTVSPropertyOp33
 70
     1
102
RTVSPropertyOp34
 70
     1
102
RTVSPropertyOp35
 70
     1
102
RTVSPropertyOp36
 70
     1
102
RTVSPropertyOp37
 70
     1
102
RTVSPropertyOp38
 70
     1
102
RTVSPropertyOp39
 70
     1
102
RTVSPropertyOp40
 70
     1
102
RTVSPropertyOp41
 70
     1
102
RTVSPropertyOp42
 70
     1
102
RTVSPropertyOp43
 70
     1
102
RTVSPropertyOp44
 70
     1
102
RTVSPropertyOp45
 70
     1
102
RTVSPropertyOp46
 70
     1
102
RTVSPropertyOp47
 70
     1
102
RTVSPropertyOp48
 70
     1
102
RTVSPropertyOp49
 70
     1
102
RTVSPropertyOp50
 70
     1
102
RTVSPropertyOp51
 70
     0
102
RTVSPropertyOp52
 70
     0
102
RTVSPropertyOp53
 70
     1
102
RTVSPropertyOp54
 70
     1
102
RTVSPropertyOp55
 70
     1
102
RTVSPropertyOp56
 70
     1
102
RTVSPropertyOp57
 70
     1
102
RTVSPropertyOp58
 70
     1
102
RTVSPropertyOp59
 70
     1
102
RTVSPropertyOp60
 70
     1
102
RTVSPropertyOp61
 70
     1
102
RTVSPropertyOp62
 70
     1
  0
XRECORD
  5
BBCA
102
{ACAD_REACTORS
330
BBC9
102
}
330
BBC9
100
AcDbXrecord
280
     1
102
RTVSPost2010Prop28
280
     0
102
RTVSPost2010PropOp28
 70
     1
102
RTVSPost2010Prop29
280
     1
102
RTVSPost2010PropOp29
 70
     1
102
RTVSPost2010Prop30
280
     1
102
RTVSPost2010PropOp30
 70
     1
102
RTVSPost2010Prop31
280
     0
102
RTVSPost2010PropOp31
 70
     1
102
RTVSPost2010Prop32
280
     0
102
RTVSPost2010PropOp32
 70
     1
102
RTVSPost2010Prop33
280
     0
102
RTVSPost2010PropOp33
 70
     1
102
RTVSPost2010Prop34
280
     0
102
RTVSPost2010PropOp34
 70
     1
102
RTVSPost2010Prop35
280
     0
102
RTVSPost2010PropOp35
 70
     1
102
RTVSPost2010Prop36
280
     0
102
RTVSPost2010PropOp36
 70
     1
102
RTVSPost2010Prop37
 90
       50
102
RTVSPost2010PropOp37
 70
     1
102
RTVSPost2010Prop38
140
0.0
102
RTVSPost2010PropOp38
 70
     1
102
RTVSPost2010Prop39
140
1.0
102
RTVSPost2010PropOp39
 70
     1
102
RTVSPost2010Prop40
 90
        0
102
RTVSPost2010PropOp40
 70
     1
102
RTVSPost2010Prop41ColorIndex
 90
       18
102
RTVSPost2010Prop41ColorRGB
 90
        0
102
RTVSPost2010PropOp41
 70
     1
102
RTVSPost2010Prop42
 90
       50
102
RTVSPost2010PropOp42
 70
     1
102
RTVSPost2010Prop43
 90
        3
102
RTVSPost2010PropOp43
 70
     1
102
RTVSPost2010Prop44ColorIndex
 90
        5
102
RTVSPost2010Prop44ColorRGB
 90
      255
102
RTVSPost2010PropOp44
 70
     1
102
RTVSPost2010Prop45
280
     0
102
RTVSPost2010PropOp45
 70
     1
102
RTVSPost2010Prop46
 90
       50
102
RTVSPost2010PropOp46
 70
     1
102
RTVSPost2010Prop47
 90
       50
102
RTVSPost2010PropOp47
 70
     1
102
RTVSPost2010Prop48
 90
       50
102
RTVSPost2010PropOp48
 70
     1
102
RTVSPost2010Prop49
280
     0
102
RTVSPost2010PropOp49
 70
     1
102
RTVSPost2010Prop50
 90
       50
102
RTVSPost2010PropOp50
 70
     1
102
RTVSPost2010Prop51ColorIndex
 90
      256
102
RTVSPost2010Prop51ColorRGB
 90
-16777216
102
RTVSPost2010PropOp51
 70
     0
102
RTVSPost2010Prop52
140
1.0
102
RTVSPost2010PropOp52
 70
     0
102
RTVSPost2010Prop53
 90
        2
102
RTVSPost2010PropOp53
 70
     1
102
RTVSPost2010Prop54
  1
strokes_ogs.tif
102
RTVSPost2010PropOp54
 70
     1
102
RTVSPost2010Prop55
280
     0
102
RTVSPost2010PropOp55
 70
     1
102
RTVSPost2010Prop56
140
1.0
102
RTVSPost2010PropOp56
 70
     1
102
RTVSPost2010Prop57
140
1.0
102
RTVSPost2010PropOp57
 70
     1
102
RTVSPropertyOp0
 70
     1
102
RTVSPropertyOp1
 70
     1
102
RTVSPropertyOp2
 70
     1
102
RTVSPropertyOp3
 70
     1
102
RTVSPropertyOp4
 70
     1
102
RTVSPropertyOp5
 70
     1
102
RTVSPropertyOp6
 70
     1
102
RTVSPropertyOp7
 70
     1
102
RTVSPropertyOp8
 70
     1
102
RTVSPropertyOp9
 70
     1
102
RTVSPropertyOp10
 70
     1
102
RTVSPropertyOp11
 70
     1
102
RTVSPropertyOp12
 70
     1
102
RTVSPropertyOp13
 70
     1
102
RTVSPropertyOp14
 70
     1
102
RTVSPropertyOp15
 70
     1
102
RTVSPropertyOp16
 70
     1
102
RTVSPropertyOp17
 70
     1
102
RTVSPropertyOp18
 70
     1
102
RTVSPropertyOp19
 70
     1
102
RTVSPropertyOp20
 70
     1
102
RTVSPropertyOp21
 70
     1
102
RTVSPropertyOp22
 70
     1
102
RTVSPropertyOp23
 70
     1
102
RTVSPropertyOp24
 70
     1
102
RTVSPropertyOp25
 70
     1
102
RTVSPropertyOp26
 70
     1
102
RTVSPropertyOp27
 70
     1
102
RTVSPropertyOp28
 70
     1
102
RTVSPropertyOp29
 70
     1
102
RTVSPropertyOp30
 70
     1
102
RTVSPropertyOp31
 70
     1
102
RTVSPropertyOp32
 70
     1
102
RTVSPropertyOp33
 70
     1
102
RTVSPropertyOp34
 70
     1
102
RTVSPropertyOp35
 70
     1
102
RTVSPropertyOp36
 70
     1
102
RTVSPropertyOp37
 70
     1
102
RTVSPropertyOp38
 70
     1
102
RTVSPropertyOp39
 70
     1
102
RTVSPropertyOp40
 70
     1
102
RTVSPropertyOp41
 70
     1
102
RTVSPropertyOp42
 70
     1
102
RTVSPropertyOp43
 70
     1
102
RTVSPropertyOp44
 70
     1
102
RTVSPropertyOp45
 70
     1
102
RTVSPropertyOp46
 70
     1
102
RTVSPropertyOp47
 70
     1
102
RTVSPropertyOp48
 70
     1
102
RTVSPropertyOp49
 70
     1
102
RTVSPropertyOp50
 70
     1
102
RTVSPropertyOp51
 70
     0
102
RTVSPropertyOp52
 70
     0
102
RTVSPropertyOp53
 70
     1
102
RTVSPropertyOp54
 70
     1
102
RTVSPropertyOp55
 70
     1
102
RTVSPropertyOp56
 70
     1
102
RTVSPropertyOp57
 70
     1
102
RTVSPropertyOp58
 70
     1
102
RTVSPropertyOp59
 70
     1
102
RTVSPropertyOp60
 70
     1
102
RTVSPropertyOp61
 70
     1
102
RTVSPropertyOp62
 70
     1
  0
XRECORD
  5
BBCC
102
{ACAD_REACTORS
330
BBCB
102
}
330
BBCB
100
AcDbXrecord
280
     1
102
RTVSPost2010Prop28
280
     0
102
RTVSPost2010PropOp28
 70
     1
102
RTVSPost2010Prop29
280
     1
102
RTVSPost2010PropOp29
 70
     1
102
RTVSPost2010Prop30
280
     1
102
RTVSPost2010PropOp30
 70
     1
102
RTVSPost2010Prop31
280
     0
102
RTVSPost2010PropOp31
 70
     1
102
RTVSPost2010Prop32
280
     0
102
RTVSPost2010PropOp32
 70
     1
102
RTVSPost2010Prop33
280
     0
102
RTVSPost2010PropOp33
 70
     1
102
RTVSPost2010Prop34
280
     0
102
RTVSPost2010PropOp34
 70
     1
102
RTVSPost2010Prop35
280
     0
102
RTVSPost2010PropOp35
 70
     1
102
RTVSPost2010Prop36
280
     0
102
RTVSPost2010PropOp36
 70
     1
102
RTVSPost2010Prop37
 90
       50
102
RTVSPost2010PropOp37
 70
     1
102
RTVSPost2010Prop38
140
0.0
102
RTVSPost2010PropOp38
 70
     1
102
RTVSPost2010Prop39
140
1.0
102
RTVSPost2010PropOp39
 70
     1
102
RTVSPost2010Prop40
 90
        0
102
RTVSPost2010PropOp40
 70
     1
102
RTVSPost2010Prop41ColorIndex
 90
       18
102
RTVSPost2010Prop41ColorRGB
 90
        0
102
RTVSPost2010PropOp41
 70
     1
102
RTVSPost2010Prop42
 90
       50
102
RTVSPost2010PropOp42
 70
     1
102
RTVSPost2010Prop43
 90
        3
102
RTVSPost2010PropOp43
 70
     1
102
RTVSPost2010Prop44ColorIndex
 90
        5
102
RTVSPost2010Prop44ColorRGB
 90
      255
102
RTVSPost2010PropOp44
 70
     1
102
RTVSPost2010Prop45
280
     0
102
RTVSPost2010PropOp45
 70
     1
102
RTVSPost2010Prop46
 90
       50
102
RTVSPost2010PropOp46
 70
     1
102
RTVSPost2010Prop47
 90
       50
102
RTVSPost2010PropOp47
 70
     1
102
RTVSPost2010Prop48
 90
       50
102
RTVSPost2010PropOp48
 70
     1
102
RTVSPost2010Prop49
280
     0
102
RTVSPost2010PropOp49
 70
     1
102
RTVSPost2010Prop50
 90
       50
102
RTVSPost2010PropOp50
 70
     1
102
RTVSPost2010Prop51ColorIndex
 90
      256
102
RTVSPost2010Prop51ColorRGB
 90
-16777216
102
RTVSPost2010PropOp51
 70
     0
102
RTVSPost2010Prop52
140
1.0
102
RTVSPost2010PropOp52
 70
     0
102
RTVSPost2010Prop53
 90
        2
102
RTVSPost2010PropOp53
 70
     1
102
RTVSPost2010Prop54
  1
strokes_ogs.tif
102
RTVSPost2010PropOp54
 70
     1
102
RTVSPost2010Prop55
280
     0
102
RTVSPost2010PropOp55
 70
     1
102
RTVSPost2010Prop56
140
1.0
102
RTVSPost2010PropOp56
 70
     1
102
RTVSPost2010Prop57
140
1.0
102
RTVSPost2010PropOp57
 70
     1
102
RTVSPropertyOp0
 70
     1
102
RTVSPropertyOp1
 70
     1
102
RTVSPropertyOp2
 70
     1
102
RTVSPropertyOp3
 70
     1
102
RTVSPropertyOp4
 70
     1
102
RTVSPropertyOp5
 70
     1
102
RTVSPropertyOp6
 70
     1
102
RTVSPropertyOp7
 70
     1
102
RTVSPropertyOp8
 70
     1
102
RTVSPropertyOp9
 70
     1
102
RTVSPropertyOp10
 70
     1
102
RTVSPropertyOp11
 70
     1
102
RTVSPropertyOp12
 70
     1
102
RTVSPropertyOp13
 70
     1
102
RTVSPropertyOp14
 70
     1
102
RTVSPropertyOp15
 70
     1
102
RTVSPropertyOp16
 70
     1
102
RTVSPropertyOp17
 70
     1
102
RTVSPropertyOp18
 70
     1
102
RTVSPropertyOp19
 70
     1
102
RTVSPropertyOp20
 70
     1
102
RTVSPropertyOp21
 70
     1
102
RTVSPropertyOp22
 70
     1
102
RTVSPropertyOp23
 70
     1
102
RTVSPropertyOp24
 70
     1
102
RTVSPropertyOp25
 70
     1
102
RTVSPropertyOp26
 70
     1
102
RTVSPropertyOp27
 70
     1
102
RTVSPropertyOp28
 70
     1
102
RTVSPropertyOp29
 70
     1
102
RTVSPropertyOp30
 70
     1
102
RTVSPropertyOp31
 70
     1
102
RTVSPropertyOp32
 70
     1
102
RTVSPropertyOp33
 70
     1
102
RTVSPropertyOp34
 70
     1
102
RTVSPropertyOp35
 70
     1
102
RTVSPropertyOp36
 70
     1
102
RTVSPropertyOp37
 70
     1
102
RTVSPropertyOp38
 70
     1
102
RTVSPropertyOp39
 70
     1
102
RTVSPropertyOp40
 70
     1
102
RTVSPropertyOp41
 70
     1
102
RTVSPropertyOp42
 70
     1
102
RTVSPropertyOp43
 70
     1
102
RTVSPropertyOp44
 70
     1
102
RTVSPropertyOp45
 70
     1
102
RTVSPropertyOp46
 70
     1
102
RTVSPropertyOp47
 70
     1
102
RTVSPropertyOp48
 70
     1
102
RTVSPropertyOp49
 70
     1
102
RTVSPropertyOp50
 70
     1
102
RTVSPropertyOp51
 70
     0
102
RTVSPropertyOp52
 70
     0
102
RTVSPropertyOp53
 70
     1
102
RTVSPropertyOp54
 70
     1
102
RTVSPropertyOp55
 70
     1
102
RTVSPropertyOp56
 70
     1
102
RTVSPropertyOp57
 70
     1
102
RTVSPropertyOp58
 70
     1
102
RTVSPropertyOp59
 70
     1
102
RTVSPropertyOp60
 70
     1
102
RTVSPropertyOp61
 70
     1
102
RTVSPropertyOp62
 70
     1
  0
XRECORD
  5
BBCE
102
{ACAD_REACTORS
330
BBCD
102
}
330
BBCD
100
AcDbXrecord
280
     1
102
RTVSPost2010Prop28
280
     0
102
RTVSPost2010PropOp28
 70
     1
102
RTVSPost2010Prop29
280
     1
102
RTVSPost2010PropOp29
 70
     1
102
RTVSPost2010Prop30
280
     1
102
RTVSPost2010PropOp30
 70
     1
102
RTVSPost2010Prop31
280
     0
102
RTVSPost2010PropOp31
 70
     1
102
RTVSPost2010Prop32
280
     0
102
RTVSPost2010PropOp32
 70
     1
102
RTVSPost2010Prop33
280
     0
102
RTVSPost2010PropOp33
 70
     1
102
RTVSPost2010Prop34
280
     0
102
RTVSPost2010PropOp34
 70
     1
102
RTVSPost2010Prop35
280
     0
102
RTVSPost2010PropOp35
 70
     1
102
RTVSPost2010Prop36
280
     0
102
RTVSPost2010PropOp36
 70
     1
102
RTVSPost2010Prop37
 90
       50
102
RTVSPost2010PropOp37
 70
     1
102
RTVSPost2010Prop38
140
0.0
102
RTVSPost2010PropOp38
 70
     1
102
RTVSPost2010Prop39
140
1.0
102
RTVSPost2010PropOp39
 70
     1
102
RTVSPost2010Prop40
 90
        0
102
RTVSPost2010PropOp40
 70
     1
102
RTVSPost2010Prop41ColorIndex
 90
       18
102
RTVSPost2010Prop41ColorRGB
 90
        0
102
RTVSPost2010PropOp41
 70
     1
102
RTVSPost2010Prop42
 90
       50
102
RTVSPost2010PropOp42
 70
     1
102
RTVSPost2010Prop43
 90
        3
102
RTVSPost2010PropOp43
 70
     1
102
RTVSPost2010Prop44ColorIndex
 90
        5
102
RTVSPost2010Prop44ColorRGB
 90
      255
102
RTVSPost2010PropOp44
 70
     1
102
RTVSPost2010Prop45
280
     0
102
RTVSPost2010PropOp45
 70
     1
102
RTVSPost2010Prop46
 90
       50
102
RTVSPost2010PropOp46
 70
     1
102
RTVSPost2010Prop47
 90
       50
102
RTVSPost2010PropOp47
 70
     1
102
RTVSPost2010Prop48
 90
       50
102
RTVSPost2010PropOp48
 70
     1
102
RTVSPost2010Prop49
280
     0
102
RTVSPost2010PropOp49
 70
     1
102
RTVSPost2010Prop50
 90
       50
102
RTVSPost2010PropOp50
 70
     1
102
RTVSPost2010Prop51ColorIndex
 90
      256
102
RTVSPost2010Prop51ColorRGB
 90
-16777216
102
RTVSPost2010PropOp51
 70
     0
102
RTVSPost2010Prop52
140
1.0
102
RTVSPost2010PropOp52
 70
     0
102
RTVSPost2010Prop53
 90
        2
102
RTVSPost2010PropOp53
 70
     1
102
RTVSPost2010Prop54
  1
strokes_ogs.tif
102
RTVSPost2010PropOp54
 70
     1
102
RTVSPost2010Prop55
280
     0
102
RTVSPost2010PropOp55
 70
     1
102
RTVSPost2010Prop56
140
1.0
102
RTVSPost2010PropOp56
 70
     1
102
RTVSPost2010Prop57
140
1.0
102
RTVSPost2010PropOp57
 70
     1
102
RTVSPropertyOp0
 70
     1
102
RTVSPropertyOp1
 70
     1
102
RTVSPropertyOp2
 70
     1
102
RTVSPropertyOp3
 70
     1
102
RTVSPropertyOp4
 70
     1
102
RTVSPropertyOp5
 70
     1
102
RTVSPropertyOp6
 70
     1
102
RTVSPropertyOp7
 70
     1
102
RTVSPropertyOp8
 70
     1
102
RTVSPropertyOp9
 70
     1
102
RTVSPropertyOp10
 70
     1
102
RTVSPropertyOp11
 70
     1
102
RTVSPropertyOp12
 70
     1
102
RTVSPropertyOp13
 70
     1
102
RTVSPropertyOp14
 70
     1
102
RTVSPropertyOp15
 70
     1
102
RTVSPropertyOp16
 70
     1
102
RTVSPropertyOp17
 70
     1
102
RTVSPropertyOp18
 70
     1
102
RTVSPropertyOp19
 70
     1
102
RTVSPropertyOp20
 70
     1
102
RTVSPropertyOp21
 70
     1
102
RTVSPropertyOp22
 70
     1
102
RTVSPropertyOp23
 70
     1
102
RTVSPropertyOp24
 70
     1
102
RTVSPropertyOp25
 70
     1
102
RTVSPropertyOp26
 70
     1
102
RTVSPropertyOp27
 70
     1
102
RTVSPropertyOp28
 70
     1
102
RTVSPropertyOp29
 70
     1
102
RTVSPropertyOp30
 70
     1
102
RTVSPropertyOp31
 70
     1
102
RTVSPropertyOp32
 70
     1
102
RTVSPropertyOp33
 70
     1
102
RTVSPropertyOp34
 70
     1
102
RTVSPropertyOp35
 70
     1
102
RTVSPropertyOp36
 70
     1
102
RTVSPropertyOp37
 70
     1
102
RTVSPropertyOp38
 70
     1
102
RTVSPropertyOp39
 70
     1
102
RTVSPropertyOp40
 70
     1
102
RTVSPropertyOp41
 70
     1
102
RTVSPropertyOp42
 70
     1
102
RTVSPropertyOp43
 70
     1
102
RTVSPropertyOp44
 70
     1
102
RTVSPropertyOp45
 70
     1
102
RTVSPropertyOp46
 70
     1
102
RTVSPropertyOp47
 70
     1
102
RTVSPropertyOp48
 70
     1
102
RTVSPropertyOp49
 70
     1
102
RTVSPropertyOp50
 70
     1
102
RTVSPropertyOp51
 70
     0
102
RTVSPropertyOp52
 70
     0
102
RTVSPropertyOp53
 70
     1
102
RTVSPropertyOp54
 70
     1
102
RTVSPropertyOp55
 70
     1
102
RTVSPropertyOp56
 70
     1
102
RTVSPropertyOp57
 70
     1
102
RTVSPropertyOp58
 70
     1
102
RTVSPropertyOp59
 70
     1
102
RTVSPropertyOp60
 70
     1
102
RTVSPropertyOp61
 70
     1
102
RTVSPropertyOp62
 70
     1
  0
XRECORD
  5
BBD6
102
{ACAD_REACTORS
330
BBD5
102
}
330
BBD5
100
AcDbXrecord
280
     1
102
RTVSPost2010Prop28
280
     0
102
RTVSPost2010PropOp28
 70
     1
102
RTVSPost2010Prop29
280
     1
102
RTVSPost2010PropOp29
 70
     1
102
RTVSPost2010Prop30
280
     1
102
RTVSPost2010PropOp30
 70
     1
102
RTVSPost2010Prop31
280
     0
102
RTVSPost2010PropOp31
 70
     1
102
RTVSPost2010Prop32
280
     0
102
RTVSPost2010PropOp32
 70
     1
102
RTVSPost2010Prop33
280
     0
102
RTVSPost2010PropOp33
 70
     1
102
RTVSPost2010Prop34
280
     0
102
RTVSPost2010PropOp34
 70
     1
102
RTVSPost2010Prop35
280
     0
102
RTVSPost2010PropOp35
 70
     1
102
RTVSPost2010Prop36
280
     0
102
RTVSPost2010PropOp36
 70
     1
102
RTVSPost2010Prop37
 90
       50
102
RTVSPost2010PropOp37
 70
     1
102
RTVSPost2010Prop38
140
0.0
102
RTVSPost2010PropOp38
 70
     1
102
RTVSPost2010Prop39
140
1.0
102
RTVSPost2010PropOp39
 70
     1
102
RTVSPost2010Prop40
 90
        0
102
RTVSPost2010PropOp40
 70
     1
102
RTVSPost2010Prop41ColorIndex
 90
       18
102
RTVSPost2010Prop41ColorRGB
 90
        0
102
RTVSPost2010PropOp41
 70
     1
102
RTVSPost2010Prop42
 90
       50
102
RTVSPost2010PropOp42
 70
     1
102
RTVSPost2010Prop43
 90
        3
102
RTVSPost2010PropOp43
 70
     1
102
RTVSPost2010Prop44ColorIndex
 90
        5
102
RTVSPost2010Prop44ColorRGB
 90
      255
102
RTVSPost2010PropOp44
 70
     1
102
RTVSPost2010Prop45
280
     0
102
RTVSPost2010PropOp45
 70
     1
102
RTVSPost2010Prop46
 90
       50
102
RTVSPost2010PropOp46
 70
     1
102
RTVSPost2010Prop47
 90
       50
102
RTVSPost2010PropOp47
 70
     1
102
RTVSPost2010Prop48
 90
       50
102
RTVSPost2010PropOp48
 70
     1
102
RTVSPost2010Prop49
280
     0
102
RTVSPost2010PropOp49
 70
     1
102
RTVSPost2010Prop50
 90
       50
102
RTVSPost2010PropOp50
 70
     1
102
RTVSPost2010Prop51ColorIndex
 90
      256
102
RTVSPost2010Prop51ColorRGB
 90
-16777216
102
RTVSPost2010PropOp51
 70
     0
102
RTVSPost2010Prop52
140
1.0
102
RTVSPost2010PropOp52
 70
     0
102
RTVSPost2010Prop53
 90
        2
102
RTVSPost2010PropOp53
 70
     1
102
RTVSPost2010Prop54
  1
strokes_ogs.tif
102
RTVSPost2010PropOp54
 70
     1
102
RTVSPost2010Prop55
280
     0
102
RTVSPost2010PropOp55
 70
     1
102
RTVSPost2010Prop56
140
1.0
102
RTVSPost2010PropOp56
 70
     1
102
RTVSPost2010Prop57
140
1.0
102
RTVSPost2010PropOp57
 70
     1
102
RTVSPropertyOp0
 70
     1
102
RTVSPropertyOp1
 70
     1
102
RTVSPropertyOp2
 70
     1
102
RTVSPropertyOp3
 70
     1
102
RTVSPropertyOp4
 70
     1
102
RTVSPropertyOp5
 70
     1
102
RTVSPropertyOp6
 70
     1
102
RTVSPropertyOp7
 70
     1
102
RTVSPropertyOp8
 70
     1
102
RTVSPropertyOp9
 70
     1
102
RTVSPropertyOp10
 70
     1
102
RTVSPropertyOp11
 70
     1
102
RTVSPropertyOp12
 70
     1
102
RTVSPropertyOp13
 70
     1
102
RTVSPropertyOp14
 70
     1
102
RTVSPropertyOp15
 70
     1
102
RTVSPropertyOp16
 70
     1
102
RTVSPropertyOp17
 70
     1
102
RTVSPropertyOp18
 70
     1
102
RTVSPropertyOp19
 70
     1
102
RTVSPropertyOp20
 70
     1
102
RTVSPropertyOp21
 70
     1
102
RTVSPropertyOp22
 70
     1
102
RTVSPropertyOp23
 70
     1
102
RTVSPropertyOp24
 70
     1
102
RTVSPropertyOp25
 70
     1
102
RTVSPropertyOp26
 70
     1
102
RTVSPropertyOp27
 70
     1
102
RTVSPropertyOp28
 70
     1
102
RTVSPropertyOp29
 70
     1
102
RTVSPropertyOp30
 70
     1
102
RTVSPropertyOp31
 70
     1
102
RTVSPropertyOp32
 70
     1
102
RTVSPropertyOp33
 70
     1
102
RTVSPropertyOp34
 70
     1
102
RTVSPropertyOp35
 70
     1
102
RTVSPropertyOp36
 70
     1
102
RTVSPropertyOp37
 70
     1
102
RTVSPropertyOp38
 70
     1
102
RTVSPropertyOp39
 70
     1
102
RTVSPropertyOp40
 70
     1
102
RTVSPropertyOp41
 70
     1
102
RTVSPropertyOp42
 70
     1
102
RTVSPropertyOp43
 70
     1
102
RTVSPropertyOp44
 70
     1
102
RTVSPropertyOp45
 70
     1
102
RTVSPropertyOp46
 70
     1
102
RTVSPropertyOp47
 70
     1
102
RTVSPropertyOp48
 70
     1
102
RTVSPropertyOp49
 70
     1
102
RTVSPropertyOp50
 70
     1
102
RTVSPropertyOp51
 70
     0
102
RTVSPropertyOp52
 70
     0
102
RTVSPropertyOp53
 70
     1
102
RTVSPropertyOp54
 70
     1
102
RTVSPropertyOp55
 70
     1
102
RTVSPropertyOp56
 70
     1
102
RTVSPropertyOp57
 70
     1
102
RTVSPropertyOp58
 70
     1
102
RTVSPropertyOp59
 70
     1
102
RTVSPropertyOp60
 70
     1
102
RTVSPropertyOp61
 70
     1
102
RTVSPropertyOp62
 70
     1
  0
XRECORD
  5
BBEA
102
{ACAD_REACTORS
330
BBE9
102
}
330
BBE9
100
AcDbXrecord
280
     1
102
RTVSPost2010Prop28
280
     0
102
RTVSPost2010PropOp28
 70
     1
102
RTVSPost2010Prop29
280
     1
102
RTVSPost2010PropOp29
 70
     1
102
RTVSPost2010Prop30
280
     1
102
RTVSPost2010PropOp30
 70
     1
102
RTVSPost2010Prop31
280
     0
102
RTVSPost2010PropOp31
 70
     1
102
RTVSPost2010Prop32
280
     0
102
RTVSPost2010PropOp32
 70
     1
102
RTVSPost2010Prop33
280
     0
102
RTVSPost2010PropOp33
 70
     1
102
RTVSPost2010Prop34
280
     0
102
RTVSPost2010PropOp34
 70
     1
102
RTVSPost2010Prop35
280
     0
102
RTVSPost2010PropOp35
 70
     1
102
RTVSPost2010Prop36
280
     0
102
RTVSPost2010PropOp36
 70
     1
102
RTVSPost2010Prop37
 90
       50
102
RTVSPost2010PropOp37
 70
     1
102
RTVSPost2010Prop38
140
0.0
102
RTVSPost2010PropOp38
 70
     1
102
RTVSPost2010Prop39
140
1.0
102
RTVSPost2010PropOp39
 70
     1
102
RTVSPost2010Prop40
 90
        0
102
RTVSPost2010PropOp40
 70
     1
102
RTVSPost2010Prop41ColorIndex
 90
       18
102
RTVSPost2010Prop41ColorRGB
 90
        0
102
RTVSPost2010PropOp41
 70
     1
102
RTVSPost2010Prop42
 90
       50
102
RTVSPost2010PropOp42
 70
     1
102
RTVSPost2010Prop43
 90
        3
102
RTVSPost2010PropOp43
 70
     1
102
RTVSPost2010Prop44ColorIndex
 90
        5
102
RTVSPost2010Prop44ColorRGB
 90
      255
102
RTVSPost2010PropOp44
 70
     1
102
RTVSPost2010Prop45
280
     0
102
RTVSPost2010PropOp45
 70
     1
102
RTVSPost2010Prop46
 90
       50
102
RTVSPost2010PropOp46
 70
     1
102
RTVSPost2010Prop47
 90
       50
102
RTVSPost2010PropOp47
 70
     1
102
RTVSPost2010Prop48
 90
       50
102
RTVSPost2010PropOp48
 70
     1
102
RTVSPost2010Prop49
280
     0
102
RTVSPost2010PropOp49
 70
     1
102
RTVSPost2010Prop50
 90
       50
102
RTVSPost2010PropOp50
 70
     1
102
RTVSPost2010Prop51ColorIndex
 90
      256
102
RTVSPost2010Prop51ColorRGB
 90
-16777216
102
RTVSPost2010PropOp51
 70
     0
102
RTVSPost2010Prop52
140
1.0
102
RTVSPost2010PropOp52
 70
     0
102
RTVSPost2010Prop53
 90
        2
102
RTVSPost2010PropOp53
 70
     1
102
RTVSPost2010Prop54
  1
strokes_ogs.tif
102
RTVSPost2010PropOp54
 70
     1
102
RTVSPost2010Prop55
280
     0
102
RTVSPost2010PropOp55
 70
     1
102
RTVSPost2010Prop56
140
1.0
102
RTVSPost2010PropOp56
 70
     1
102
RTVSPost2010Prop57
140
1.0
102
RTVSPost2010PropOp57
 70
     1
102
RTVSPropertyOp0
 70
     0
102
RTVSPropertyOp1
 70
     0
102
RTVSPropertyOp2
 70
     0
102
RTVSPropertyOp3
 70
     0
102
RTVSPropertyOp4
 70
     0
102
RTVSPropertyOp5
 70
     0
102
RTVSPropertyOp6
 70
     0
102
RTVSPropertyOp7
 70
     0
102
RTVSPropertyOp8
 70
     0
102
RTVSPropertyOp9
 70
     0
102
RTVSPropertyOp10
 70
     0
102
RTVSPropertyOp11
 70
     0
102
RTVSPropertyOp12
 70
     0
102
RTVSPropertyOp13
 70
     0
102
RTVSPropertyOp14
 70
     2
102
RTVSPropertyOp15
 70
     0
102
RTVSPropertyOp16
 70
     0
102
RTVSPropertyOp17
 70
     0
102
RTVSPropertyOp18
 70
     0
102
RTVSPropertyOp19
 70
     0
102
RTVSPropertyOp20
 70
     0
102
RTVSPropertyOp21
 70
     0
102
RTVSPropertyOp22
 70
     0
102
RTVSPropertyOp23
 70
     0
102
RTVSPropertyOp24
 70
     0
102
RTVSPropertyOp25
 70
     0
102
RTVSPropertyOp26
 70
     0
102
RTVSPropertyOp27
 70
     0
102
RTVSPropertyOp28
 70
     1
102
RTVSPropertyOp29
 70
     1
102
RTVSPropertyOp30
 70
     1
102
RTVSPropertyOp31
 70
     1
102
RTVSPropertyOp32
 70
     1
102
RTVSPropertyOp33
 70
     1
102
RTVSPropertyOp34
 70
     1
102
RTVSPropertyOp35
 70
     1
102
RTVSPropertyOp36
 70
     1
102
RTVSPropertyOp37
 70
     1
102
RTVSPropertyOp38
 70
     1
102
RTVSPropertyOp39
 70
     1
102
RTVSPropertyOp40
 70
     1
102
RTVSPropertyOp41
 70
     1
102
RTVSPropertyOp42
 70
     1
102
RTVSPropertyOp43
 70
     1
102
RTVSPropertyOp44
 70
     1
102
RTVSPropertyOp45
 70
     1
102
RTVSPropertyOp46
 70
     1
102
RTVSPropertyOp47
 70
     1
102
RTVSPropertyOp48
 70
     1
102
RTVSPropertyOp49
 70
     1
102
RTVSPropertyOp50
 70
     1
102
RTVSPropertyOp51
 70
     0
102
RTVSPropertyOp52
 70
     0
102
RTVSPropertyOp53
 70
     1
102
RTVSPropertyOp54
 70
     1
102
RTVSPropertyOp55
 70
     1
102
RTVSPropertyOp56
 70
     1
102
RTVSPropertyOp57
 70
     1
102
RTVSPropertyOp58
 70
     1
102
RTVSPropertyOp59
 70
     1
102
RTVSPropertyOp60
 70
     1
102
RTVSPropertyOp61
 70
     1
102
RTVSPropertyOp62
 70
     1
  0
XRECORD
  5
BBE2
102
{ACAD_REACTORS
330
BBE1
102
}
330
BBE1
100
AcDbXrecord
280
     1
102
RTVSPost2010Prop28
280
     0
102
RTVSPost2010PropOp28
 70
     1
102
RTVSPost2010Prop29
280
     1
102
RTVSPost2010PropOp29
 70
     1
102
RTVSPost2010Prop30
280
     1
102
RTVSPost2010PropOp30
 70
     1
102
RTVSPost2010Prop31
280
     0
102
RTVSPost2010PropOp31
 70
     1
102
RTVSPost2010Prop32
280
     0
102
RTVSPost2010PropOp32
 70
     1
102
RTVSPost2010Prop33
280
     0
102
RTVSPost2010PropOp33
 70
     1
102
RTVSPost2010Prop34
280
     0
102
RTVSPost2010PropOp34
 70
     1
102
RTVSPost2010Prop35
280
     0
102
RTVSPost2010PropOp35
 70
     1
102
RTVSPost2010Prop36
280
     0
102
RTVSPost2010PropOp36
 70
     1
102
RTVSPost2010Prop37
 90
       50
102
RTVSPost2010PropOp37
 70
     1
102
RTVSPost2010Prop38
140
0.0
102
RTVSPost2010PropOp38
 70
     1
102
RTVSPost2010Prop39
140
1.0
102
RTVSPost2010PropOp39
 70
     1
102
RTVSPost2010Prop40
 90
        0
102
RTVSPost2010PropOp40
 70
     1
102
RTVSPost2010Prop41ColorIndex
 90
       18
102
RTVSPost2010Prop41ColorRGB
 90
        0
102
RTVSPost2010PropOp41
 70
     1
102
RTVSPost2010Prop42
 90
       50
102
RTVSPost2010PropOp42
 70
     1
102
RTVSPost2010Prop43
 90
        3
102
RTVSPost2010PropOp43
 70
     1
102
RTVSPost2010Prop44ColorIndex
 90
        5
102
RTVSPost2010Prop44ColorRGB
 90
      255
102
RTVSPost2010PropOp44
 70
     1
102
RTVSPost2010Prop45
280
     0
102
RTVSPost2010PropOp45
 70
     1
102
RTVSPost2010Prop46
 90
       50
102
RTVSPost2010PropOp46
 70
     1
102
RTVSPost2010Prop47
 90
       50
102
RTVSPost2010PropOp47
 70
     1
102
RTVSPost2010Prop48
 90
       50
102
RTVSPost2010PropOp48
 70
     1
102
RTVSPost2010Prop49
280
     0
102
RTVSPost2010PropOp49
 70
     1
102
RTVSPost2010Prop50
 90
       50
102
RTVSPost2010PropOp50
 70
     1
102
RTVSPost2010Prop51ColorIndex
 90
      256
102
RTVSPost2010Prop51ColorRGB
 90
-16777216
102
RTVSPost2010PropOp51
 70
     0
102
RTVSPost2010Prop52
140
1.0
102
RTVSPost2010PropOp52
 70
     0
102
RTVSPost2010Prop53
 90
        2
102
RTVSPost2010PropOp53
 70
     1
102
RTVSPost2010Prop54
  1
strokes_ogs.tif
102
RTVSPost2010PropOp54
 70
     1
102
RTVSPost2010Prop55
280
     0
102
RTVSPost2010PropOp55
 70
     1
102
RTVSPost2010Prop56
140
1.0
102
RTVSPost2010PropOp56
 70
     1
102
RTVSPost2010Prop57
140
1.0
102
RTVSPost2010PropOp57
 70
     1
102
RTVSPropertyOp0
 70
     1
102
RTVSPropertyOp1
 70
     1
102
RTVSPropertyOp2
 70
     1
102
RTVSPropertyOp3
 70
     1
102
RTVSPropertyOp4
 70
     1
102
RTVSPropertyOp5
 70
     1
102
RTVSPropertyOp6
 70
     1
102
RTVSPropertyOp7
 70
     1
102
RTVSPropertyOp8
 70
     1
102
RTVSPropertyOp9
 70
     1
102
RTVSPropertyOp10
 70
     1
102
RTVSPropertyOp11
 70
     1
102
RTVSPropertyOp12
 70
     1
102
RTVSPropertyOp13
 70
     1
102
RTVSPropertyOp14
 70
     1
102
RTVSPropertyOp15
 70
     1
102
RTVSPropertyOp16
 70
     1
102
RTVSPropertyOp17
 70
     1
102
RTVSPropertyOp18
 70
     1
102
RTVSPropertyOp19
 70
     1
102
RTVSPropertyOp20
 70
     1
102
RTVSPropertyOp21
 70
     1
102
RTVSPropertyOp22
 70
     1
102
RTVSPropertyOp23
 70
     1
102
RTVSPropertyOp24
 70
     1
102
RTVSPropertyOp25
 70
     1
102
RTVSPropertyOp26
 70
     1
102
RTVSPropertyOp27
 70
     1
102
RTVSPropertyOp28
 70
     1
102
RTVSPropertyOp29
 70
     1
102
RTVSPropertyOp30
 70
     1
102
RTVSPropertyOp31
 70
     1
102
RTVSPropertyOp32
 70
     1
102
RTVSPropertyOp33
 70
     1
102
RTVSPropertyOp34
 70
     1
102
RTVSPropertyOp35
 70
     1
102
RTVSPropertyOp36
 70
     1
102
RTVSPropertyOp37
 70
     1
102
RTVSPropertyOp38
 70
     1
102
RTVSPropertyOp39
 70
     1
102
RTVSPropertyOp40
 70
     1
102
RTVSPropertyOp41
 70
     1
102
RTVSPropertyOp42
 70
     1
102
RTVSPropertyOp43
 70
     1
102
RTVSPropertyOp44
 70
     1
102
RTVSPropertyOp45
 70
     1
102
RTVSPropertyOp46
 70
     1
102
RTVSPropertyOp47
 70
     1
102
RTVSPropertyOp48
 70
     1
102
RTVSPropertyOp49
 70
     1
102
RTVSPropertyOp50
 70
     1
102
RTVSPropertyOp51
 70
     0
102
RTVSPropertyOp52
 70
     0
102
RTVSPropertyOp53
 70
     1
102
RTVSPropertyOp54
 70
     1
102
RTVSPropertyOp55
 70
     1
102
RTVSPropertyOp56
 70
     1
102
RTVSPropertyOp57
 70
     1
102
RTVSPropertyOp58
 70
     1
102
RTVSPropertyOp59
 70
     1
102
RTVSPropertyOp60
 70
     1
102
RTVSPropertyOp61
 70
     1
102
RTVSPropertyOp62
 70
     1
  0
XRECORD
  5
BBEC
102
{ACAD_REACTORS
330
BBEB
102
}
330
BBEB
100
AcDbXrecord
280
     1
102
RTVSPost2010Prop28
280
     0
102
RTVSPost2010PropOp28
 70
     1
102
RTVSPost2010Prop29
280
     1
102
RTVSPost2010PropOp29
 70
     1
102
RTVSPost2010Prop30
280
     1
102
RTVSPost2010PropOp30
 70
     1
102
RTVSPost2010Prop31
280
     0
102
RTVSPost2010PropOp31
 70
     1
102
RTVSPost2010Prop32
280
     0
102
RTVSPost2010PropOp32
 70
     1
102
RTVSPost2010Prop33
280
     0
102
RTVSPost2010PropOp33
 70
     1
102
RTVSPost2010Prop34
280
     0
102
RTVSPost2010PropOp34
 70
     1
102
RTVSPost2010Prop35
280
     0
102
RTVSPost2010PropOp35
 70
     1
102
RTVSPost2010Prop36
280
     0
102
RTVSPost2010PropOp36
 70
     1
102
RTVSPost2010Prop37
 90
       50
102
RTVSPost2010PropOp37
 70
     1
102
RTVSPost2010Prop38
140
0.0
102
RTVSPost2010PropOp38
 70
     1
102
RTVSPost2010Prop39
140
1.0
102
RTVSPost2010PropOp39
 70
     1
102
RTVSPost2010Prop40
 90
        0
102
RTVSPost2010PropOp40
 70
     1
102
RTVSPost2010Prop41ColorIndex
 90
       18
102
RTVSPost2010Prop41ColorRGB
 90
        0
102
RTVSPost2010PropOp41
 70
     1
102
RTVSPost2010Prop42
 90
       50
102
RTVSPost2010PropOp42
 70
     1
102
RTVSPost2010Prop43
 90
        3
102
RTVSPost2010PropOp43
 70
     1
102
RTVSPost2010Prop44ColorIndex
 90
        5
102
RTVSPost2010Prop44ColorRGB
 90
      255
102
RTVSPost2010PropOp44
 70
     1
102
RTVSPost2010Prop45
280
     0
102
RTVSPost2010PropOp45
 70
     1
102
RTVSPost2010Prop46
 90
       50
102
RTVSPost2010PropOp46
 70
     1
102
RTVSPost2010Prop47
 90
       50
102
RTVSPost2010PropOp47
 70
     1
102
RTVSPost2010Prop48
 90
       50
102
RTVSPost2010PropOp48
 70
     1
102
RTVSPost2010Prop49
280
     0
102
RTVSPost2010PropOp49
 70
     1
102
RTVSPost2010Prop50
 90
       50
102
RTVSPost2010PropOp50
 70
     1
102
RTVSPost2010Prop51ColorIndex
 90
      256
102
RTVSPost2010Prop51ColorRGB
 90
-16777216
102
RTVSPost2010PropOp51
 70
     0
102
RTVSPost2010Prop52
140
1.0
102
RTVSPost2010PropOp52
 70
     0
102
RTVSPost2010Prop53
 90
        2
102
RTVSPost2010PropOp53
 70
     1
102
RTVSPost2010Prop54
  1
strokes_ogs.tif
102
RTVSPost2010PropOp54
 70
     1
102
RTVSPost2010Prop55
280
     0
102
RTVSPost2010PropOp55
 70
     1
102
RTVSPost2010Prop56
140
1.0
102
RTVSPost2010PropOp56
 70
     1
102
RTVSPost2010Prop57
140
1.0
102
RTVSPost2010PropOp57
 70
     1
102
RTVSPropertyOp0
 70
     0
102
RTVSPropertyOp1
 70
     0
102
RTVSPropertyOp2
 70
     0
102
RTVSPropertyOp3
 70
     0
102
RTVSPropertyOp4
 70
     0
102
RTVSPropertyOp5
 70
     0
102
RTVSPropertyOp6
 70
     0
102
RTVSPropertyOp7
 70
     0
102
RTVSPropertyOp8
 70
     0
102
RTVSPropertyOp9
 70
     0
102
RTVSPropertyOp10
 70
     0
102
RTVSPropertyOp11
 70
     0
102
RTVSPropertyOp12
 70
     0
102
RTVSPropertyOp13
 70
     0
102
RTVSPropertyOp14
 70
     2
102
RTVSPropertyOp15
 70
     0
102
RTVSPropertyOp16
 70
     0
102
RTVSPropertyOp17
 70
     0
102
RTVSPropertyOp18
 70
     0
102
RTVSPropertyOp19
 70
     0
102
RTVSPropertyOp20
 70
     0
102
RTVSPropertyOp21
 70
     0
102
RTVSPropertyOp22
 70
     0
102
RTVSPropertyOp23
 70
     0
102
RTVSPropertyOp24
 70
     0
102
RTVSPropertyOp25
 70
     0
102
RTVSPropertyOp26
 70
     0
102
RTVSPropertyOp27
 70
     0
102
RTVSPropertyOp28
 70
     1
102
RTVSPropertyOp29
 70
     1
102
RTVSPropertyOp30
 70
     1
102
RTVSPropertyOp31
 70
     1
102
RTVSPropertyOp32
 70
     1
102
RTVSPropertyOp33
 70
     1
102
RTVSPropertyOp34
 70
     1
102
RTVSPropertyOp35
 70
     1
102
RTVSPropertyOp36
 70
     1
102
RTVSPropertyOp37
 70
     1
102
RTVSPropertyOp38
 70
     1
102
RTVSPropertyOp39
 70
     1
102
RTVSPropertyOp40
 70
     1
102
RTVSPropertyOp41
 70
     1
102
RTVSPropertyOp42
 70
     1
102
RTVSPropertyOp43
 70
     1
102
RTVSPropertyOp44
 70
     1
102
RTVSPropertyOp45
 70
     1
102
RTVSPropertyOp46
 70
     1
102
RTVSPropertyOp47
 70
     1
102
RTVSPropertyOp48
 70
     1
102
RTVSPropertyOp49
 70
     1
102
RTVSPropertyOp50
 70
     1
102
RTVSPropertyOp51
 70
     0
102
RTVSPropertyOp52
 70
     0
102
RTVSPropertyOp53
 70
     1
102
RTVSPropertyOp54
 70
     1
102
RTVSPropertyOp55
 70
     1
102
RTVSPropertyOp56
 70
     1
102
RTVSPropertyOp57
 70
     1
102
RTVSPropertyOp58
 70
     1
102
RTVSPropertyOp59
 70
     1
102
RTVSPropertyOp60
 70
     1
102
RTVSPropertyOp61
 70
     1
102
RTVSPropertyOp62
 70
     1
  0
XRECORD
  5
BBDA
102
{ACAD_REACTORS
330
BBD9
102
}
330
BBD9
100
AcDbXrecord
280
     1
102
RTVSPost2010Prop28
280
     0
102
RTVSPost2010PropOp28
 70
     1
102
RTVSPost2010Prop29
280
     1
102
RTVSPost2010PropOp29
 70
     1
102
RTVSPost2010Prop30
280
     1
102
RTVSPost2010PropOp30
 70
     1
102
RTVSPost2010Prop31
280
     0
102
RTVSPost2010PropOp31
 70
     1
102
RTVSPost2010Prop32
280
     0
102
RTVSPost2010PropOp32
 70
     1
102
RTVSPost2010Prop33
280
     0
102
RTVSPost2010PropOp33
 70
     1
102
RTVSPost2010Prop34
280
     0
102
RTVSPost2010PropOp34
 70
     1
102
RTVSPost2010Prop35
280
     0
102
RTVSPost2010PropOp35
 70
     1
102
RTVSPost2010Prop36
280
     0
102
RTVSPost2010PropOp36
 70
     1
102
RTVSPost2010Prop37
 90
       50
102
RTVSPost2010PropOp37
 70
     1
102
RTVSPost2010Prop38
140
0.0
102
RTVSPost2010PropOp38
 70
     1
102
RTVSPost2010Prop39
140
1.0
102
RTVSPost2010PropOp39
 70
     1
102
RTVSPost2010Prop40
 90
        0
102
RTVSPost2010PropOp40
 70
     1
102
RTVSPost2010Prop41ColorIndex
 90
       18
102
RTVSPost2010Prop41ColorRGB
 90
        0
102
RTVSPost2010PropOp41
 70
     1
102
RTVSPost2010Prop42
 90
       50
102
RTVSPost2010PropOp42
 70
     1
102
RTVSPost2010Prop43
 90
        3
102
RTVSPost2010PropOp43
 70
     1
102
RTVSPost2010Prop44ColorIndex
 90
        5
102
RTVSPost2010Prop44ColorRGB
 90
      255
102
RTVSPost2010PropOp44
 70
     1
102
RTVSPost2010Prop45
280
     0
102
RTVSPost2010PropOp45
 70
     1
102
RTVSPost2010Prop46
 90
       50
102
RTVSPost2010PropOp46
 70
     1
102
RTVSPost2010Prop47
 90
       50
102
RTVSPost2010PropOp47
 70
     1
102
RTVSPost2010Prop48
 90
       50
102
RTVSPost2010PropOp48
 70
     1
102
RTVSPost2010Prop49
280
     0
102
RTVSPost2010PropOp49
 70
     1
102
RTVSPost2010Prop50
 90
       50
102
RTVSPost2010PropOp50
 70
     1
102
RTVSPost2010Prop51ColorIndex
 90
      256
102
RTVSPost2010Prop51ColorRGB
 90
-16777216
102
RTVSPost2010PropOp51
 70
     0
102
RTVSPost2010Prop52
140
1.0
102
RTVSPost2010PropOp52
 70
     0
102
RTVSPost2010Prop53
 90
        2
102
RTVSPost2010PropOp53
 70
     1
102
RTVSPost2010Prop54
  1
strokes_ogs.tif
102
RTVSPost2010PropOp54
 70
     1
102
RTVSPost2010Prop55
280
     0
102
RTVSPost2010PropOp55
 70
     1
102
RTVSPost2010Prop56
140
1.0
102
RTVSPost2010PropOp56
 70
     1
102
RTVSPost2010Prop57
140
1.0
102
RTVSPost2010PropOp57
 70
     1
102
RTVSPropertyOp0
 70
     1
102
RTVSPropertyOp1
 70
     1
102
RTVSPropertyOp2
 70
     1
102
RTVSPropertyOp3
 70
     1
102
RTVSPropertyOp4
 70
     1
102
RTVSPropertyOp5
 70
     1
102
RTVSPropertyOp6
 70
     1
102
RTVSPropertyOp7
 70
     1
102
RTVSPropertyOp8
 70
     1
102
RTVSPropertyOp9
 70
     1
102
RTVSPropertyOp10
 70
     1
102
RTVSPropertyOp11
 70
     1
102
RTVSPropertyOp12
 70
     1
102
RTVSPropertyOp13
 70
     1
102
RTVSPropertyOp14
 70
     1
102
RTVSPropertyOp15
 70
     1
102
RTVSPropertyOp16
 70
     1
102
RTVSPropertyOp17
 70
     1
102
RTVSPropertyOp18
 70
     1
102
RTVSPropertyOp19
 70
     1
102
RTVSPropertyOp20
 70
     1
102
RTVSPropertyOp21
 70
     1
102
RTVSPropertyOp22
 70
     1
102
RTVSPropertyOp23
 70
     1
102
RTVSPropertyOp24
 70
     1
102
RTVSPropertyOp25
 70
     1
102
RTVSPropertyOp26
 70
     1
102
RTVSPropertyOp27
 70
     1
102
RTVSPropertyOp28
 70
     1
102
RTVSPropertyOp29
 70
     1
102
RTVSPropertyOp30
 70
     1
102
RTVSPropertyOp31
 70
     1
102
RTVSPropertyOp32
 70
     1
102
RTVSPropertyOp33
 70
     1
102
RTVSPropertyOp34
 70
     1
102
RTVSPropertyOp35
 70
     1
102
RTVSPropertyOp36
 70
     1
102
RTVSPropertyOp37
 70
     1
102
RTVSPropertyOp38
 70
     1
102
RTVSPropertyOp39
 70
     1
102
RTVSPropertyOp40
 70
     1
102
RTVSPropertyOp41
 70
     1
102
RTVSPropertyOp42
 70
     1
102
RTVSPropertyOp43
 70
     1
102
RTVSPropertyOp44
 70
     1
102
RTVSPropertyOp45
 70
     1
102
RTVSPropertyOp46
 70
     1
102
RTVSPropertyOp47
 70
     1
102
RTVSPropertyOp48
 70
     1
102
RTVSPropertyOp49
 70
     1
102
RTVSPropertyOp50
 70
     1
102
RTVSPropertyOp51
 70
     0
102
RTVSPropertyOp52
 70
     0
102
RTVSPropertyOp53
 70
     1
102
RTVSPropertyOp54
 70
     1
102
RTVSPropertyOp55
 70
     1
102
RTVSPropertyOp56
 70
     1
102
RTVSPropertyOp57
 70
     1
102
RTVSPropertyOp58
 70
     1
102
RTVSPropertyOp59
 70
     1
102
RTVSPropertyOp60
 70
     1
102
RTVSPropertyOp61
 70
     1
102
RTVSPropertyOp62
 70
     1
  0
XRECORD
  5
BBF8
102
{ACAD_REACTORS
330
BBF7
102
}
330
BBF7
100
AcDbXrecord
280
     1
102
RTVSPost2010Prop28
280
     0
102
RTVSPost2010PropOp28
 70
     1
102
RTVSPost2010Prop29
280
     1
102
RTVSPost2010PropOp29
 70
     1
102
RTVSPost2010Prop30
280
     1
102
RTVSPost2010PropOp30
 70
     1
102
RTVSPost2010Prop31
280
     0
102
RTVSPost2010PropOp31
 70
     1
102
RTVSPost2010Prop32
280
     0
102
RTVSPost2010PropOp32
 70
     1
102
RTVSPost2010Prop33
280
     0
102
RTVSPost2010PropOp33
 70
     1
102
RTVSPost2010Prop34
280
     0
102
RTVSPost2010PropOp34
 70
     1
102
RTVSPost2010Prop35
280
     0
102
RTVSPost2010PropOp35
 70
     1
102
RTVSPost2010Prop36
280
     0
102
RTVSPost2010PropOp36
 70
     1
102
RTVSPost2010Prop37
 90
       50
102
RTVSPost2010PropOp37
 70
     1
102
RTVSPost2010Prop38
140
0.0
102
RTVSPost2010PropOp38
 70
     1
102
RTVSPost2010Prop39
140
1.0
102
RTVSPost2010PropOp39
 70
     1
102
RTVSPost2010Prop40
 90
        0
102
RTVSPost2010PropOp40
 70
     1
102
RTVSPost2010Prop41ColorIndex
 90
       18
102
RTVSPost2010Prop41ColorRGB
 90
        0
102
RTVSPost2010PropOp41
 70
     1
102
RTVSPost2010Prop42
 90
       50
102
RTVSPost2010PropOp42
 70
     1
102
RTVSPost2010Prop43
 90
        3
102
RTVSPost2010PropOp43
 70
     1
102
RTVSPost2010Prop44ColorIndex
 90
        5
102
RTVSPost2010Prop44ColorRGB
 90
      255
102
RTVSPost2010PropOp44
 70
     1
102
RTVSPost2010Prop45
280
     0
102
RTVSPost2010PropOp45
 70
     1
102
RTVSPost2010Prop46
 90
       50
102
RTVSPost2010PropOp46
 70
     1
102
RTVSPost2010Prop47
 90
       50
102
RTVSPost2010PropOp47
 70
     1
102
RTVSPost2010Prop48
 90
       50
102
RTVSPost2010PropOp48
 70
     1
102
RTVSPost2010Prop49
280
     0
102
RTVSPost2010PropOp49
 70
     1
102
RTVSPost2010Prop50
 90
       50
102
RTVSPost2010PropOp50
 70
     1
102
RTVSPost2010Prop51ColorIndex
 90
      256
102
RTVSPost2010Prop51ColorRGB
 90
-16777216
102
RTVSPost2010PropOp51
 70
     0
102
RTVSPost2010Prop52
140
1.0
102
RTVSPost2010PropOp52
 70
     0
102
RTVSPost2010Prop53
 90
        2
102
RTVSPost2010PropOp53
 70
     1
102
RTVSPost2010Prop54
  1
strokes_ogs.tif
102
RTVSPost2010PropOp54
 70
     1
102
RTVSPost2010Prop55
280
     0
102
RTVSPost2010PropOp55
 70
     1
102
RTVSPost2010Prop56
140
1.0
102
RTVSPost2010PropOp56
 70
     1
102
RTVSPost2010Prop57
140
1.0
102
RTVSPost2010PropOp57
 70
     1
102
RTVSPropertyOp0
 70
     1
102
RTVSPropertyOp1
 70
     1
102
RTVSPropertyOp2
 70
     1
102
RTVSPropertyOp3
 70
     1
102
RTVSPropertyOp4
 70
     1
102
RTVSPropertyOp5
 70
     1
102
RTVSPropertyOp6
 70
     1
102
RTVSPropertyOp7
 70
     1
102
RTVSPropertyOp8
 70
     1
102
RTVSPropertyOp9
 70
     1
102
RTVSPropertyOp10
 70
     1
102
RTVSPropertyOp11
 70
     1
102
RTVSPropertyOp12
 70
     1
102
RTVSPropertyOp13
 70
     1
102
RTVSPropertyOp14
 70
     1
102
RTVSPropertyOp15
 70
     1
102
RTVSPropertyOp16
 70
     1
102
RTVSPropertyOp17
 70
     1
102
RTVSPropertyOp18
 70
     1
102
RTVSPropertyOp19
 70
     1
102
RTVSPropertyOp20
 70
     1
102
RTVSPropertyOp21
 70
     1
102
RTVSPropertyOp22
 70
     1
102
RTVSPropertyOp23
 70
     1
102
RTVSPropertyOp24
 70
     1
102
RTVSPropertyOp25
 70
     1
102
RTVSPropertyOp26
 70
     1
102
RTVSPropertyOp27
 70
     1
102
RTVSPropertyOp28
 70
     1
102
RTVSPropertyOp29
 70
     1
102
RTVSPropertyOp30
 70
     1
102
RTVSPropertyOp31
 70
     1
102
RTVSPropertyOp32
 70
     1
102
RTVSPropertyOp33
 70
     1
102
RTVSPropertyOp34
 70
     1
102
RTVSPropertyOp35
 70
     1
102
RTVSPropertyOp36
 70
     1
102
RTVSPropertyOp37
 70
     1
102
RTVSPropertyOp38
 70
     1
102
RTVSPropertyOp39
 70
     1
102
RTVSPropertyOp40
 70
     1
102
RTVSPropertyOp41
 70
     1
102
RTVSPropertyOp42
 70
     1
102
RTVSPropertyOp43
 70
     1
102
RTVSPropertyOp44
 70
     1
102
RTVSPropertyOp45
 70
     1
102
RTVSPropertyOp46
 70
     1
102
RTVSPropertyOp47
 70
     1
102
RTVSPropertyOp48
 70
     1
102
RTVSPropertyOp49
 70
     1
102
RTVSPropertyOp50
 70
     1
102
RTVSPropertyOp51
 70
     0
102
RTVSPropertyOp52
 70
     0
102
RTVSPropertyOp53
 70
     1
102
RTVSPropertyOp54
 70
     1
102
RTVSPropertyOp55
 70
     1
102
RTVSPropertyOp56
 70
     1
102
RTVSPropertyOp57
 70
     1
102
RTVSPropertyOp58
 70
     1
102
RTVSPropertyOp59
 70
     1
102
RTVSPropertyOp60
 70
     1
102
RTVSPropertyOp61
 70
     1
102
RTVSPropertyOp62
 70
     1
  0
XRECORD
  5
BBF6
102
{ACAD_REACTORS
330
BBF5
102
}
330
BBF5
100
AcDbXrecord
280
     1
102
RTVSPost2010Prop28
280
     0
102
RTVSPost2010PropOp28
 70
     1
102
RTVSPost2010Prop29
280
     1
102
RTVSPost2010PropOp29
 70
     1
102
RTVSPost2010Prop30
280
     1
102
RTVSPost2010PropOp30
 70
     1
102
RTVSPost2010Prop31
280
     0
102
RTVSPost2010PropOp31
 70
     1
102
RTVSPost2010Prop32
280
     0
102
RTVSPost2010PropOp32
 70
     1
102
RTVSPost2010Prop33
280
     0
102
RTVSPost2010PropOp33
 70
     1
102
RTVSPost2010Prop34
280
     0
102
RTVSPost2010PropOp34
 70
     1
102
RTVSPost2010Prop35
280
     0
102
RTVSPost2010PropOp35
 70
     1
102
RTVSPost2010Prop36
280
     0
102
RTVSPost2010PropOp36
 70
     1
102
RTVSPost2010Prop37
 90
       50
102
RTVSPost2010PropOp37
 70
     1
102
RTVSPost2010Prop38
140
0.0
102
RTVSPost2010PropOp38
 70
     1
102
RTVSPost2010Prop39
140
1.0
102
RTVSPost2010PropOp39
 70
     1
102
RTVSPost2010Prop40
 90
        0
102
RTVSPost2010PropOp40
 70
     1
102
RTVSPost2010Prop41ColorIndex
 90
       18
102
RTVSPost2010Prop41ColorRGB
 90
        0
102
RTVSPost2010PropOp41
 70
     1
102
RTVSPost2010Prop42
 90
       50
102
RTVSPost2010PropOp42
 70
     1
102
RTVSPost2010Prop43
 90
        3
102
RTVSPost2010PropOp43
 70
     1
102
RTVSPost2010Prop44ColorIndex
 90
        5
102
RTVSPost2010Prop44ColorRGB
 90
      255
102
RTVSPost2010PropOp44
 70
     1
102
RTVSPost2010Prop45
280
     0
102
RTVSPost2010PropOp45
 70
     1
102
RTVSPost2010Prop46
 90
       50
102
RTVSPost2010PropOp46
 70
     1
102
RTVSPost2010Prop47
 90
       50
102
RTVSPost2010PropOp47
 70
     1
102
RTVSPost2010Prop48
 90
       50
102
RTVSPost2010PropOp48
 70
     1
102
RTVSPost2010Prop49
280
     0
102
RTVSPost2010PropOp49
 70
     1
102
RTVSPost2010Prop50
 90
       50
102
RTVSPost2010PropOp50
 70
     1
102
RTVSPost2010Prop51ColorIndex
 90
      256
102
RTVSPost2010Prop51ColorRGB
 90
-16777216
102
RTVSPost2010PropOp51
 70
     0
102
RTVSPost2010Prop52
140
1.0
102
RTVSPost2010PropOp52
 70
     0
102
RTVSPost2010Prop53
 90
        2
102
RTVSPost2010PropOp53
 70
     1
102
RTVSPost2010Prop54
  1
strokes_ogs.tif
102
RTVSPost2010PropOp54
 70
     1
102
RTVSPost2010Prop55
280
     0
102
RTVSPost2010PropOp55
 70
     1
102
RTVSPost2010Prop56
140
1.0
102
RTVSPost2010PropOp56
 70
     1
102
RTVSPost2010Prop57
140
1.0
102
RTVSPost2010PropOp57
 70
     1
102
RTVSPropertyOp0
 70
     1
102
RTVSPropertyOp1
 70
     1
102
RTVSPropertyOp2
 70
     1
102
RTVSPropertyOp3
 70
     1
102
RTVSPropertyOp4
 70
     1
102
RTVSPropertyOp5
 70
     1
102
RTVSPropertyOp6
 70
     1
102
RTVSPropertyOp7
 70
     1
102
RTVSPropertyOp8
 70
     1
102
RTVSPropertyOp9
 70
     1
102
RTVSPropertyOp10
 70
     1
102
RTVSPropertyOp11
 70
     1
102
RTVSPropertyOp12
 70
     1
102
RTVSPropertyOp13
 70
     1
102
RTVSPropertyOp14
 70
     1
102
RTVSPropertyOp15
 70
     1
102
RTVSPropertyOp16
 70
     1
102
RTVSPropertyOp17
 70
     1
102
RTVSPropertyOp18
 70
     1
102
RTVSPropertyOp19
 70
     1
102
RTVSPropertyOp20
 70
     1
102
RTVSPropertyOp21
 70
     1
102
RTVSPropertyOp22
 70
     1
102
RTVSPropertyOp23
 70
     1
102
RTVSPropertyOp24
 70
     1
102
RTVSPropertyOp25
 70
     1
102
RTVSPropertyOp26
 70
     1
102
RTVSPropertyOp27
 70
     1
102
RTVSPropertyOp28
 70
     1
102
RTVSPropertyOp29
 70
     1
102
RTVSPropertyOp30
 70
     1
102
RTVSPropertyOp31
 70
     1
102
RTVSPropertyOp32
 70
     1
102
RTVSPropertyOp33
 70
     1
102
RTVSPropertyOp34
 70
     1
102
RTVSPropertyOp35
 70
     1
102
RTVSPropertyOp36
 70
     1
102
RTVSPropertyOp37
 70
     1
102
RTVSPropertyOp38
 70
     1
102
RTVSPropertyOp39
 70
     1
102
RTVSPropertyOp40
 70
     1
102
RTVSPropertyOp41
 70
     1
102
RTVSPropertyOp42
 70
     1
102
RTVSPropertyOp43
 70
     1
102
RTVSPropertyOp44
 70
     1
102
RTVSPropertyOp45
 70
     1
102
RTVSPropertyOp46
 70
     1
102
RTVSPropertyOp47
 70
     1
102
RTVSPropertyOp48
 70
     1
102
RTVSPropertyOp49
 70
     1
102
RTVSPropertyOp50
 70
     1
102
RTVSPropertyOp51
 70
     0
102
RTVSPropertyOp52
 70
     0
102
RTVSPropertyOp53
 70
     1
102
RTVSPropertyOp54
 70
     1
102
RTVSPropertyOp55
 70
     1
102
RTVSPropertyOp56
 70
     1
102
RTVSPropertyOp57
 70
     1
102
RTVSPropertyOp58
 70
     1
102
RTVSPropertyOp59
 70
     1
102
RTVSPropertyOp60
 70
     1
102
RTVSPropertyOp61
 70
     1
102
RTVSPropertyOp62
 70
     1
  0
XRECORD
  5
BBF0
102
{ACAD_REACTORS
330
BBEF
102
}
330
BBEF
100
AcDbXrecord
280
     1
102
RTVSPost2010Prop28
280
     0
102
RTVSPost2010PropOp28
 70
     1
102
RTVSPost2010Prop29
280
     1
102
RTVSPost2010PropOp29
 70
     1
102
RTVSPost2010Prop30
280
     1
102
RTVSPost2010PropOp30
 70
     1
102
RTVSPost2010Prop31
280
     0
102
RTVSPost2010PropOp31
 70
     1
102
RTVSPost2010Prop32
280
     0
102
RTVSPost2010PropOp32
 70
     1
102
RTVSPost2010Prop33
280
     0
102
RTVSPost2010PropOp33
 70
     1
102
RTVSPost2010Prop34
280
     0
102
RTVSPost2010PropOp34
 70
     1
102
RTVSPost2010Prop35
280
     0
102
RTVSPost2010PropOp35
 70
     1
102
RTVSPost2010Prop36
280
     0
102
RTVSPost2010PropOp36
 70
     1
102
RTVSPost2010Prop37
 90
       50
102
RTVSPost2010PropOp37
 70
     1
102
RTVSPost2010Prop38
140
0.0
102
RTVSPost2010PropOp38
 70
     1
102
RTVSPost2010Prop39
140
1.0
102
RTVSPost2010PropOp39
 70
     1
102
RTVSPost2010Prop40
 90
        0
102
RTVSPost2010PropOp40
 70
     1
102
RTVSPost2010Prop41ColorIndex
 90
       18
102
RTVSPost2010Prop41ColorRGB
 90
        0
102
RTVSPost2010PropOp41
 70
     1
102
RTVSPost2010Prop42
 90
       50
102
RTVSPost2010PropOp42
 70
     1
102
RTVSPost2010Prop43
 90
        3
102
RTVSPost2010PropOp43
 70
     1
102
RTVSPost2010Prop44ColorIndex
 90
        5
102
RTVSPost2010Prop44ColorRGB
 90
      255
102
RTVSPost2010PropOp44
 70
     1
102
RTVSPost2010Prop45
280
     0
102
RTVSPost2010PropOp45
 70
     1
102
RTVSPost2010Prop46
 90
       50
102
RTVSPost2010PropOp46
 70
     1
102
RTVSPost2010Prop47
 90
       50
102
RTVSPost2010PropOp47
 70
     1
102
RTVSPost2010Prop48
 90
       50
102
RTVSPost2010PropOp48
 70
     1
102
RTVSPost2010Prop49
280
     0
102
RTVSPost2010PropOp49
 70
     1
102
RTVSPost2010Prop50
 90
       50
102
RTVSPost2010PropOp50
 70
     1
102
RTVSPost2010Prop51ColorIndex
 90
      256
102
RTVSPost2010Prop51ColorRGB
 90
-16777216
102
RTVSPost2010PropOp51
 70
     0
102
RTVSPost2010Prop52
140
1.0
102
RTVSPost2010PropOp52
 70
     0
102
RTVSPost2010Prop53
 90
        2
102
RTVSPost2010PropOp53
 70
     1
102
RTVSPost2010Prop54
  1
strokes_ogs.tif
102
RTVSPost2010PropOp54
 70
     1
102
RTVSPost2010Prop55
280
     0
102
RTVSPost2010PropOp55
 70
     1
102
RTVSPost2010Prop56
140
1.0
102
RTVSPost2010PropOp56
 70
     1
102
RTVSPost2010Prop57
140
1.0
102
RTVSPost2010PropOp57
 70
     1
102
RTVSPropertyOp0
 70
     1
102
RTVSPropertyOp1
 70
     1
102
RTVSPropertyOp2
 70
     1
102
RTVSPropertyOp3
 70
     1
102
RTVSPropertyOp4
 70
     1
102
RTVSPropertyOp5
 70
     1
102
RTVSPropertyOp6
 70
     1
102
RTVSPropertyOp7
 70
     1
102
RTVSPropertyOp8
 70
     1
102
RTVSPropertyOp9
 70
     1
102
RTVSPropertyOp10
 70
     1
102
RTVSPropertyOp11
 70
     1
102
RTVSPropertyOp12
 70
     1
102
RTVSPropertyOp13
 70
     1
102
RTVSPropertyOp14
 70
     1
102
RTVSPropertyOp15
 70
     1
102
RTVSPropertyOp16
 70
     1
102
RTVSPropertyOp17
 70
     1
102
RTVSPropertyOp18
 70
     1
102
RTVSPropertyOp19
 70
     1
102
RTVSPropertyOp20
 70
     1
102
RTVSPropertyOp21
 70
     1
102
RTVSPropertyOp22
 70
     1
102
RTVSPropertyOp23
 70
     1
102
RTVSPropertyOp24
 70
     1
102
RTVSPropertyOp25
 70
     1
102
RTVSPropertyOp26
 70
     1
102
RTVSPropertyOp27
 70
     1
102
RTVSPropertyOp28
 70
     1
102
RTVSPropertyOp29
 70
     1
102
RTVSPropertyOp30
 70
     1
102
RTVSPropertyOp31
 70
     1
102
RTVSPropertyOp32
 70
     1
102
RTVSPropertyOp33
 70
     1
102
RTVSPropertyOp34
 70
     1
102
RTVSPropertyOp35
 70
     1
102
RTVSPropertyOp36
 70
     1
102
RTVSPropertyOp37
 70
     1
102
RTVSPropertyOp38
 70
     1
102
RTVSPropertyOp39
 70
     1
102
RTVSPropertyOp40
 70
     1
102
RTVSPropertyOp41
 70
     1
102
RTVSPropertyOp42
 70
     1
102
RTVSPropertyOp43
 70
     1
102
RTVSPropertyOp44
 70
     1
102
RTVSPropertyOp45
 70
     1
102
RTVSPropertyOp46
 70
     1
102
RTVSPropertyOp47
 70
     1
102
RTVSPropertyOp48
 70
     1
102
RTVSPropertyOp49
 70
     1
102
RTVSPropertyOp50
 70
     1
102
RTVSPropertyOp51
 70
     0
102
RTVSPropertyOp52
 70
     0
102
RTVSPropertyOp53
 70
     1
102
RTVSPropertyOp54
 70
     1
102
RTVSPropertyOp55
 70
     1
102
RTVSPropertyOp56
 70
     1
102
RTVSPropertyOp57
 70
     1
102
RTVSPropertyOp58
 70
     1
102
RTVSPropertyOp59
 70
     1
102
RTVSPropertyOp60
 70
     1
102
RTVSPropertyOp61
 70
     1
102
RTVSPropertyOp62
 70
     1
  0
XRECORD
  5
BBF2
102
{ACAD_REACTORS
330
BBF1
102
}
330
BBF1
100
AcDbXrecord
280
     1
102
RTVSPost2010Prop28
280
     0
102
RTVSPost2010PropOp28
 70
     1
102
RTVSPost2010Prop29
280
     1
102
RTVSPost2010PropOp29
 70
     1
102
RTVSPost2010Prop30
280
     1
102
RTVSPost2010PropOp30
 70
     1
102
RTVSPost2010Prop31
280
     0
102
RTVSPost2010PropOp31
 70
     1
102
RTVSPost2010Prop32
280
     0
102
RTVSPost2010PropOp32
 70
     1
102
RTVSPost2010Prop33
280
     0
102
RTVSPost2010PropOp33
 70
     1
102
RTVSPost2010Prop34
280
     0
102
RTVSPost2010PropOp34
 70
     1
102
RTVSPost2010Prop35
280
     0
102
RTVSPost2010PropOp35
 70
     1
102
RTVSPost2010Prop36
280
     0
102
RTVSPost2010PropOp36
 70
     1
102
RTVSPost2010Prop37
 90
       50
102
RTVSPost2010PropOp37
 70
     1
102
RTVSPost2010Prop38
140
0.0
102
RTVSPost2010PropOp38
 70
     1
102
RTVSPost2010Prop39
140
1.0
102
RTVSPost2010PropOp39
 70
     1
102
RTVSPost2010Prop40
 90
        0
102
RTVSPost2010PropOp40
 70
     1
102
RTVSPost2010Prop41ColorIndex
 90
       18
102
RTVSPost2010Prop41ColorRGB
 90
        0
102
RTVSPost2010PropOp41
 70
     1
102
RTVSPost2010Prop42
 90
       50
102
RTVSPost2010PropOp42
 70
     1
102
RTVSPost2010Prop43
 90
        3
102
RTVSPost2010PropOp43
 70
     1
102
RTVSPost2010Prop44ColorIndex
 90
        5
102
RTVSPost2010Prop44ColorRGB
 90
      255
102
RTVSPost2010PropOp44
 70
     1
102
RTVSPost2010Prop45
280
     0
102
RTVSPost2010PropOp45
 70
     1
102
RTVSPost2010Prop46
 90
       50
102
RTVSPost2010PropOp46
 70
     1
102
RTVSPost2010Prop47
 90
       50
102
RTVSPost2010PropOp47
 70
     1
102
RTVSPost2010Prop48
 90
       50
102
RTVSPost2010PropOp48
 70
     1
102
RTVSPost2010Prop49
280
     0
102
RTVSPost2010PropOp49
 70
     1
102
RTVSPost2010Prop50
 90
       50
102
RTVSPost2010PropOp50
 70
     1
102
RTVSPost2010Prop51ColorIndex
 90
      256
102
RTVSPost2010Prop51ColorRGB
 90
-16777216
102
RTVSPost2010PropOp51
 70
     0
102
RTVSPost2010Prop52
140
1.0
102
RTVSPost2010PropOp52
 70
     0
102
RTVSPost2010Prop53
 90
        2
102
RTVSPost2010PropOp53
 70
     1
102
RTVSPost2010Prop54
  1
strokes_ogs.tif
102
RTVSPost2010PropOp54
 70
     1
102
RTVSPost2010Prop55
280
     0
102
RTVSPost2010PropOp55
 70
     1
102
RTVSPost2010Prop56
140
1.0
102
RTVSPost2010PropOp56
 70
     1
102
RTVSPost2010Prop57
140
1.0
102
RTVSPost2010PropOp57
 70
     1
102
RTVSPropertyOp0
 70
     1
102
RTVSPropertyOp1
 70
     1
102
RTVSPropertyOp2
 70
     1
102
RTVSPropertyOp3
 70
     1
102
RTVSPropertyOp4
 70
     1
102
RTVSPropertyOp5
 70
     1
102
RTVSPropertyOp6
 70
     1
102
RTVSPropertyOp7
 70
     1
102
RTVSPropertyOp8
 70
     1
102
RTVSPropertyOp9
 70
     1
102
RTVSPropertyOp10
 70
     1
102
RTVSPropertyOp11
 70
     1
102
RTVSPropertyOp12
 70
     1
102
RTVSPropertyOp13
 70
     1
102
RTVSPropertyOp14
 70
     1
102
RTVSPropertyOp15
 70
     1
102
RTVSPropertyOp16
 70
     1
102
RTVSPropertyOp17
 70
     1
102
RTVSPropertyOp18
 70
     1
102
RTVSPropertyOp19
 70
     1
102
RTVSPropertyOp20
 70
     1
102
RTVSPropertyOp21
 70
     1
102
RTVSPropertyOp22
 70
     1
102
RTVSPropertyOp23
 70
     1
102
RTVSPropertyOp24
 70
     1
102
RTVSPropertyOp25
 70
     1
102
RTVSPropertyOp26
 70
     1
102
RTVSPropertyOp27
 70
     1
102
RTVSPropertyOp28
 70
     1
102
RTVSPropertyOp29
 70
     1
102
RTVSPropertyOp30
 70
     1
102
RTVSPropertyOp31
 70
     1
102
RTVSPropertyOp32
 70
     1
102
RTVSPropertyOp33
 70
     1
102
RTVSPropertyOp34
 70
     1
102
RTVSPropertyOp35
 70
     1
102
RTVSPropertyOp36
 70
     1
102
RTVSPropertyOp37
 70
     1
102
RTVSPropertyOp38
 70
     1
102
RTVSPropertyOp39
 70
     1
102
RTVSPropertyOp40
 70
     1
102
RTVSPropertyOp41
 70
     1
102
RTVSPropertyOp42
 70
     1
102
RTVSPropertyOp43
 70
     1
102
RTVSPropertyOp44
 70
     1
102
RTVSPropertyOp45
 70
     1
102
RTVSPropertyOp46
 70
     1
102
RTVSPropertyOp47
 70
     1
102
RTVSPropertyOp48
 70
     1
102
RTVSPropertyOp49
 70
     1
102
RTVSPropertyOp50
 70
     1
102
RTVSPropertyOp51
 70
     0
102
RTVSPropertyOp52
 70
     0
102
RTVSPropertyOp53
 70
     1
102
RTVSPropertyOp54
 70
     1
102
RTVSPropertyOp55
 70
     1
102
RTVSPropertyOp56
 70
     1
102
RTVSPropertyOp57
 70
     1
102
RTVSPropertyOp58
 70
     1
102
RTVSPropertyOp59
 70
     1
102
RTVSPropertyOp60
 70
     1
102
RTVSPropertyOp61
 70
     1
102
RTVSPropertyOp62
 70
     1
  0
XRECORD
  5
BBE0
102
{ACAD_REACTORS
330
BBDF
102
}
330
BBDF
100
AcDbXrecord
280
     1
102
RTVSPost2010Prop28
280
     0
102
RTVSPost2010PropOp28
 70
     1
102
RTVSPost2010Prop29
280
     1
102
RTVSPost2010PropOp29
 70
     1
102
RTVSPost2010Prop30
280
     1
102
RTVSPost2010PropOp30
 70
     1
102
RTVSPost2010Prop31
280
     0
102
RTVSPost2010PropOp31
 70
     1
102
RTVSPost2010Prop32
280
     0
102
RTVSPost2010PropOp32
 70
     1
102
RTVSPost2010Prop33
280
     0
102
RTVSPost2010PropOp33
 70
     1
102
RTVSPost2010Prop34
280
     0
102
RTVSPost2010PropOp34
 70
     1
102
RTVSPost2010Prop35
280
     0
102
RTVSPost2010PropOp35
 70
     1
102
RTVSPost2010Prop36
280
     0
102
RTVSPost2010PropOp36
 70
     1
102
RTVSPost2010Prop37
 90
       50
102
RTVSPost2010PropOp37
 70
     1
102
RTVSPost2010Prop38
140
0.0
102
RTVSPost2010PropOp38
 70
     1
102
RTVSPost2010Prop39
140
1.0
102
RTVSPost2010PropOp39
 70
     1
102
RTVSPost2010Prop40
 90
        0
102
RTVSPost2010PropOp40
 70
     1
102
RTVSPost2010Prop41ColorIndex
 90
       18
102
RTVSPost2010Prop41ColorRGB
 90
        0
102
RTVSPost2010PropOp41
 70
     1
102
RTVSPost2010Prop42
 90
       50
102
RTVSPost2010PropOp42
 70
     1
102
RTVSPost2010Prop43
 90
        3
102
RTVSPost2010PropOp43
 70
     1
102
RTVSPost2010Prop44ColorIndex
 90
        5
102
RTVSPost2010Prop44ColorRGB
 90
      255
102
RTVSPost2010PropOp44
 70
     1
102
RTVSPost2010Prop45
280
     0
102
RTVSPost2010PropOp45
 70
     1
102
RTVSPost2010Prop46
 90
       50
102
RTVSPost2010PropOp46
 70
     1
102
RTVSPost2010Prop47
 90
       50
102
RTVSPost2010PropOp47
 70
     1
102
RTVSPost2010Prop48
 90
       50
102
RTVSPost2010PropOp48
 70
     1
102
RTVSPost2010Prop49
280
     0
102
RTVSPost2010PropOp49
 70
     1
102
RTVSPost2010Prop50
 90
       50
102
RTVSPost2010PropOp50
 70
     1
102
RTVSPost2010Prop51ColorIndex
 90
      256
102
RTVSPost2010Prop51ColorRGB
 90
-16777216
102
RTVSPost2010PropOp51
 70
     0
102
RTVSPost2010Prop52
140
1.0
102
RTVSPost2010PropOp52
 70
     0
102
RTVSPost2010Prop53
 90
        2
102
RTVSPost2010PropOp53
 70
     1
102
RTVSPost2010Prop54
  1
strokes_ogs.tif
102
RTVSPost2010PropOp54
 70
     1
102
RTVSPost2010Prop55
280
     0
102
RTVSPost2010PropOp55
 70
     1
102
RTVSPost2010Prop56
140
1.0
102
RTVSPost2010PropOp56
 70
     1
102
RTVSPost2010Prop57
140
1.0
102
RTVSPost2010PropOp57
 70
     1
102
RTVSPropertyOp0
 70
     1
102
RTVSPropertyOp1
 70
     1
102
RTVSPropertyOp2
 70
     1
102
RTVSPropertyOp3
 70
     1
102
RTVSPropertyOp4
 70
     1
102
RTVSPropertyOp5
 70
     1
102
RTVSPropertyOp6
 70
     1
102
RTVSPropertyOp7
 70
     1
102
RTVSPropertyOp8
 70
     1
102
RTVSPropertyOp9
 70
     1
102
RTVSPropertyOp10
 70
     1
102
RTVSPropertyOp11
 70
     1
102
RTVSPropertyOp12
 70
     1
102
RTVSPropertyOp13
 70
     1
102
RTVSPropertyOp14
 70
     1
102
RTVSPropertyOp15
 70
     1
102
RTVSPropertyOp16
 70
     1
102
RTVSPropertyOp17
 70
     1
102
RTVSPropertyOp18
 70
     1
102
RTVSPropertyOp19
 70
     1
102
RTVSPropertyOp20
 70
     1
102
RTVSPropertyOp21
 70
     1
102
RTVSPropertyOp22
 70
     1
102
RTVSPropertyOp23
 70
     1
102
RTVSPropertyOp24
 70
     1
102
RTVSPropertyOp25
 70
     1
102
RTVSPropertyOp26
 70
     1
102
RTVSPropertyOp27
 70
     1
102
RTVSPropertyOp28
 70
     1
102
RTVSPropertyOp29
 70
     1
102
RTVSPropertyOp30
 70
     1
102
RTVSPropertyOp31
 70
     1
102
RTVSPropertyOp32
 70
     1
102
RTVSPropertyOp33
 70
     1
102
RTVSPropertyOp34
 70
     1
102
RTVSPropertyOp35
 70
     1
102
RTVSPropertyOp36
 70
     1
102
RTVSPropertyOp37
 70
     1
102
RTVSPropertyOp38
 70
     1
102
RTVSPropertyOp39
 70
     1
102
RTVSPropertyOp40
 70
     1
102
RTVSPropertyOp41
 70
     1
102
RTVSPropertyOp42
 70
     1
102
RTVSPropertyOp43
 70
     1
102
RTVSPropertyOp44
 70
     1
102
RTVSPropertyOp45
 70
     1
102
RTVSPropertyOp46
 70
     1
102
RTVSPropertyOp47
 70
     1
102
RTVSPropertyOp48
 70
     1
102
RTVSPropertyOp49
 70
     1
102
RTVSPropertyOp50
 70
     1
102
RTVSPropertyOp51
 70
     0
102
RTVSPropertyOp52
 70
     0
102
RTVSPropertyOp53
 70
     1
102
RTVSPropertyOp54
 70
     1
102
RTVSPropertyOp55
 70
     1
102
RTVSPropertyOp56
 70
     1
102
RTVSPropertyOp57
 70
     1
102
RTVSPropertyOp58
 70
     1
102
RTVSPropertyOp59
 70
     1
102
RTVSPropertyOp60
 70
     1
102
RTVSPropertyOp61
 70
     1
102
RTVSPropertyOp62
 70
     1
  0
XRECORD
  5
BBD4
102
{ACAD_REACTORS
330
BBD3
102
}
330
BBD3
100
AcDbXrecord
280
     1
102
RTVSPost2010Prop28
280
     0
102
RTVSPost2010PropOp28
 70
     1
102
RTVSPost2010Prop29
280
     1
102
RTVSPost2010PropOp29
 70
     1
102
RTVSPost2010Prop30
280
     1
102
RTVSPost2010PropOp30
 70
     1
102
RTVSPost2010Prop31
280
     0
102
RTVSPost2010PropOp31
 70
     1
102
RTVSPost2010Prop32
280
     0
102
RTVSPost2010PropOp32
 70
     1
102
RTVSPost2010Prop33
280
     0
102
RTVSPost2010PropOp33
 70
     1
102
RTVSPost2010Prop34
280
     0
102
RTVSPost2010PropOp34
 70
     1
102
RTVSPost2010Prop35
280
     0
102
RTVSPost2010PropOp35
 70
     1
102
RTVSPost2010Prop36
280
     0
102
RTVSPost2010PropOp36
 70
     1
102
RTVSPost2010Prop37
 90
       50
102
RTVSPost2010PropOp37
 70
     1
102
RTVSPost2010Prop38
140
0.0
102
RTVSPost2010PropOp38
 70
     1
102
RTVSPost2010Prop39
140
1.0
102
RTVSPost2010PropOp39
 70
     1
102
RTVSPost2010Prop40
 90
        0
102
RTVSPost2010PropOp40
 70
     1
102
RTVSPost2010Prop41ColorIndex
 90
       18
102
RTVSPost2010Prop41ColorRGB
 90
        0
102
RTVSPost2010PropOp41
 70
     1
102
RTVSPost2010Prop42
 90
       50
102
RTVSPost2010PropOp42
 70
     1
102
RTVSPost2010Prop43
 90
        3
102
RTVSPost2010PropOp43
 70
     1
102
RTVSPost2010Prop44ColorIndex
 90
        5
102
RTVSPost2010Prop44ColorRGB
 90
      255
102
RTVSPost2010PropOp44
 70
     1
102
RTVSPost2010Prop45
280
     0
102
RTVSPost2010PropOp45
 70
     1
102
RTVSPost2010Prop46
 90
       50
102
RTVSPost2010PropOp46
 70
     1
102
RTVSPost2010Prop47
 90
       50
102
RTVSPost2010PropOp47
 70
     1
102
RTVSPost2010Prop48
 90
       50
102
RTVSPost2010PropOp48
 70
     1
102
RTVSPost2010Prop49
280
     0
102
RTVSPost2010PropOp49
 70
     1
102
RTVSPost2010Prop50
 90
       50
102
RTVSPost2010PropOp50
 70
     1
102
RTVSPost2010Prop51ColorIndex
 90
      256
102
RTVSPost2010Prop51ColorRGB
 90
-16777216
102
RTVSPost2010PropOp51
 70
     0
102
RTVSPost2010Prop52
140
1.0
102
RTVSPost2010PropOp52
 70
     0
102
RTVSPost2010Prop53
 90
        2
102
RTVSPost2010PropOp53
 70
     1
102
RTVSPost2010Prop54
  1
strokes_ogs.tif
102
RTVSPost2010PropOp54
 70
     1
102
RTVSPost2010Prop55
280
     0
102
RTVSPost2010PropOp55
 70
     1
102
RTVSPost2010Prop56
140
1.0
102
RTVSPost2010PropOp56
 70
     1
102
RTVSPost2010Prop57
140
1.0
102
RTVSPost2010PropOp57
 70
     1
102
RTVSPropertyOp0
 70
     1
102
RTVSPropertyOp1
 70
     1
102
RTVSPropertyOp2
 70
     1
102
RTVSPropertyOp3
 70
     1
102
RTVSPropertyOp4
 70
     1
102
RTVSPropertyOp5
 70
     1
102
RTVSPropertyOp6
 70
     1
102
RTVSPropertyOp7
 70
     1
102
RTVSPropertyOp8
 70
     1
102
RTVSPropertyOp9
 70
     1
102
RTVSPropertyOp10
 70
     1
102
RTVSPropertyOp11
 70
     1
102
RTVSPropertyOp12
 70
     1
102
RTVSPropertyOp13
 70
     1
102
RTVSPropertyOp14
 70
     1
102
RTVSPropertyOp15
 70
     1
102
RTVSPropertyOp16
 70
     1
102
RTVSPropertyOp17
 70
     1
102
RTVSPropertyOp18
 70
     1
102
RTVSPropertyOp19
 70
     1
102
RTVSPropertyOp20
 70
     1
102
RTVSPropertyOp21
 70
     1
102
RTVSPropertyOp22
 70
     1
102
RTVSPropertyOp23
 70
     1
102
RTVSPropertyOp24
 70
     1
102
RTVSPropertyOp25
 70
     1
102
RTVSPropertyOp26
 70
     1
102
RTVSPropertyOp27
 70
     1
102
RTVSPropertyOp28
 70
     1
102
RTVSPropertyOp29
 70
     1
102
RTVSPropertyOp30
 70
     1
102
RTVSPropertyOp31
 70
     1
102
RTVSPropertyOp32
 70
     1
102
RTVSPropertyOp33
 70
     1
102
RTVSPropertyOp34
 70
     1
102
RTVSPropertyOp35
 70
     1
102
RTVSPropertyOp36
 70
     1
102
RTVSPropertyOp37
 70
     1
102
RTVSPropertyOp38
 70
     1
102
RTVSPropertyOp39
 70
     1
102
RTVSPropertyOp40
 70
     1
102
RTVSPropertyOp41
 70
     1
102
RTVSPropertyOp42
 70
     1
102
RTVSPropertyOp43
 70
     1
102
RTVSPropertyOp44
 70
     1
102
RTVSPropertyOp45
 70
     1
102
RTVSPropertyOp46
 70
     1
102
RTVSPropertyOp47
 70
     1
102
RTVSPropertyOp48
 70
     1
102
RTVSPropertyOp49
 70
     1
102
RTVSPropertyOp50
 70
     1
102
RTVSPropertyOp51
 70
     0
102
RTVSPropertyOp52
 70
     0
102
RTVSPropertyOp53
 70
     1
102
RTVSPropertyOp54
 70
     1
102
RTVSPropertyOp55
 70
     1
102
RTVSPropertyOp56
 70
     1
102
RTVSPropertyOp57
 70
     1
102
RTVSPropertyOp58
 70
     1
102
RTVSPropertyOp59
 70
     1
102
RTVSPropertyOp60
 70
     1
102
RTVSPropertyOp61
 70
     1
102
RTVSPropertyOp62
 70
     1
  0
XRECORD
  5
BBF4
102
{ACAD_REACTORS
330
BBF3
102
}
330
BBF3
100
AcDbXrecord
280
     1
102
RTVSPost2010Prop28
280
     0
102
RTVSPost2010PropOp28
 70
     1
102
RTVSPost2010Prop29
280
     1
102
RTVSPost2010PropOp29
 70
     1
102
RTVSPost2010Prop30
280
     1
102
RTVSPost2010PropOp30
 70
     1
102
RTVSPost2010Prop31
280
     0
102
RTVSPost2010PropOp31
 70
     1
102
RTVSPost2010Prop32
280
     0
102
RTVSPost2010PropOp32
 70
     1
102
RTVSPost2010Prop33
280
     0
102
RTVSPost2010PropOp33
 70
     1
102
RTVSPost2010Prop34
280
     0
102
RTVSPost2010PropOp34
 70
     1
102
RTVSPost2010Prop35
280
     0
102
RTVSPost2010PropOp35
 70
     1
102
RTVSPost2010Prop36
280
     0
102
RTVSPost2010PropOp36
 70
     1
102
RTVSPost2010Prop37
 90
       50
102
RTVSPost2010PropOp37
 70
     1
102
RTVSPost2010Prop38
140
0.0
102
RTVSPost2010PropOp38
 70
     1
102
RTVSPost2010Prop39
140
1.0
102
RTVSPost2010PropOp39
 70
     1
102
RTVSPost2010Prop40
 90
        0
102
RTVSPost2010PropOp40
 70
     1
102
RTVSPost2010Prop41ColorIndex
 90
       18
102
RTVSPost2010Prop41ColorRGB
 90
        0
102
RTVSPost2010PropOp41
 70
     1
102
RTVSPost2010Prop42
 90
       50
102
RTVSPost2010PropOp42
 70
     1
102
RTVSPost2010Prop43
 90
        3
102
RTVSPost2010PropOp43
 70
     1
102
RTVSPost2010Prop44ColorIndex
 90
        5
102
RTVSPost2010Prop44ColorRGB
 90
      255
102
RTVSPost2010PropOp44
 70
     1
102
RTVSPost2010Prop45
280
     0
102
RTVSPost2010PropOp45
 70
     1
102
RTVSPost2010Prop46
 90
       50
102
RTVSPost2010PropOp46
 70
     1
102
RTVSPost2010Prop47
 90
       50
102
RTVSPost2010PropOp47
 70
     1
102
RTVSPost2010Prop48
 90
       50
102
RTVSPost2010PropOp48
 70
     1
102
RTVSPost2010Prop49
280
     0
102
RTVSPost2010PropOp49
 70
     1
102
RTVSPost2010Prop50
 90
       50
102
RTVSPost2010PropOp50
 70
     1
102
RTVSPost2010Prop51ColorIndex
 90
      256
102
RTVSPost2010Prop51ColorRGB
 90
-16777216
102
RTVSPost2010PropOp51
 70
     0
102
RTVSPost2010Prop52
140
1.0
102
RTVSPost2010PropOp52
 70
     0
102
RTVSPost2010Prop53
 90
        2
102
RTVSPost2010PropOp53
 70
     1
102
RTVSPost2010Prop54
  1
strokes_ogs.tif
102
RTVSPost2010PropOp54
 70
     1
102
RTVSPost2010Prop55
280
     0
102
RTVSPost2010PropOp55
 70
     1
102
RTVSPost2010Prop56
140
1.0
102
RTVSPost2010PropOp56
 70
     1
102
RTVSPost2010Prop57
140
1.0
102
RTVSPost2010PropOp57
 70
     1
102
RTVSPropertyOp0
 70
     1
102
RTVSPropertyOp1
 70
     1
102
RTVSPropertyOp2
 70
     1
102
RTVSPropertyOp3
 70
     1
102
RTVSPropertyOp4
 70
     1
102
RTVSPropertyOp5
 70
     1
102
RTVSPropertyOp6
 70
     1
102
RTVSPropertyOp7
 70
     1
102
RTVSPropertyOp8
 70
     1
102
RTVSPropertyOp9
 70
     1
102
RTVSPropertyOp10
 70
     1
102
RTVSPropertyOp11
 70
     1
102
RTVSPropertyOp12
 70
     1
102
RTVSPropertyOp13
 70
     1
102
RTVSPropertyOp14
 70
     1
102
RTVSPropertyOp15
 70
     1
102
RTVSPropertyOp16
 70
     1
102
RTVSPropertyOp17
 70
     1
102
RTVSPropertyOp18
 70
     1
102
RTVSPropertyOp19
 70
     1
102
RTVSPropertyOp20
 70
     1
102
RTVSPropertyOp21
 70
     1
102
RTVSPropertyOp22
 70
     1
102
RTVSPropertyOp23
 70
     1
102
RTVSPropertyOp24
 70
     1
102
RTVSPropertyOp25
 70
     1
102
RTVSPropertyOp26
 70
     1
102
RTVSPropertyOp27
 70
     1
102
RTVSPropertyOp28
 70
     1
102
RTVSPropertyOp29
 70
     1
102
RTVSPropertyOp30
 70
     1
102
RTVSPropertyOp31
 70
     1
102
RTVSPropertyOp32
 70
     1
102
RTVSPropertyOp33
 70
     1
102
RTVSPropertyOp34
 70
     1
102
RTVSPropertyOp35
 70
     1
102
RTVSPropertyOp36
 70
     1
102
RTVSPropertyOp37
 70
     1
102
RTVSPropertyOp38
 70
     1
102
RTVSPropertyOp39
 70
     1
102
RTVSPropertyOp40
 70
     1
102
RTVSPropertyOp41
 70
     1
102
RTVSPropertyOp42
 70
     1
102
RTVSPropertyOp43
 70
     1
102
RTVSPropertyOp44
 70
     1
102
RTVSPropertyOp45
 70
     1
102
RTVSPropertyOp46
 70
     1
102
RTVSPropertyOp47
 70
     1
102
RTVSPropertyOp48
 70
     1
102
RTVSPropertyOp49
 70
     1
102
RTVSPropertyOp50
 70
     1
102
RTVSPropertyOp51
 70
     0
102
RTVSPropertyOp52
 70
     0
102
RTVSPropertyOp53
 70
     1
102
RTVSPropertyOp54
 70
     1
102
RTVSPropertyOp55
 70
     1
102
RTVSPropertyOp56
 70
     1
102
RTVSPropertyOp57
 70
     1
102
RTVSPropertyOp58
 70
     1
102
RTVSPropertyOp59
 70
     1
102
RTVSPropertyOp60
 70
     1
102
RTVSPropertyOp61
 70
     1
102
RTVSPropertyOp62
 70
     1
  0
ENDSEC
  0
EOF
