  0
SECTION
  2
HEADER
  9
$ACADVER
  1
AC1015
  9
$ACADMAINTVER
 70
    18
  9
$DWGCODEPAGE
  3
ANSI_1252
  9
$INSBASE
 10
0.0
 20
0.0
 30
0.0
  9
$EXTMIN
 10
-231.1102287833465
 20
-322.9947506610709
 30
-0.0015258207003583
  9
$EXTMAX
 10
293.2489021975186
 20
359.6167152419415
 30
0.0000000349246037
  9
$LIMMIN
 10
0.0
 20
0.0
  9
$LIMMAX
 10
420.0
 20
297.0
  9
$ORTHOMODE
 70
     0
  9
$REGENMODE
 70
     1
  9
$FILLMODE
 70
     1
  9
$QTEXTMODE
 70
     0
  9
$MIRRTEXT
 70
     0
  9
$LTSCALE
 40
1.0
  9
$ATTMODE
 70
     1
  9
$TEXTSIZE
 40
2.5
  9
$TRACEWID
 40
1.0
  9
$TEXTSTYLE
  7
Standard
  9
$CLAYER
  8
0
  9
$CELTYPE
  6
ByLayer
  9
$CECOLOR
 62
   256
  9
$CELTSCALE
 40
1.0
  9
$DISPSILH
 70
     0
  9
$DIMSCALE
 40
1.0
  9
$DIMASZ
 40
2.5
  9
$DIMEXO
 40
0.625
  9
$DIMDLI
 40
3.75
  9
$DIMRND
 40
0.0
  9
$DIMDLE
 40
0.0
  9
$DIMEXE
 40
1.25
  9
$DIMTP
 40
0.0
  9
$DIMTM
 40
0.0
  9
$DIMTXT
 40
2.5
  9
$DIMCEN
 40
2.5
  9
$DIMTSZ
 40
0.0
  9
$DIMTOL
 70
     0
  9
$DIMLIM
 70
     0
  9
$DIMTIH
 70
     0
  9
$DIMTOH
 70
     0
  9
$DIMSE1
 70
     0
  9
$DIMSE2
 70
     0
  9
$DIMTAD
 70
     1
  9
$DIMZIN
 70
     8
  9
$DIMBLK
  1

  9
$DIMASO
 70
     1
  9
$DIMSHO
 70
     1
  9
$DIMPOST
  1

  9
$DIMAPOST
  1

  9
$DIMALT
 70
     0
  9
$DIMALTD
 70
     3
  9
$DIMALTF
 40
0.03937007874016
  9
$DIMLFAC
 40
1.0
  9
$DIMTOFL
 70
     1
  9
$DIMTVP
 40
0.0
  9
$DIMTIX
 70
     0
  9
$DIMSOXD
 70
     0
  9
$DIMSAH
 70
     0
  9
$DIMBLK1
  1

  9
$DIMBLK2
  1

  9
$DIMSTYLE
  2
ISO-25
  9
$DIMCLRD
 70
     0
  9
$DIMCLRE
 70
     0
  9
$DIMCLRT
 70
     0
  9
$DIMTFAC
 40
1.0
  9
$DIMGAP
 40
0.625
  9
$DIMJUST
 70
     0
  9
$DIMSD1
 70
     0
  9
$DIMSD2
 70
     0
  9
$DIMTOLJ
 70
     0
  9
$DIMTZIN
 70
     8
  9
$DIMALTZ
 70
     0
  9
$DIMALTTZ
 70
     0
  9
$DIMUPT
 70
     0
  9
$DIMDEC
 70
     2
  9
$DIMTDEC
 70
     2
  9
$DIMALTU
 70
     2
  9
$DIMALTTD
 70
     3
  9
$DIMTXSTY
  7
Standard
  9
$DIMAUNIT
 70
     0
  9
$DIMADEC
 70
     0
  9
$DIMALTRND
 40
0.0
  9
$DIMAZIN
 70
     0
  9
$DIMDSEP
 70
    44
  9
$DIMATFIT
 70
     3
  9
$DIMFRAC
 70
     0
  9
$DIMLDRBLK
  1

  9
$DIMLUNIT
 70
     2
  9
$DIMLWD
 70
    -2
  9
$DIMLWE
 70
    -2
  9
$DIMTMOVE
 70
     0
  9
$LUNITS
 70
     2
  9
$LUPREC
 70
     4
  9
$SKETCHINC
 40
1.0
  9
$FILLETRAD
 40
0.0
  9
$AUNITS
 70
     0
  9
$AUPREC
 70
     0
  9
$MENU
  1
.
  9
$ELEVATION
 40
0.0
  9
$PELEVATION
 40
0.0
  9
$THICKNESS
 40
0.0
  9
$LIMCHECK
 70
     0
  9
$CHAMFERA
 40
0.0
  9
$CHAMFERB
 40
0.0
  9
$CHAMFERC
 40
0.0
  9
$CHAMFERD
 40
0.0
  9
$SKPOLY
 70
     0
  9
$TDCREATE
 40
2460398.356956019
  9
$TDUCREATE
 40
2460398.065289352
  9
$TDUPDATE
 40
2460398.376296296
  9
$TDUUPDATE
 40
2460398.084629630
  9
$TDINDWG
 40
0.0081365741
  9
$TDUSRTIMER
 40
0.0081365741
  9
$USRTIMER
 70
     1
  9
$ANGBASE
 50
0.0
  9
$ANGDIR
 70
     0
  9
$PDMODE
 70
     0
  9
$PDSIZE
 40
0.0
  9
$PLINEWID
 40
0.0
  9
$SPLFRAME
 70
     0
  9
$SPLINETYPE
 70
     6
  9
$SPLINESEGS
 70
     8
  9
$HANDSEED
  5
C31F
  9
$SURFTAB1
 70
     6
  9
$SURFTAB2
 70
     6
  9
$SURFTYPE
 70
     6
  9
$SURFU
 70
     6
  9
$SURFV
 70
     6
  9
$UCSBASE
  2

  9
$UCSNAME
  2

  9
$UCSORG
 10
0.0
 20
0.0
 30
0.0
  9
$UCSXDIR
 10
1.0
 20
0.0
 30
0.0
  9
$UCSYDIR
 10
0.0
 20
1.0
 30
0.0
  9
$UCSORTHOREF
  2

  9
$UCSORTHOVIEW
 70
     0
  9
$UCSORGTOP
 10
0.0
 20
0.0
 30
0.0
  9
$UCSORGBOTTOM
 10
0.0
 20
0.0
 30
0.0
  9
$UCSORGLEFT
 10
0.0
 20
0.0
 30
0.0
  9
$UCSORGRIGHT
 10
0.0
 20
0.0
 30
0.0
  9
$UCSORGFRONT
 10
0.0
 20
0.0
 30
0.0
  9
$UCSORGBACK
 10
0.0
 20
0.0
 30
0.0
  9
$PUCSBASE
  2

  9
$PUCSNAME
  2

  9
$PUCSORG
 10
0.0
 20
0.0
 30
0.0
  9
$PUCSXDIR
 10
1.0
 20
0.0
 30
0.0
  9
$PUCSYDIR
 10
0.0
 20
1.0
 30
0.0
  9
$PUCSORTHOREF
  2

  9
$PUCSORTHOVIEW
 70
     0
  9
$PUCSORGTOP
 10
0.0
 20
0.0
 30
0.0
  9
$PUCSORGBOTTOM
 10
0.0
 20
0.0
 30
0.0
  9
$PUCSORGLEFT
 10
0.0
 20
0.0
 30
0.0
  9
$PUCSORGRIGHT
 10
0.0
 20
0.0
 30
0.0
  9
$PUCSORGFRONT
 10
0.0
 20
0.0
 30
0.0
  9
$PUCSORGBACK
 10
0.0
 20
0.0
 30
0.0
  9
$USERI1
 70
     0
  9
$USERI2
 70
     0
  9
$USERI3
 70
     0
  9
$USERI4
 70
     0
  9
$USERI5
 70
     0
  9
$USERR1
 40
0.0
  9
$USERR2
 40
0.0
  9
$USERR3
 40
0.0
  9
$USERR4
 40
0.0
  9
$USERR5
 40
0.0
  9
$WORLDVIEW
 70
     1
  9
$SHADEDGE
 70
     3
  9
$SHADEDIF
 70
    70
  9
$TILEMODE
 70
     1
  9
$MAXACTVP
 70
    48
  9
$PINSBASE
 10
0.0
 20
0.0
 30
0.0
  9
$PLIMCHECK
 70
     0
  9
$PEXTMIN
 10
0.0
 20
0.0
 30
0.0
  9
$PEXTMAX
 10
0.0
 20
0.0
 30
0.0
  9
$PLIMMIN
 10
0.0
 20
0.0
  9
$PLIMMAX
 10
12.0
 20
9.0
  9
$UNITMODE
 70
     0
  9
$VISRETAIN
 70
     1
  9
$PLINEGEN
 70
     0
  9
$PSLTSCALE
 70
     1
  9
$TREEDEPTH
 70
  3020
  9
$CMLSTYLE
  2
Standard
  9
$CMLJUST
 70
     0
  9
$CMLSCALE
 40
20.0
  9
$PROXYGRAPHICS
 70
     1
  9
$MEASUREMENT
 70
     1
  9
$CELWEIGHT
370
    -1
  9
$ENDCAPS
280
     0
  9
$JOINSTYLE
280
     0
  9
$LWDISPLAY
290
     0
  9
$INSUNITS
 70
     4
  9
$HYPERLINKBASE
  1

  9
$STYLESHEET
  1

  9
$XEDIT
290
     1
  9
$CEPSNTYPE
380
     0
  9
$PSTYLEMODE
290
     1
  9
$FINGERPRINTGUID
  2
{6C1266EE-7BC1-BF4A-B059-A6E7702B10CE}
  9
$VERSIONGUID
  2
{942B4ED7-2B6B-3D40-9552-587930A4947B}
  9
$EXTNAMES
290
     1
  9
$PSVPSCALE
 40
0.0
  9
$OLESTARTUP
290
     0
  0
ENDSEC
  0
SECTION
  2
CLASSES
  0
CLASS
  1
ACDBDICTIONARYWDFLT
  2
AcDbDictionaryWithDefault
  3
ObjectDBX Classes
 90
        0
280
     0
281
     0
  0
CLASS
  1
ACDBPLACEHOLDER
  2
AcDbPlaceHolder
  3
ObjectDBX Classes
 90
        0
280
     0
281
     0
  0
CLASS
  1
LAYOUT
  2
AcDbLayout
  3
ObjectDBX Classes
 90
        0
280
     0
281
     0
  0
CLASS
  1
DICTIONARYVAR
  2
AcDbDictionaryVar
  3
ObjectDBX Classes
 90
        0
280
     0
281
     0
  0
CLASS
  1
TABLESTYLE
  2
AcDbTableStyle
  3
ObjectDBX Classes
 90
     4095
280
     0
281
     0
  0
CLASS
  1
MATERIAL
  2
AcDbMaterial
  3
ObjectDBX Classes
 90
     1153
280
     0
281
     0
  0
CLASS
  1
VISUALSTYLE
  2
AcDbVisualStyle
  3
ObjectDBX Classes
 90
     4095
280
     0
281
     0
  0
CLASS
  1
SCALE
  2
AcDbScale
  3
ObjectDBX Classes
 90
     1153
280
     0
281
     0
  0
CLASS
  1
MLEADERSTYLE
  2
AcDbMLeaderStyle
  3
ACDB_MLEADERSTYLE_CLASS
 90
     4095
280
     0
281
     0
  0
CLASS
  1
CELLSTYLEMAP
  2
AcDbCellStyleMap
  3
ObjectDBX Classes
 90
     1152
280
     0
281
     0
  0
CLASS
  1
EXACXREFPANELOBJECT
  2
ExAcXREFPanelObject
  3
EXAC_ESW
 90
    33793
280
     0
281
     0
  0
CLASS
  1
NPOCOLLECTION
  2
AcDbImpNonPersistentObjectsCollection
  3
ObjectDBX Classes
 90
    33921
280
     0
281
     0
  0
CLASS
  1
LAYER_INDEX
  2
AcDbLayerIndex
  3
ObjectDBX Classes
 90
    32768
280
     0
281
     0
  0
CLASS
  1
SPATIAL_INDEX
  2
AcDbSpatialIndex
  3
ObjectDBX Classes
 90
    32768
280
     0
281
     0
  0
CLASS
  1
IDBUFFER
  2
AcDbIdBuffer
  3
ObjectDBX Classes
 90
    32768
280
     0
281
     0
  0
CLASS
  1
ACDBSECTIONVIEWSTYLE
  2
AcDbSectionViewStyle
  3
ObjectDBX Classes
 90
     1025
280
     0
281
     0
  0
CLASS
  1
ACDBDETAILVIEWSTYLE
  2
AcDbDetailViewStyle
  3
ObjectDBX Classes
 90
     1025
280
     0
281
     0
  0
CLASS
  1
XRECORD
  2
AcDbXrecord
  3
ObjectDBX Classes
 90
        0
280
     0
281
     0
  0
ENDSEC
  0
SECTION
  2
TABLES
  0
TABLE
  2
VPORT
  5
8
102
{ACAD_XDICTIONARY
360
C22D
102
}
330
0
100
AcDbSymbolTable
 70
     1
  0
VPORT
  5
EA
330
8
100
AcDbSymbolTableRecord
100
AcDbViewportTableRecord
  2
*Active
 70
     0
 10
0.0
 20
0.0
 11
1.0
 21
1.0
 12
31.06933670708603
 22
18.31098229043533
 13
0.0
 23
0.0
 14
10.0
 24
10.0
 15
10.0
 25
10.0
 16
0.0
 26
0.0
 36
1.0
 17
0.0
 27
0.0
 37
0.0
 40
725.8954334732949
 41
0.9846153846153846
 42
50.0
 43
0.0
 44
0.0
 50
0.0
 51
0.0
 71
     0
 72
  1000
 73
     1
 74
     3
 75
     0
 76
     1
 77
     0
 78
     0
281
     0
 65
     1
110
0.0
120
0.0
130
0.0
111
1.0
121
0.0
131
0.0
112
0.0
122
1.0
132
0.0
 79
     0
146
0.0
1001
ACAD_NAV_VCDISPLAY
1070
     3
  0
ENDTAB
  0
TABLE
  2
LTYPE
  5
5
330
0
100
AcDbSymbolTable
 70
     1
  0
LTYPE
  5
14
330
5
100
AcDbSymbolTableRecord
100
AcDbLinetypeTableRecord
  2
ByBlock
 70
     0
  3

 72
    65
 73
     0
 40
0.0
  0
LTYPE
  5
15
330
5
100
AcDbSymbolTableRecord
100
AcDbLinetypeTableRecord
  2
ByLayer
 70
     0
  3

 72
    65
 73
     0
 40
0.0
  0
LTYPE
  5
16
330
5
100
AcDbSymbolTableRecord
100
AcDbLinetypeTableRecord
  2
Continuous
 70
     0
  3
Solid line
 72
    65
 73
     0
 40
0.0
  0
ENDTAB
  0
TABLE
  2
LAYER
  5
2
102
{ACAD_XDICTIONARY
360
1FF
102
}
330
0
100
AcDbSymbolTable
 70
     1
  0
LAYER
  5
10
102
{ACAD_XDICTIONARY
360
13C
102
}
330
2
100
AcDbSymbolTableRecord
100
AcDbLayerTableRecord
  2
0
 70
     0
 62
     7
  6
Continuous
370
    -3
390
F
  0
ENDTAB
  0
TABLE
  2
STYLE
  5
3
330
0
100
AcDbSymbolTable
 70
     1
  0
STYLE
  5
11
330
3
100
AcDbSymbolTableRecord
100
AcDbTextStyleTableRecord
  2
Standard
 70
     0
 40
0.0
 41
1.0
 50
0.0
 71
     0
 42
2.5
  3
arial.ttf
  4

1001
ACAD
1000
Arial
1071
       34
  0
ENDTAB
  0
TABLE
  2
VIEW
  5
6
330
0
100
AcDbSymbolTable
 70
     0
  0
ENDTAB
  0
TABLE
  2
UCS
  5
7
330
0
100
AcDbSymbolTable
 70
     0
  0
ENDTAB
  0
TABLE
  2
APPID
  5
9
330
0
100
AcDbSymbolTable
 70
     8
  0
APPID
  5
12
330
9
100
AcDbSymbolTableRecord
100
AcDbRegAppTableRecord
  2
ACAD
 70
     0
  0
APPID
  5
9E
330
9
100
AcDbSymbolTableRecord
100
AcDbRegAppTableRecord
  2
ACAD_PSEXT
 70
     0
  0
APPID
  5
133
330
9
100
AcDbSymbolTableRecord
100
AcDbRegAppTableRecord
  2
AcadAnnoPO
 70
     0
  0
APPID
  5
134
330
9
100
AcDbSymbolTableRecord
100
AcDbRegAppTableRecord
  2
AcadAnnotative
 70
     0
  0
APPID
  5
135
330
9
100
AcDbSymbolTableRecord
100
AcDbRegAppTableRecord
  2
ACAD_DSTYLE_DIMJAG
 70
     0
  0
APPID
  5
136
330
9
100
AcDbSymbolTableRecord
100
AcDbRegAppTableRecord
  2
ACAD_DSTYLE_DIMTALN
 70
     0
  0
APPID
  5
165
330
9
100
AcDbSymbolTableRecord
100
AcDbRegAppTableRecord
  2
ACAD_MLEADERVER
 70
     0
  0
APPID
  5
217
330
9
100
AcDbSymbolTableRecord
100
AcDbRegAppTableRecord
  2
ACAD_NAV_VCDISPLAY
 70
     0
  0
ENDTAB
  0
TABLE
  2
DIMSTYLE
  5
A
330
0
100
AcDbSymbolTable
 70
     1
100
AcDbDimStyleTable
 71
     0
  0
DIMSTYLE
105
27
330
A
100
AcDbSymbolTableRecord
100
AcDbDimStyleTableRecord
  2
ISO-25
 70
     0
 41
2.5
 42
0.625
 43
3.75
 44
1.25
 73
     0
 74
     0
 77
     1
 78
     8
140
2.5
141
2.5
143
0.03937007874016
147
0.625
171
     3
172
     1
271
     2
272
     2
274
     3
278
    44
283
     0
284
     8
340
11
  0
ENDTAB
  0
TABLE
  2
BLOCK_RECORD
  5
1
330
0
100
AcDbSymbolTable
 70
     7
  0
BLOCK_RECORD
  5
1F
102
{ACAD_XDICTIONARY
360
1CE
102
}
330
1
100
AcDbSymbolTableRecord
100
AcDbBlockTableRecord
  2
*Model_Space
340
22
  0
BLOCK_RECORD
  5
D2
102
{ACAD_XDICTIONARY
360
C1E0
102
}
330
1
100
AcDbSymbolTableRecord
100
AcDbBlockTableRecord
  2
*Paper_Space
340
D3
  0
BLOCK_RECORD
  5
D6
102
{ACAD_XDICTIONARY
360
C1E2
102
}
330
1
100
AcDbSymbolTableRecord
100
AcDbBlockTableRecord
  2
*Paper_Space0
340
D7
  0
BLOCK_RECORD
  5
C026
330
1
100
AcDbSymbolTableRecord
100
AcDbBlockTableRecord
  2
SAE500_80_2-Front
340
0
102
{BLKREFS
331
C1D6
102
}
  0
BLOCK_RECORD
  5
C089
330
1
100
AcDbSymbolTableRecord
100
AcDbBlockTableRecord
  2
SAE500_80_2-Left
340
0
102
{BLKREFS
331
C1D7
102
}
  0
BLOCK_RECORD
  5
C0AC
330
1
100
AcDbSymbolTableRecord
100
AcDbBlockTableRecord
  2
SAE500_80_2-Right
340
0
102
{BLKREFS
331
C1D8
102
}
  0
BLOCK_RECORD
  5
C0D0
330
1
100
AcDbSymbolTableRecord
100
AcDbBlockTableRecord
  2
SAE500_80_2-Top
340
0
102
{BLKREFS
331
C1D9
102
}
  0
BLOCK_RECORD
  5
C105
330
1
100
AcDbSymbolTableRecord
100
AcDbBlockTableRecord
  2
SAE500_80_2-Bottom
340
0
102
{BLKREFS
331
C1DA
102
}
  0
BLOCK_RECORD
  5
C12C
330
1
100
AcDbSymbolTableRecord
100
AcDbBlockTableRecord
  2
SAE500_80_2-ISO
340
0
102
{BLKREFS
331
C1DB
102
}
  0
ENDTAB
  0
ENDSEC
  0
SECTION
  2
BLOCKS
  0
BLOCK
  5
20
330
1F
100
AcDbEntity
  8
0
100
AcDbBlockBegin
  2
*Model_Space
 70
     0
 10
0.0
 20
0.0
 30
0.0
  3
*Model_Space
  1

  0
ENDBLK
  5
21
330
1F
100
AcDbEntity
  8
0
100
AcDbBlockEnd
  0
BLOCK
  5
D4
330
D2
100
AcDbEntity
 67
     1
  8
0
100
AcDbBlockBegin
  2
*Paper_Space
 70
     0
 10
0.0
 20
0.0
 30
0.0
  3
*Paper_Space
  1

  0
ENDBLK
  5
D5
330
D2
100
AcDbEntity
 67
     1
  8
0
100
AcDbBlockEnd
  0
BLOCK
  5
D8
330
D6
100
AcDbEntity
 67
     1
  8
0
100
AcDbBlockBegin
  2
*Paper_Space0
 70
     0
 10
0.0
 20
0.0
 30
0.0
  3
*Paper_Space0
  1

  0
ENDBLK
  5
D9
330
D6
100
AcDbEntity
 67
     1
  8
0
100
AcDbBlockEnd
  0
BLOCK
  5
C027
330
C026
100
AcDbEntity
  8
0
100
AcDbBlockBegin
  2
SAE500_80_2-Front
 70
     0
 10
0.0
 20
0.0
 30
0.0
  3
SAE500_80_2-Front
  1

  0
SPLINE
  5
C029
330
C026
100
AcDbEntity
  8
0
100
AcDbSpline
210
0.0
220
0.0
230
1.0
 70
     8
 71
     3
 72
    17
 73
    13
 74
     0
 42
0.000000001
 43
0.0000000001
 40
0.0
 40
0.0
 40
0.0
 40
0.0
 40
0.369062643218737
 40
0.369062643218737
 40
0.369062643218737
 40
0.6936378219993707
 40
0.6936378219993707
 40
0.6936378219993707
 40
0.921954538644244
 40
0.921954538644244
 40
0.921954538644244
 40
0.9818175657130609
 40
0.9818175657130609
 40
0.9818175657130609
 40
0.9818175657130609
 10
44.6666666666667
 20
25.37499999999993
 30
0.0
 10
44.31083458278184
 20
25.11172135805172
 30
0.0
 10
43.85987304241679
 20
24.90773000725211
 30
0.0
 10
43.42414735818052
 20
24.68602723250395
 30
0.0
 10
43.04094481937334
 20
24.49104890274816
 30
0.0
 10
42.67697529433505
 20
24.28354840177125
 30
0.0
 10
42.41326214682223
 20
24.00806212760719
 30
0.0
 10
42.22775775858647
 20
23.81427613992271
 30
0.0
 10
42.08930240207497
 20
23.57964051226714
 30
0.0
 10
42.03081927694217
 20
23.30459395177737
 30
0.0
 10
42.01548541547841
 20
23.23247869040826
 30
0.0
 10
42.00554106273283
 20
23.16011295395803
 30
0.0
 10
42.00174098328149
 20
23.07790309181721
 30
0.0
  0
LINE
  5
C02A
330
C026
100
AcDbEntity
  8
0
100
AcDbLine
 10
44.0
 20
25.37499999999995
 30
0.0
 11
44.60207915056591
 21
25.37499999999995
 31
0.0
  0
LINE
  5
C02B
330
C026
100
AcDbEntity
  8
0
100
AcDbLine
 10
43.915553432553
 20
25.37499999999995
 30
0.0
 11
44.0
 21
25.37499999999995
 31
0.0
  0
LINE
  5
C02C
330
C026
100
AcDbEntity
  8
0
100
AcDbLine
 10
42.00000000000001
 20
25.37499999999995
 30
0.0
 11
43.91555343255299
 21
25.37499999999995
 31
0.0
  0
SPLINE
  5
C02D
330
C026
100
AcDbEntity
  8
0
100
AcDbSpline
210
0.0
220
0.0
230
1.0
 70
     8
 71
     3
 72
    22
 73
    18
 74
     0
 42
0.000000001
 43
0.0000000001
 40
0.0436816776280576
 40
0.0436816776280576
 40
0.0436816776280576
 40
0.0436816776280576
 40
0.0444009117747448
 40
0.0444009117747448
 40
0.0463942999997914
 40
0.0463942999997914
 40
0.0504089091369676
 40
0.0504089091369676
 40
0.0545066170918374
 40
0.0545066170918374
 40
0.0627138212624672
 40
0.0627138212624672
 40
0.0804266109486206
 40
0.0804266109486206
 40
0.0836482602680943
 40
0.0836482602680943
 40
0.086944894388601
 40
0.086944894388601
 40
0.086944894388601
 40
0.086944894388601
 10
42.01855793925655
 20
23.30439796625738
 30
0.0
 10
42.01855793922343
 20
23.30439796599904
 30
0.0
 10
42.01854225705447
 20
23.30427571300266
 30
0.0
 10
42.01842846517445
 20
23.30338250135391
 30
0.0
 10
42.01823010884949
 20
23.30181974378151
 30
0.0
 10
42.01740542647657
 20
23.29514260092486
 30
0.0
 10
42.0165538938805
 20
23.28803575169829
 30
0.0
 10
42.01473622298657
 20
23.27171702781644
 30
0.0
 10
42.01375059871432
 20
23.26233348279018
 30
0.0
 10
42.01087057674903
 20
23.23271832563993
 30
0.0
 10
42.00905494083238
 20
23.21091387187802
 30
0.0
 10
42.00435511285577
 20
23.1440898365387
 30
0.0
 10
42.00227724329389
 20
23.09775418101666
 30
0.0
 10
42.00076986623372
 20
23.03993582644036
 30
0.0
 10
42.00056966703822
 20
23.03108302296148
 30
0.0
 10
42.00023541831963
 20
23.01418849437464
 30
0.0
 10
42.00010160454832
 20
23.00601371133714
 30
0.0
 10
42.00001349789387
 20
22.99999993483833
 30
0.0
  0
SPLINE
  5
C02E
330
C026
100
AcDbEntity
  8
0
100
AcDbSpline
210
0.0
220
0.0
230
1.0
 70
     8
 71
     3
 72
    14
 73
    10
 74
     0
 42
0.000000001
 43
0.0000000001
 40
0.021994362853673
 40
0.021994362853673
 40
0.021994362853673
 40
0.021994362853673
 40
0.0230847045849474
 40
0.0230847045849474
 40
0.0237758179820454
 40
0.0237758179820454
 40
0.023797517779182
 40
0.023797517779182
 40
0.0238174138637432
 40
0.0238174138637432
 40
0.0238174138637432
 40
0.0238174138637432
 10
42.00031144798117
 20
23.01788548287654
 30
0.0
 10
42.00028744801038
 20
23.01433081310781
 30
0.0
 10
42.0002683543534
 20
23.01076962114564
 30
0.0
 10
42.00024452876376
 20
23.00494119254248
 30
0.0
 10
42.00023709678752
 20
23.00267749301998
 30
0.0
 10
42.000231187247
 20
23.00034013434494
 30
0.0
 10
42.00023100902358
 20
23.00026897685179
 30
0.0
 10
42.00023067059998
 20
23.00013257174681
 30
0.0
 10
42.00023051013307
 20
23.00006732453296
 30
0.0
 10
42.00023035107085
 20
23.0000020752074
 30
0.0
  0
SPLINE
  5
C02F
330
C026
100
AcDbEntity
  8
0
100
AcDbSpline
210
0.0
220
0.0
230
1.0
 70
     8
 71
     3
 72
    16
 73
    12
 74
     0
 42
0.000000001
 43
0.0000000001
 40
0.0120297722895903
 40
0.0120297722895903
 40
0.0120297722895903
 40
0.0120297722895903
 40
0.0126087443169814
 40
0.0126087443169814
 40
0.0131045650855498
 40
0.0131045650855498
 40
0.0132904932790794
 40
0.0132904932790794
 40
0.0133602162244826
 40
0.0133602162244826
 40
0.0134218648880352
 40
0.0134218648880352
 40
0.0134218648880352
 40
0.0134218648880352
 10
42.00018588319031
 20
23.01084355019524
 30
0.0
 10
42.00016436788316
 20
23.00937501888623
 30
0.0
 10
42.00014347212904
 20
23.00789026301659
 30
0.0
 10
42.00010608597274
 20
23.00511827651068
 30
0.0
 10
42.000089361188
 20
23.00383097434686
 30
0.0
 10
42.00006714806102
 20
23.00205298487155
 30
0.0
 10
42.0000611699362
 20
23.00156726486424
 30
0.0
 10
42.00005306261964
 20
23.00089845353216
 30
0.0
 10
42.00005086304774
 20
23.00071595366143
 30
0.0
 10
42.00004674049764
 20
23.00037191856081
 30
0.0
 10
42.00004481498583
 20
23.00021040294144
 30
0.0
 10
42.0000428986124
 20
23.00004882155309
 30
0.0
  0
SPLINE
  5
C030
330
C026
100
AcDbEntity
  8
0
100
AcDbSpline
210
0.0
220
0.0
230
1.0
 70
     8
 71
     3
 72
     8
 73
     4
 74
     0
 42
0.000000001
 43
0.0000000001
 40
0.0027061984094846
 40
0.0027061984094846
 40
0.0027061984094846
 40
0.0027061984094846
 40
0.0086739981486316
 40
0.0086739981486316
 40
0.0086739981486316
 40
0.0086739981486316
 10
42.00002318946117
 20
23.00194590129437
 30
0.0
 10
42.00002318924689
 20
23.00194588340779
 30
0.0
 10
42.0000052971672
 20
23.00035215303591
 30
0.0
 10
42.00000190918213
 20
22.99999998875169
 30
0.0
  0
SPLINE
  5
C031
330
C026
100
AcDbEntity
  8
0
100
AcDbSpline
210
0.0
220
0.0
230
1.0
 70
     8
 71
     3
 72
     8
 73
     4
 74
     0
 42
0.000000001
 43
0.0000000001
 40
0.0
 40
0.0
 40
0.0
 40
0.0
 40
0.0028225935503803
 40
0.0028225935503803
 40
0.0028225935503803
 40
0.0028225935503803
 10
39.99955434980526
 20
23.00000102373767
 30
0.0
 10
39.99956243524051
 20
23.00812408411949
 30
0.0
 10
39.99956820960714
 20
23.01595158514352
 30
0.0
 10
39.99957063003607
 20
23.02310506902931
 30
0.0
  0
LINE
  5
C032
330
C026
100
AcDbEntity
  8
0
100
AcDbLine
 10
40.00000000000112
 20
23.00291663207993
 30
0.0
 11
39.99999795343048
 21
23.00303032822163
 31
0.0
  0
SPLINE
  5
C033
330
C026
100
AcDbEntity
  8
0
100
AcDbSpline
210
0.0
220
0.0
230
1.0
 70
     8
 71
     3
 72
    32
 73
    28
 74
     0
 42
0.000000001
 43
0.0000000001
 40
0.0015148982409347
 40
0.0015148982409347
 40
0.0015148982409347
 40
0.0015148982409347
 40
0.0053420351592411
 40
0.0053420351592411
 40
0.0115694669833797
 40
0.0115694669833797
 40
0.0242244416890275
 40
0.0242244416890275
 40
0.0272099571865542
 40
0.0272099571865542
 40
0.0286994771188191
 40
0.0286994771188191
 40
0.0309887389633662
 40
0.0309887389633662
 40
0.0334270948912524
 40
0.0334270948912524
 40
0.0369340002891506
 40
0.0369340002891506
 40
0.0429783343375661
 40
0.0429783343375661
 40
0.0559173012713782
 40
0.0559173012713782
 40
0.0946615823529871
 40
0.0946615823529871
 40
0.1836534172841222
 40
0.1836534172841222
 40
0.2472279509731963
 40
0.2472279509731963
 40
0.2472279509731963
 40
0.2472279509731963
 10
39.99993631255307
 20
23.00351503268005
 30
0.0
 10
39.99987229828384
 20
23.00703487474776
 30
0.0
 10
39.99978212002704
 20
23.01192407660766
 30
0.0
 10
39.99950146822849
 20
23.02680540827065
 30
0.0
 10
39.99928238130641
 20
23.03812394261523
 30
0.0
 10
39.9985584222374
 20
23.07458760253958
 30
0.0
 10
39.99801950252703
 20
23.10033336288838
 30
0.0
 10
39.99715823901992
 20
23.14298621594723
 30
0.0
 10
39.99697875274538
 20
23.15196327225697
 30
0.0
 10
39.99670062579368
 20
23.16624030938969
 30
0.0
 10
39.99660583393752
 20
23.1711671698946
 30
0.0
 10
39.99636836078339
 20
23.18371678020202
 30
0.0
 10
39.99622508526143
 20
23.19149017430728
 30
0.0
 10
39.99595025189221
 20
23.206882792511
 30
0.0
 10
39.99581723773309
 20
23.21460974731267
 30
0.0
 10
39.99551942028404
 20
23.23255977851551
 30
0.0
 10
39.99536331233912
 20
23.2425575093233
 30
0.0
 10
39.99498150370705
 20
23.26841675887835
 30
0.0
 10
39.99478335096979
 20
23.28351328867839
 30
0.0
 10
39.99424660898819
 20
23.32885385209225
 30
0.0
 10
39.99400029050681
 20
23.35705253769916
 30
0.0
 10
39.99327039167297
 20
23.4676877461062
 30
0.0
 10
39.99326450572805
 20
23.54785029298767
 30
0.0
 10
39.99438611179929
 20
23.84672728331809
 30
0.0
 10
39.9973413214911
 20
24.09868208092911
 30
0.0
 10
39.99966165880431
 20
24.56310327273603
 30
0.0
 10
39.99993285558691
 20
24.77286757122988
 30
0.0
 10
40.0
 20
24.9835858077005
 30
0.0
  0
SPLINE
  5
C034
330
C026
100
AcDbEntity
  8
0
100
AcDbSpline
210
0.0
220
0.0
230
1.0
 70
     8
 71
     3
 72
    12
 73
     8
 74
     0
 42
0.000000001
 43
0.0000000001
 40
0.0
 40
0.0
 40
0.0
 40
0.0
 40
0.0030099153354217
 40
0.0030099153354217
 40
0.0059231504335169
 40
0.0059231504335169
 40
0.0071838114830762
 40
0.0071838114830762
 40
0.0071838114830762
 40
0.0071838114830762
 10
39.99994292812749
 20
22.99999988537518
 30
0.0
 10
39.99993102820463
 20
23.00642902692359
 30
0.0
 10
39.99992027366128
 20
23.01161167737804
 30
0.0
 10
39.99990406457726
 20
23.01868014868214
 30
0.0
 10
39.99989835487789
 20
23.02076617939416
 30
0.0
 10
39.99989463315716
 20
23.0220637648958
 30
0.0
 10
39.99989406828131
 20
23.02224370103767
 30
0.0
 10
39.99989406828142
 20
23.02224370100195
 30
0.0
  0
LINE
  5
C035
330
C026
100
AcDbEntity
  8
0
100
AcDbLine
 10
37.99999999999999
 20
-2.0
 30
0.0
 11
-37.99999999999999
 21
-2.000000000000003
 31
0.0
  0
LINE
  5
C036
330
C026
100
AcDbEntity
  8
0
100
AcDbLine
 10
-37.99999999999999
 20
0.0
 30
0.0
 11
37.99999999999999
 21
0.0
 31
0.0
  0
LINE
  5
C037
330
C026
100
AcDbEntity
  8
0
100
AcDbLine
 10
-43.91555343255299
 20
25.37499999999995
 30
0.0
 11
-42.00000000000001
 21
25.37499999999995
 31
0.0
  0
LINE
  5
C038
330
C026
100
AcDbEntity
  8
0
100
AcDbLine
 10
-44.0
 20
25.37499999999995
 30
0.0
 11
-43.91555343255299
 21
25.37499999999995
 31
0.0
  0
LINE
  5
C039
330
C026
100
AcDbEntity
  8
0
100
AcDbLine
 10
-44.60207915056591
 20
25.37499999999995
 30
0.0
 11
-44.0
 21
25.37499999999995
 31
0.0
  0
SPLINE
  5
C03A
330
C026
100
AcDbEntity
  8
0
100
AcDbSpline
210
0.0
220
0.0
230
1.0
 70
     8
 71
     3
 72
    17
 73
    13
 74
     0
 42
0.000000001
 43
0.0000000001
 40
0.0
 40
0.0
 40
0.0
 40
0.0
 40
0.369062643218737
 40
0.369062643218737
 40
0.369062643218737
 40
0.6936378219993707
 40
0.6936378219993707
 40
0.6936378219993707
 40
0.921954538644244
 40
0.921954538644244
 40
0.921954538644244
 40
0.9818175657113336
 40
0.9818175657113336
 40
0.9818175657113336
 40
0.9818175657113336
 10
-44.6666666666667
 20
25.37499999999993
 30
0.0
 10
-44.31083458278184
 20
25.11172135805172
 30
0.0
 10
-43.85987304241679
 20
24.90773000725211
 30
0.0
 10
-43.42414735818052
 20
24.68602723250395
 30
0.0
 10
-43.04094481937334
 20
24.49104890274816
 30
0.0
 10
-42.67697529433505
 20
24.28354840177125
 30
0.0
 10
-42.41326214682223
 20
24.00806212760719
 30
0.0
 10
-42.22775775858647
 20
23.81427613992271
 30
0.0
 10
-42.08930240207497
 20
23.57964051226714
 30
0.0
 10
-42.03081927694217
 20
23.30459395177737
 30
0.0
 10
-42.01548541547885
 20
23.23247869041034
 30
0.0
 10
-42.00554106273341
 20
23.1601129539622
 30
0.0
 10
-42.00174098328182
 20
23.07790309182433
 30
0.0
  0
SPLINE
  5
C03B
330
C026
100
AcDbEntity
  8
0
100
AcDbSpline
210
0.0
220
0.0
230
1.0
 70
     8
 71
     3
 72
    10
 73
     6
 74
     0
 42
0.000000001
 43
0.0000000001
 40
0.0205377306423468
 40
0.0205377306423468
 40
0.0205377306423468
 40
0.0205377306423468
 40
0.0217057752650326
 40
0.0217057752650326
 40
0.0233727475997377
 40
0.0233727475997377
 40
0.0233727475997377
 40
0.0233727475997377
 10
-39.99957079676768
 20
23.02306432846835
 30
0.0
 10
-39.9995698018375
 20
23.02012053042234
 30
0.0
 10
-39.99956822273149
 20
23.01706729544633
 30
0.0
 10
-39.99956313954701
 20
23.00946095350674
 30
0.0
 10
-39.9995591244319
 20
23.00479782130395
 30
0.0
 10
-39.99955434926313
 20
23.00000047908681
 30
0.0
  0
LINE
  5
C03C
330
C026
100
AcDbEntity
  8
0
100
AcDbLine
 10
-39.99999795345964
 20
23.0030302835833
 30
0.0
 11
-39.99999999999997
 21
23.00291659138513
 31
0.0
  0
SPLINE
  5
C03D
330
C026
100
AcDbEntity
  8
0
100
AcDbSpline
210
0.0
220
0.0
230
1.0
 70
     8
 71
     3
 72
    12
 73
     8
 74
     0
 42
0.000000001
 43
0.0000000001
 40
0.0135253761399791
 40
0.0135253761399791
 40
0.0135253761399791
 40
0.0135253761399791
 40
0.016499442720272
 40
0.016499442720272
 40
0.0185533044043961
 40
0.0185533044043961
 40
0.0207130027548152
 40
0.0207130027548152
 40
0.0207130027548152
 40
0.0207130027548152
 10
-39.99989406828139
 20
23.02224370100807
 30
0.0
 10
-39.99989406830022
 20
23.02224369498934
 30
0.0
 10
-39.99989732623181
 20
23.02121609964542
 30
0.0
 10
-39.99990760428031
 20
23.01713717065414
 30
0.0
 10
-39.99991315810113
 20
23.01479336279237
 30
0.0
 10
-39.9999264665638
 20
23.00858920807506
 30
0.0
 10
-39.99993438960269
 20
23.00461297286317
 30
0.0
 10
-39.99994292812996
 20
22.99999988404603
 30
0.0
  0
SPLINE
  5
C03E
330
C026
100
AcDbEntity
  8
0
100
AcDbSpline
210
0.0
220
0.0
230
1.0
 70
     8
 71
     3
 72
    30
 73
    26
 74
     0
 42
0.000000001
 43
0.0000000001
 40
0.007785277237436
 40
0.007785277237436
 40
0.007785277237436
 40
0.007785277237436
 40
0.0775656027850761
 40
0.0775656027850761
 40
0.1689035023348102
 40
0.1689035023348102
 40
0.2062458830356713
 40
0.2062458830356713
 40
0.2233480594258518
 40
0.2233480594258518
 40
0.2280531494363263
 40
0.2280531494363263
 40
0.2334070519385767
 40
0.2334070519385767
 40
0.235548530737797
 40
0.235548530737797
 40
0.2374959664529223
 40
0.2374959664529223
 40
0.2414316215239423
 40
0.2414316215239423
 40
0.2453014217086011
 40
0.2453014217086011
 40
0.2545006830126774
 40
0.2545006830126774
 40
0.2626866611150826
 40
0.2626866611150826
 40
0.2626866611150826
 40
0.2626866611150826
 10
-40.00000000000001
 20
25.07513766550039
 30
0.0
 10
-39.99990697823504
 20
24.84313923755581
 30
0.0
 10
-39.99982501097331
 20
24.61141887749161
 30
0.0
 10
-39.99752811798656
 20
24.11784747873547
 30
0.0
 10
-39.99445546958968
 20
23.85757958026047
 30
0.0
 10
-39.99328240983562
 20
23.55562255125851
 30
0.0
 10
-39.99326873853662
 20
23.47744951701764
 30
0.0
 10
-39.99394821469606
 20
23.36166551032238
 30
0.0
 10
-39.99425846844267
 20
23.32498851178215
 30
0.0
 10
-39.99494994726239
 20
23.27103160913951
 30
0.0
 10
-39.99511865740122
 20
23.25886775280185
 30
0.0
 10
-39.99554021373933
 20
23.23104594925652
 30
0.0
 10
-39.99581079222858
 20
23.21460610788586
 30
0.0
 10
-39.99625077788439
 20
23.19009300025747
 30
0.0
 10
-39.99638504692518
 20
23.18282898182659
 30
0.0
 10
-39.9966421073528
 20
23.16925602721629
 30
0.0
 10
-39.99676658181174
 20
23.16282505960222
 30
0.0
 10
-39.99712710775744
 20
23.1444658046536
 30
0.0
 10
-39.99735254976447
 20
23.13333001362417
 30
0.0
 10
-39.99775555298164
 20
23.11354486600258
 30
0.0
 10
-39.99794017249849
 20
23.10455617419788
 30
0.0
 10
-39.99853485197217
 20
23.07552196022055
 30
0.0
 10
-39.99891678779091
 20
23.05669547521509
 30
0.0
 10
-39.99954335933181
 20
23.02471243881719
 30
0.0
 10
-39.99979888096667
 20
23.01102513096324
 30
0.0
 10
-39.99993633223701
 20
23.00350224287483
 30
0.0
  0
SPLINE
  5
C03F
330
C026
100
AcDbEntity
  8
0
100
AcDbSpline
210
0.0
220
0.0
230
1.0
 70
     8
 71
     3
 72
    16
 73
    12
 74
     0
 42
0.000000001
 43
0.0000000001
 40
0.0
 40
0.0
 40
0.0
 40
0.0
 40
0.0000301118092017
 40
0.0000301118092017
 40
0.0001277778271916
 40
0.0001277778271916
 40
0.0003882211124145
 40
0.0003882211124145
 40
0.0014222171227387
 40
0.0014222171227387
 40
0.0018226390043176
 40
0.0018226390043176
 40
0.0018226390043176
 40
0.0018226390043176
 10
-42.00023039712752
 20
23.00002095210872
 30
0.0
 10
-42.00023063827093
 20
23.00011970334625
 30
0.0
 10
-42.00023088263249
 20
23.00021844974835
 30
0.0
 10
-42.00023193326287
 20
23.00063745420608
 30
0.0
 10
-42.00023277025714
 20
23.00095766634697
 30
0.0
 10
-42.00023596488949
 20
23.00213159273162
 30
0.0
 10
-42.00023853196052
 20
23.00298499897822
 30
0.0
 10
-42.00025253113152
 20
23.0072247469871
 30
0.0
 10
-42.00026765077666
 20
23.01060591911124
 30
0.0
 10
-42.00029457067245
 20
23.01528839571333
 30
0.0
 10
-42.00030272806319
 20
23.01659469972095
 30
0.0
 10
-42.00031154706562
 20
23.01790015425305
 30
0.0
  0
SPLINE
  5
C040
330
C026
100
AcDbEntity
  8
0
100
AcDbSpline
210
0.0
220
0.0
230
1.0
 70
     8
 71
     3
 72
    16
 73
    12
 74
     0
 42
0.000000001
 43
0.0000000001
 40
0.0
 40
0.0
 40
0.0
 40
0.0
 40
0.0000136081386004
 40
0.0000136081386004
 40
0.0000408244163902
 40
0.0000408244163902
 40
0.0000952569772419
 40
0.0000952569772419
 40
0.0009662531556199
 40
0.0009662531556199
 40
0.0014106477373536
 40
0.0014106477373536
 40
0.0014106477373536
 40
0.0014106477373536
 10
-42.0000432416201
 20
23.00007773374133
 30
0.0
 10
-42.00004366487512
 20
23.00011339898958
 30
0.0
 10
-42.00004408857522
 20
23.00014906102044
 30
0.0
 10
-42.0000453610086
 20
23.00025603729867
 30
0.0
 10
-42.00004621107516
 20
23.0003273417446
 30
0.0
 10
-42.00004876659112
 20
23.0005412146313
 30
0.0
 10
-42.0000504773574
 20
23.0006837426641
 30
0.0
 10
-42.00007968249546
 20
23.00310594360117
 30
0.0
 10
-42.00010898636853
 20
23.00537141123989
 30
0.0
 10
-42.00015560145916
 20
23.00874883168788
 30
0.0
 10
-42.00017183595163
 20
23.00988808321426
 30
0.0
 10
-42.00018847910644
 20
23.01102045282994
 30
0.0
  0
SPLINE
  5
C041
330
C026
100
AcDbEntity
  8
0
100
AcDbSpline
210
0.0
220
0.0
230
1.0
 70
     8
 71
     3
 72
    22
 73
    18
 74
     0
 42
0.000000001
 43
0.0000000001
 40
0.0
 40
0.0
 40
0.0
 40
0.0
 40
0.0024688908522116
 40
0.0024688908522116
 40
0.0054615480172843
 40
0.0054615480172843
 40
0.0133422313231657
 40
0.0133422313231657
 40
0.0363140398009572
 40
0.0363140398009572
 40
0.0391338888982007
 40
0.0391338888982007
 40
0.0415409520639121
 40
0.0415409520639121
 40
0.0431026456775655
 40
0.0431026456775655
 40
0.0432630428667423
 40
0.0432630428667423
 40
0.0432630428667423
 40
0.0432630428667423
 10
-42.00001349789387
 20
22.99999993483833
 30
0.0
 10
-42.00007948207816
 20
23.00450372787395
 30
0.0
 10
-42.00017094030513
 20
23.01024070858912
 30
0.0
 10
-42.00041951486923
 20
23.02380728364839
 30
0.0
 10
-42.00058734744138
 20
23.03189021576444
 30
0.0
 10
-42.00129797232512
 20
23.06161594868179
 30
0.0
 10
-42.00200868782785
 20
23.08388646752338
 30
0.0
 10
-42.0054776167536
 20
23.1674919689245
 30
0.0
 10
-42.0103252021056
 20
23.23181172354422
 30
0.0
 10
-42.01614807188287
 20
23.28442503456949
 30
0.0
 10
-42.01676100974423
 20
23.2897035769815
 30
0.0
 10
-42.01770861293199
 20
23.29762125509228
 30
0.0
 10
-42.01807729518373
 20
23.30059051836135
 30
0.0
 10
-42.0184521440774
 20
23.30357228849327
 30
0.0
 10
-42.01854072423781
 20
23.3042635378866
 30
0.0
 10
-42.01855716754699
 20
23.30439194695606
 30
0.0
 10
-42.01855793919153
 20
23.30439796575022
 30
0.0
 10
-42.01855793925641
 20
23.30439796625631
 30
0.0
  0
SPLINE
  5
C042
330
C026
100
AcDbEntity
  8
0
100
AcDbSpline
210
0.0
220
0.0
230
1.0
 70
     8
 71
     3
 72
     8
 73
     4
 74
     0
 42
0.000000001
 43
0.0000000001
 40
0.0
 40
0.0
 40
0.0
 40
0.0
 40
0.0059677997353061
 40
0.0059677997353061
 40
0.0059677997353061
 40
0.0059677997353061
 10
-42.00000190918214
 20
22.9999999887517
 30
0.0
 10
-42.00000529716722
 20
23.00035215303714
 30
0.0
 10
-42.00002318924693
 20
23.00194588340878
 30
0.0
 10
-42.00002318946121
 20
23.00194590129585
 30
0.0
  0
ARC
  5
C043
330
C026
100
AcDbEntity
  8
0
100
AcDbCircle
 10
-37.99999999999999
 20
2.0
 30
0.0
 40
4.000000000000003
100
AcDbArc
 50
180.0
 51
270.0
  0
ARC
  5
C044
330
C026
100
AcDbEntity
  8
0
100
AcDbCircle
 10
-37.99999999999999
 20
2.0
 30
0.0
 40
2.000000000000001
100
AcDbArc
 50
180.0
 51
270.0
  0
ARC
  5
C045
330
C026
100
AcDbEntity
  8
0
100
AcDbCircle
 10
37.99999999999999
 20
2.0
 30
0.0
 40
4.000000000000003
100
AcDbArc
 50
270.0
 51
0.0
  0
LINE
  5
C046
330
C026
100
AcDbEntity
  8
0
100
AcDbLine
 10
44.66666666666668
 20
25.37499999999995
 30
0.0
 11
81.50000000000003
 21
52.99999999999997
 31
0.0
  0
LINE
  5
C047
330
C026
100
AcDbEntity
  8
0
100
AcDbLine
 10
39.99999999999998
 20
23.00000000000001
 30
0.0
 11
39.99999999999999
 21
52.99999999999997
 31
0.0
  0
LINE
  5
C048
330
C026
100
AcDbEntity
  8
0
100
AcDbLine
 10
41.99999999999998
 20
23.00000000000001
 30
0.0
 11
39.99999999999998
 21
23.00000000000001
 31
0.0
  0
LINE
  5
C049
330
C026
100
AcDbEntity
  8
0
100
AcDbLine
 10
41.99999999999999
 20
52.99999999999997
 30
0.0
 11
41.99999999999998
 21
23.00000000000001
 31
0.0
  0
LINE
  5
C04A
330
C026
100
AcDbEntity
  8
0
100
AcDbLine
 10
41.99999999999999
 20
52.99999999999997
 30
0.0
 11
39.99999999999999
 21
52.99999999999997
 31
0.0
  0
LINE
  5
C04B
330
C026
100
AcDbEntity
  8
0
100
AcDbLine
 10
39.99999999999999
 20
52.99999999999997
 30
0.0
 11
39.99999999999999
 21
210.0
 31
0.0
  0
LINE
  5
C04C
330
C026
100
AcDbEntity
  8
0
100
AcDbLine
 10
41.99999999999999
 20
210.0
 30
0.0
 11
41.99999999999999
 21
52.99999999999997
 31
0.0
  0
LINE
  5
C04D
330
C026
100
AcDbEntity
  8
0
100
AcDbLine
 10
39.99999999999999
 20
210.0
 30
0.0
 11
41.99999999999999
 21
210.0
 31
0.0
  0
LINE
  5
C04E
330
C026
100
AcDbEntity
  8
0
100
AcDbLine
 10
41.99999999999998
 20
23.00000000000001
 30
0.0
 11
41.99999999999999
 21
2.000000000000001
 31
0.0
  0
LINE
  5
C04F
330
C026
100
AcDbEntity
  8
0
100
AcDbLine
 10
39.99999999999999
 20
2.0
 30
0.0
 11
39.99999999999998
 21
23.00000000000001
 31
0.0
  0
ARC
  5
C050
330
C026
100
AcDbEntity
  8
0
100
AcDbCircle
 10
37.99999999999999
 20
2.0
 30
0.0
 40
2.000000000000001
100
AcDbArc
 50
270.0
 51
0.0
  0
LINE
  5
C051
330
C026
100
AcDbEntity
  8
0
100
AcDbLine
 10
44.0
 20
210.0
 30
0.0
 11
42.0
 21
210.0
 31
0.0
  0
LINE
  5
C052
330
C026
100
AcDbEntity
  8
0
100
AcDbLine
 10
81.50000000000003
 20
52.99999999999997
 30
0.0
 11
81.5
 21
210.0
 31
0.0
  0
LINE
  5
C053
330
C026
100
AcDbEntity
  8
0
100
AcDbLine
 10
81.5
 20
210.0
 30
0.0
 11
44.0
 21
210.0
 31
0.0
  0
CIRCLE
  5
C054
330
C026
100
AcDbEntity
  8
0
100
AcDbCircle
 10
62.0
 20
190.0
 30
0.0
 40
6.5
  0
CIRCLE
  5
C055
330
C026
100
AcDbEntity
  8
0
100
AcDbCircle
 10
73.0
 20
195.0
 30
0.0
 40
2.5
  0
LINE
  5
C056
330
C026
100
AcDbEntity
  8
0
100
AcDbLine
 10
-81.50000000000003
 20
52.99999999999997
 30
0.0
 11
-44.66666666666668
 21
25.37499999999995
 31
0.0
  0
LINE
  5
C057
330
C026
100
AcDbEntity
  8
0
100
AcDbLine
 10
-39.99999999999999
 20
52.99999999999997
 30
0.0
 11
-39.99999999999998
 21
23.00000000000001
 31
0.0
  0
LINE
  5
C058
330
C026
100
AcDbEntity
  8
0
100
AcDbLine
 10
-41.99999999999999
 20
52.99999999999997
 30
0.0
 11
-39.99999999999999
 21
52.99999999999997
 31
0.0
  0
LINE
  5
C059
330
C026
100
AcDbEntity
  8
0
100
AcDbLine
 10
-41.99999999999998
 20
23.00000000000001
 30
0.0
 11
-41.99999999999999
 21
52.99999999999997
 31
0.0
  0
LINE
  5
C05A
330
C026
100
AcDbEntity
  8
0
100
AcDbLine
 10
-39.99999999999998
 20
23.00000000000001
 30
0.0
 11
-41.99999999999998
 21
23.00000000000001
 31
0.0
  0
LINE
  5
C05B
330
C026
100
AcDbEntity
  8
0
100
AcDbLine
 10
-39.99999999999999
 20
210.0
 30
0.0
 11
-39.99999999999999
 21
52.99999999999997
 31
0.0
  0
LINE
  5
C05C
330
C026
100
AcDbEntity
  8
0
100
AcDbLine
 10
-41.99999999999999
 20
210.0
 30
0.0
 11
-39.99999999999999
 21
210.0
 31
0.0
  0
LINE
  5
C05D
330
C026
100
AcDbEntity
  8
0
100
AcDbLine
 10
-41.99999999999999
 20
52.99999999999997
 30
0.0
 11
-41.99999999999999
 21
210.0
 31
0.0
  0
CIRCLE
  5
C05E
330
C026
100
AcDbEntity
  8
0
100
AcDbCircle
 10
-62.0
 20
60.0
 30
0.0
 40
6.5
  0
CIRCLE
  5
C05F
330
C026
100
AcDbEntity
  8
0
100
AcDbCircle
 10
62.0
 20
60.0
 30
0.0
 40
6.5
  0
CIRCLE
  5
C060
330
C026
100
AcDbEntity
  8
0
100
AcDbCircle
 10
-62.0
 20
130.0
 30
0.0
 40
6.5
  0
CIRCLE
  5
C061
330
C026
100
AcDbEntity
  8
0
100
AcDbCircle
 10
62.0
 20
130.0
 30
0.0
 40
6.5
  0
CIRCLE
  5
C062
330
C026
100
AcDbEntity
  8
0
100
AcDbCircle
 10
-62.0
 20
190.0
 30
0.0
 40
6.5
  0
CIRCLE
  5
C063
330
C026
100
AcDbEntity
  8
0
100
AcDbCircle
 10
-51.0
 20
45.0
 30
0.0
 40
2.5
  0
CIRCLE
  5
C064
330
C026
100
AcDbEntity
  8
0
100
AcDbCircle
 10
-51.0
 20
65.0
 30
0.0
 40
2.5
  0
CIRCLE
  5
C065
330
C026
100
AcDbEntity
  8
0
100
AcDbCircle
 10
-51.0
 20
85.0
 30
0.0
 40
2.5
  0
CIRCLE
  5
C066
330
C026
100
AcDbEntity
  8
0
100
AcDbCircle
 10
-51.0
 20
105.0
 30
0.0
 40
2.5
  0
CIRCLE
  5
C067
330
C026
100
AcDbEntity
  8
0
100
AcDbCircle
 10
-51.0
 20
125.0
 30
0.0
 40
2.5
  0
CIRCLE
  5
C068
330
C026
100
AcDbEntity
  8
0
100
AcDbCircle
 10
-51.0
 20
145.0
 30
0.0
 40
2.5
  0
CIRCLE
  5
C069
330
C026
100
AcDbEntity
  8
0
100
AcDbCircle
 10
-51.0
 20
165.0
 30
0.0
 40
2.5
  0
CIRCLE
  5
C06A
330
C026
100
AcDbEntity
  8
0
100
AcDbCircle
 10
-51.0
 20
185.0
 30
0.0
 40
2.5
  0
CIRCLE
  5
C06B
330
C026
100
AcDbEntity
  8
0
100
AcDbCircle
 10
51.0
 20
45.0
 30
0.0
 40
2.5
  0
CIRCLE
  5
C06C
330
C026
100
AcDbEntity
  8
0
100
AcDbCircle
 10
51.0
 20
65.0
 30
0.0
 40
2.5
  0
CIRCLE
  5
C06D
330
C026
100
AcDbEntity
  8
0
100
AcDbCircle
 10
51.0
 20
85.0
 30
0.0
 40
2.5
  0
CIRCLE
  5
C06E
330
C026
100
AcDbEntity
  8
0
100
AcDbCircle
 10
51.0
 20
105.0
 30
0.0
 40
2.5
  0
CIRCLE
  5
C06F
330
C026
100
AcDbEntity
  8
0
100
AcDbCircle
 10
51.0
 20
125.0
 30
0.0
 40
2.5
  0
CIRCLE
  5
C070
330
C026
100
AcDbEntity
  8
0
100
AcDbCircle
 10
51.0
 20
145.0
 30
0.0
 40
2.5
  0
CIRCLE
  5
C071
330
C026
100
AcDbEntity
  8
0
100
AcDbCircle
 10
51.0
 20
165.0
 30
0.0
 40
2.5
  0
CIRCLE
  5
C072
330
C026
100
AcDbEntity
  8
0
100
AcDbCircle
 10
51.0
 20
185.0
 30
0.0
 40
2.5
  0
CIRCLE
  5
C073
330
C026
100
AcDbEntity
  8
0
100
AcDbCircle
 10
-51.0
 20
205.0
 30
0.0
 40
2.5
  0
CIRCLE
  5
C074
330
C026
100
AcDbEntity
  8
0
100
AcDbCircle
 10
51.0
 20
205.0
 30
0.0
 40
2.5
  0
CIRCLE
  5
C075
330
C026
100
AcDbEntity
  8
0
100
AcDbCircle
 10
-73.0
 20
55.0
 30
0.0
 40
2.5
  0
CIRCLE
  5
C076
330
C026
100
AcDbEntity
  8
0
100
AcDbCircle
 10
-73.0
 20
75.0
 30
0.0
 40
2.5
  0
CIRCLE
  5
C077
330
C026
100
AcDbEntity
  8
0
100
AcDbCircle
 10
-73.0
 20
95.0
 30
0.0
 40
2.5
  0
CIRCLE
  5
C078
330
C026
100
AcDbEntity
  8
0
100
AcDbCircle
 10
-73.0
 20
115.0
 30
0.0
 40
2.5
  0
CIRCLE
  5
C079
330
C026
100
AcDbEntity
  8
0
100
AcDbCircle
 10
-73.0
 20
135.0
 30
0.0
 40
2.5
  0
CIRCLE
  5
C07A
330
C026
100
AcDbEntity
  8
0
100
AcDbCircle
 10
-73.0
 20
155.0
 30
0.0
 40
2.5
  0
CIRCLE
  5
C07B
330
C026
100
AcDbEntity
  8
0
100
AcDbCircle
 10
-73.0
 20
175.0
 30
0.0
 40
2.5
  0
CIRCLE
  5
C07C
330
C026
100
AcDbEntity
  8
0
100
AcDbCircle
 10
73.0
 20
55.0
 30
0.0
 40
2.5
  0
CIRCLE
  5
C07D
330
C026
100
AcDbEntity
  8
0
100
AcDbCircle
 10
73.0
 20
75.0
 30
0.0
 40
2.5
  0
CIRCLE
  5
C07E
330
C026
100
AcDbEntity
  8
0
100
AcDbCircle
 10
73.0
 20
95.0
 30
0.0
 40
2.5
  0
CIRCLE
  5
C07F
330
C026
100
AcDbEntity
  8
0
100
AcDbCircle
 10
73.0
 20
115.0
 30
0.0
 40
2.5
  0
CIRCLE
  5
C080
330
C026
100
AcDbEntity
  8
0
100
AcDbCircle
 10
73.0
 20
135.0
 30
0.0
 40
2.5
  0
CIRCLE
  5
C081
330
C026
100
AcDbEntity
  8
0
100
AcDbCircle
 10
73.0
 20
155.0
 30
0.0
 40
2.5
  0
CIRCLE
  5
C082
330
C026
100
AcDbEntity
  8
0
100
AcDbCircle
 10
73.0
 20
175.0
 30
0.0
 40
2.5
  0
CIRCLE
  5
C083
330
C026
100
AcDbEntity
  8
0
100
AcDbCircle
 10
-73.0
 20
195.0
 30
0.0
 40
2.5
  0
LINE
  5
C084
330
C026
100
AcDbEntity
  8
0
100
AcDbLine
 10
-81.5
 20
210.0
 30
0.0
 11
-44.0
 21
210.0
 31
0.0
  0
LINE
  5
C085
330
C026
100
AcDbEntity
  8
0
100
AcDbLine
 10
-81.50000000000003
 20
52.99999999999997
 30
0.0
 11
-81.5
 21
210.0
 31
0.0
  0
LINE
  5
C086
330
C026
100
AcDbEntity
  8
0
100
AcDbLine
 10
-39.99999999999999
 20
2.0
 30
0.0
 11
-39.99999999999998
 21
23.00000000000001
 31
0.0
  0
LINE
  5
C087
330
C026
100
AcDbEntity
  8
0
100
AcDbLine
 10
-41.99999999999998
 20
23.00000000000001
 30
0.0
 11
-41.99999999999999
 21
2.000000000000001
 31
0.0
  0
LINE
  5
C088
330
C026
100
AcDbEntity
  8
0
100
AcDbLine
 10
-44.0
 20
210.0
 30
0.0
 11
-42.0
 21
210.0
 31
0.0
  0
ENDBLK
  5
C028
330
C026
100
AcDbEntity
  8
0
100
AcDbBlockEnd
  0
BLOCK
  5
C08A
330
C089
100
AcDbEntity
  8
0
100
AcDbBlockBegin
  2
SAE500_80_2-Left
 70
     0
 10
0.0
 20
0.0
 30
0.0
  3
SAE500_80_2-Left
  1

  0
LINE
  5
C08C
330
C089
100
AcDbEntity
  8
0
100
AcDbLine
 10
1.999999999999992
 20
-2.0
 30
0.0
 11
86.00000000000001
 21
-2.000000000000003
 31
0.0
  0
LINE
  5
C08D
330
C089
100
AcDbEntity
  8
0
100
AcDbLine
 10
1.999999999999997
 20
2.000000000000004
 30
0.0
 11
1.999999999999992
 21
-1.999999999999999
 31
0.0
  0
LINE
  5
C08E
330
C089
100
AcDbEntity
  8
0
100
AcDbLine
 10
86.00000000000001
 20
-2.000000000000003
 30
0.0
 11
86.00000000000001
 21
2.0
 31
0.0
  0
SPLINE
  5
C08F
330
C089
100
AcDbEntity
  8
0
100
AcDbSpline
210
0.0
220
0.0
230
1.0
 70
     8
 71
     3
 72
    17
 73
    13
 74
     0
 42
0.000000001
 43
0.0000000001
 40
-0.9619350557701331
 40
-0.9619350557701331
 40
-0.9619350557701331
 40
-0.9619350557701331
 40
-0.7906685193979081
 40
-0.7906685193979081
 40
-0.7906685193979081
 40
-0.389464600593421
 40
-0.389464600593421
 40
-0.389464600593421
 40
-0.1064781870810468
 40
-0.1064781870810468
 40
-0.1064781870810468
 40
0.0
 40
0.0
 40
0.0
 40
0.0
 10
1.990436076872016
 20
23.25446606981076
 30
0.0
 10
1.964295043589352
 20
23.61723173498014
 30
0.0
 10
1.886311689165779
 20
23.89539238629787
 30
0.0
 10
1.773190688142188
 20
24.09333321454678
 30
0.0
 10
1.508196779401523
 20
24.55702353997188
 30
0.0
 10
1.054549467643925
 20
24.64361801432779
 30
0.0
 10
0.6742949633757714
 20
24.7356830970934
 30
0.0
 10
0.4060850747350543
 20
24.80062056744313
 30
0.0
 10
0.1716897863539497
 20
24.87223507489832
 30
0.0
 10
0.0620429895114842
 20
25.07586904859737
 30
0.0
 10
0.0207866196309597
 20
25.15248960461087
 30
0.0
 10
0.0000165986139169
 20
25.25247760953471
 30
0.0
 10
0.0000000000000018
 20
25.37499999999997
 30
0.0
  0
LINE
  5
C090
330
C089
100
AcDbEntity
  8
0
100
AcDbLine
 10
2.000000000000011
 20
25.37499999999995
 30
0.0
 11
2.001783600996536
 21
25.37499999999995
 31
0.0
  0
SPLINE
  5
C091
330
C089
100
AcDbEntity
  8
0
100
AcDbSpline
210
0.0
220
0.0
230
1.0
 70
     8
 71
     3
 72
    17
 73
    13
 74
     0
 42
0.000000001
 43
0.0000000001
 40
0.0
 40
0.0
 40
0.0
 40
0.0
 40
0.369062643218737
 40
0.369062643218737
 40
0.369062643218737
 40
0.6936378219993707
 40
0.6936378219993707
 40
0.6936378219993707
 40
0.921954538644244
 40
0.921954538644244
 40
0.921954538644244
 40
1.0
 40
1.0
 40
1.0
 40
1.0
 10
2.000000000000011
 20
25.37499999999993
 30
0.0
 10
2.000007003368946
 20
25.11172135805172
 30
0.0
 10
2.000476349919154
 20
24.90773000725211
 30
0.0
 10
1.999863204549016
 20
24.68602723250395
 30
0.0
 10
1.999323968807368
 20
24.49104890274816
 30
0.0
 10
1.999985049619632
 20
24.28354840177125
 30
0.0
 10
2.00026162796054
 20
24.00806212760719
 30
0.0
 10
2.000456182143421
 20
23.81427613992271
 30
0.0
 10
2.000333558699189
 20
23.57964051226714
 30
0.0
 10
2.000050547976821
 20
23.30459395177737
 30
0.0
 10
1.999953806473525
 20
23.21057483647481
 30
0.0
 10
2.000681435773538
 20
23.11612998310651
 30
0.0
 10
2.000000000000313
 20
23.00000000000947
 30
0.0
  0
LINE
  5
C092
330
C089
100
AcDbEntity
  8
0
100
AcDbLine
 10
0.0
 20
25.37499999999995
 30
0.0
 11
2.000000000000011
 21
25.37499999999995
 31
0.0
  0
SPLINE
  5
C093
330
C089
100
AcDbEntity
  8
0
100
AcDbSpline
210
0.0
220
0.0
230
1.0
 70
     8
 71
     3
 72
    10
 73
     6
 74
     0
 42
0.000000001
 43
0.0000000001
 40
0.0
 40
0.0
 40
0.0
 40
0.0
 40
0.0050810163656235
 40
0.0050810163656235
 40
0.0085383849528598
 40
0.0085383849528598
 40
0.0085383849528598
 40
0.0085383849528598
 10
1.999900372537257
 20
23.00000015086073
 30
0.0
 10
1.999917221370654
 20
23.0094606653941
 30
0.0
 10
1.999894106583042
 20
23.0167094309726
 30
0.0
 10
1.999859358340256
 20
23.02397088588136
 30
0.0
 10
1.999846463056266
 20
23.02561694199829
 30
0.0
 10
1.999846463216429
 20
23.02561692085961
 30
0.0
  0
SPLINE
  5
C094
330
C089
100
AcDbEntity
  8
0
100
AcDbSpline
210
0.0
220
0.0
230
1.0
 70
     8
 71
     3
 72
    10
 73
     6
 74
     0
 42
0.000000001
 43
0.0000000001
 40
0.0020839622270792
 40
0.0020839622270792
 40
0.0020839622270792
 40
0.0020839622270792
 40
0.0072977670931909
 40
0.0072977670931909
 40
0.0088034502322754
 40
0.0088034502322754
 40
0.0088034502322754
 40
0.0088034502322754
 10
1.999904670974394
 20
23.00797112748718
 30
0.0
 10
1.999834252417531
 20
23.01443950984972
 30
0.0
 10
1.999757572442
 20
23.02016852937291
 30
0.0
 10
1.999715548180862
 20
23.02315683667519
 30
0.0
 10
1.999710128612456
 20
23.02353207343404
 30
0.0
 10
1.999710128615092
 20
23.02353207325062
 30
0.0
  0
SPLINE
  5
C095
330
C089
100
AcDbEntity
  8
0
100
AcDbSpline
210
0.0
220
0.0
230
1.0
 70
     8
 71
     3
 72
    32
 73
    28
 74
     0
 42
0.000000001
 43
0.0000000001
 40
0.0022361101841656
 40
0.0022361101841656
 40
0.0022361101841656
 40
0.0022361101841656
 40
0.0056107820806003
 40
0.0056107820806003
 40
0.0106657394504204
 40
0.0106657394504204
 40
0.0144737601075732
 40
0.0144737601075732
 40
0.0170068599573229
 40
0.0170068599573229
 40
0.0196898545475397
 40
0.0196898545475397
 40
0.0223328285784627
 40
0.0223328285784627
 40
0.0260902665419946
 40
0.0260902665419946
 40
0.032473109486932
 40
0.032473109486932
 40
0.0470252739931506
 40
0.0470252739931506
 40
0.0909013251727448
 40
0.0909013251727448
 40
0.09975126331405
 40
0.09975126331405
 40
0.1053352712565251
 40
0.1053352712565251
 40
0.1108209360319786
 40
0.1108209360319786
 40
0.1108209360319786
 40
0.1108209360319786
 10
1.999894813515142
 20
23.00892792377558
 30
0.0
 10
1.999833384486509
 20
23.01395101654268
 30
0.0
 10
1.999758537494034
 20
23.01957621790418
 30
0.0
 10
1.999546408465808
 20
23.03377013631026
 30
0.0
 10
1.999398855749134
 20
23.04249189715648
 30
0.0
 10
1.999067742904964
 20
23.05942536761262
 30
0.0
 10
1.998899539012946
 20
23.06740027741324
 30
0.0
 10
1.998520357141252
 20
23.08330885978759
 30
0.0
 10
1.998338171422861
 20
23.09050516503919
 30
0.0
 10
1.997901445650853
 20
23.10640859293256
 30
0.0
 10
1.997638508985871
 20
23.11532690221222
 30
0.0
 10
1.997076257622912
 20
23.13299506797181
 30
0.0
 10
1.99677308928302
 20
23.14190416967507
 30
0.0
 10
1.996008036031346
 20
23.16303945462804
 30
0.0
 10
1.995527367633838
 20
23.17525862314721
 30
0.0
 10
1.994173213203897
 20
23.20731622567388
 30
0.0
 10
1.993251357547717
 20
23.22676636165217
 30
0.0
 10
1.98998517885101
 20
23.2892250978796
 30
0.0
 10
1.987302236278126
 20
23.33118130813591
 30
0.0
 10
1.974293316198053
 20
23.49842216449033
 30
0.0
 10
1.956984013829413
 20
23.62958025317593
 30
0.0
 10
1.934060921719526
 20
23.74205192457244
 30
0.0
 10
1.930294552566861
 20
23.75898971952075
 30
0.0
 10
1.925457796630347
 20
23.77975146798888
 30
0.0
 10
1.923900568220201
 20
23.78615788807209
 30
0.0
 10
1.921828586704057
 20
23.7945654472162
 30
0.0
 10
1.92128684762768
 20
23.79669155081518
 30
0.0
 10
1.921286847627535
 20
23.79669155081575
 30
0.0
  0
LINE
  5
C096
330
C089
100
AcDbEntity
  8
0
100
AcDbLine
 10
1.999999999999997
 20
2.000000000000003
 30
0.0
 11
1.999999999999997
 21
23.00000000000001
 31
0.0
  0
LINE
  5
C097
330
C089
100
AcDbEntity
  8
0
100
AcDbLine
 10
1.999999999999992
 20
52.99999999999997
 30
0.0
 11
2.000000000000011
 21
25.37499999999995
 31
0.0
  0
LINE
  5
C098
330
C089
100
AcDbEntity
  8
0
100
AcDbLine
 10
0.0
 20
52.99999999999997
 30
0.0
 11
1.999999999999992
 21
52.99999999999997
 31
0.0
  0
LINE
  5
C099
330
C089
100
AcDbEntity
  8
0
100
AcDbLine
 10
0.0
 20
25.37499999999995
 30
0.0
 11
0.0
 21
52.99999999999997
 31
0.0
  0
LINE
  5
C09A
330
C089
100
AcDbEntity
  8
0
100
AcDbLine
 10
86.00000000000006
 20
23.00000000000001
 30
0.0
 11
46.00000000000004
 21
52.99999999999997
 31
0.0
  0
LINE
  5
C09B
330
C089
100
AcDbEntity
  8
0
100
AcDbLine
 10
46.00000000000004
 20
52.99999999999997
 30
0.0
 11
46.00000000000001
 21
210.0
 31
0.0
  0
LINE
  5
C09C
330
C089
100
AcDbEntity
  8
0
100
AcDbLine
 10
1.999999999999992
 20
52.99999999999997
 30
0.0
 11
2.000000000000019
 21
210.0
 31
0.0
  0
LINE
  5
C09D
330
C089
100
AcDbEntity
  8
0
100
AcDbLine
 10
86.00000000000006
 20
23.00000000000001
 30
0.0
 11
86.00000000000001
 21
2.000000000000001
 31
0.0
  0
LINE
  5
C09E
330
C089
100
AcDbEntity
  8
0
100
AcDbLine
 10
4.000000000000003
 20
210.0
 30
0.0
 11
46.00000000000001
 21
210.0
 31
0.0
  0
LINE
  5
C09F
330
C089
100
AcDbEntity
  8
0
100
AcDbLine
 10
0.0
 20
210.0
 30
0.0
 11
2.000000000000019
 21
210.0
 31
0.0
  0
LINE
  5
C0A0
330
C089
100
AcDbEntity
  8
0
100
AcDbLine
 10
0.0
 20
52.99999999999997
 30
0.0
 11
0.0
 21
210.0
 31
0.0
  0
LINE
  5
C0A1
330
C089
100
AcDbEntity
  8
0
100
AcDbLine
 10
2.000000000000002
 20
210.0
 30
0.0
 11
4.000000000000003
 21
210.0
 31
0.0
  0
CIRCLE
  5
C0A2
330
C089
100
AcDbEntity
  8
0
100
AcDbCircle
 10
38.50000000000001
 20
45.0
 30
0.0
 40
2.5
  0
CIRCLE
  5
C0A3
330
C089
100
AcDbEntity
  8
0
100
AcDbCircle
 10
38.50000000000001
 20
65.0
 30
0.0
 40
2.5
  0
CIRCLE
  5
C0A4
330
C089
100
AcDbEntity
  8
0
100
AcDbCircle
 10
38.50000000000001
 20
85.0
 30
0.0
 40
2.5
  0
CIRCLE
  5
C0A5
330
C089
100
AcDbEntity
  8
0
100
AcDbCircle
 10
38.50000000000001
 20
105.0
 30
0.0
 40
2.5
  0
CIRCLE
  5
C0A6
330
C089
100
AcDbEntity
  8
0
100
AcDbCircle
 10
38.50000000000001
 20
125.0
 30
0.0
 40
2.5
  0
CIRCLE
  5
C0A7
330
C089
100
AcDbEntity
  8
0
100
AcDbCircle
 10
38.50000000000001
 20
145.0
 30
0.0
 40
2.5
  0
CIRCLE
  5
C0A8
330
C089
100
AcDbEntity
  8
0
100
AcDbCircle
 10
38.50000000000001
 20
165.0
 30
0.0
 40
2.5
  0
CIRCLE
  5
C0A9
330
C089
100
AcDbEntity
  8
0
100
AcDbCircle
 10
38.50000000000001
 20
185.0
 30
0.0
 40
2.5
  0
CIRCLE
  5
C0AA
330
C089
100
AcDbEntity
  8
0
100
AcDbCircle
 10
38.50000000000001
 20
205.0
 30
0.0
 40
2.5
  0
SPLINE
  5
C0AB
330
C089
100
AcDbEntity
  8
0
100
AcDbSpline
210
0.0
220
0.0
230
1.0
 70
     8
 71
     3
 72
     8
 73
     4
 74
     0
 42
0.000000001
 43
0.0000000001
 40
0.0
 40
0.0
 40
0.0
 40
0.0
 40
0.0015221711015139
 40
0.0015221711015139
 40
0.0015221711015139
 40
0.0015221711015139
 10
1.999900516098367
 20
23.00008124670156
 30
0.0
 10
1.999905496027319
 20
23.0029114556158
 30
0.0
 10
1.999906884962501
 20
23.00554196686213
 30
0.0
 10
1.999905867671039
 20
23.00795677993884
 30
0.0
  0
ENDBLK
  5
C08B
330
C089
100
AcDbEntity
  8
0
100
AcDbBlockEnd
  0
BLOCK
  5
C0AD
330
C0AC
100
AcDbEntity
  8
0
100
AcDbBlockBegin
  2
SAE500_80_2-Right
 70
     0
 10
0.0
 20
0.0
 30
0.0
  3
SAE500_80_2-Right
  1

  0
SPLINE
  5
C0AF
330
C0AC
100
AcDbEntity
  8
0
100
AcDbSpline
210
0.0
220
0.0
230
1.0
 70
     8
 71
     3
 72
    17
 73
    13
 74
     0
 42
0.000000001
 43
0.0000000001
 40
0.0
 40
0.0
 40
0.0
 40
0.0
 40
0.369062643218737
 40
0.369062643218737
 40
0.369062643218737
 40
0.6936378219993707
 40
0.6936378219993707
 40
0.6936378219993707
 40
0.921954538644244
 40
0.921954538644244
 40
0.921954538644244
 40
1.0
 40
1.0
 40
1.0
 40
1.0
 10
-2.000000000000011
 20
25.37499999999993
 30
0.0
 10
-2.000007003368946
 20
25.11172135805172
 30
0.0
 10
-2.000476349919154
 20
24.90773000725211
 30
0.0
 10
-1.999863204549016
 20
24.68602723250395
 30
0.0
 10
-1.999323968807368
 20
24.49104890274816
 30
0.0
 10
-1.999985049619632
 20
24.28354840177125
 30
0.0
 10
-2.00026162796054
 20
24.00806212760719
 30
0.0
 10
-2.000456182143421
 20
23.81427613992271
 30
0.0
 10
-2.000333558699189
 20
23.57964051226714
 30
0.0
 10
-2.000050547976821
 20
23.30459395177737
 30
0.0
 10
-1.999953806473525
 20
23.21057483647481
 30
0.0
 10
-2.000681435773538
 20
23.11612998310651
 30
0.0
 10
-2.000000000000313
 20
23.00000000000947
 30
0.0
  0
LINE
  5
C0B0
330
C0AC
100
AcDbEntity
  8
0
100
AcDbLine
 10
-2.001783600996535
 20
25.37499999999995
 30
0.0
 11
-2.000000000000011
 21
25.37499999999995
 31
0.0
  0
SPLINE
  5
C0B1
330
C0AC
100
AcDbEntity
  8
0
100
AcDbSpline
210
0.0
220
0.0
230
1.0
 70
     8
 71
     3
 72
    17
 73
    13
 74
     0
 42
0.000000001
 43
0.0000000001
 40
-0.96193505577011
 40
-0.96193505577011
 40
-0.96193505577011
 40
-0.96193505577011
 40
-0.7906685193979081
 40
-0.7906685193979081
 40
-0.7906685193979081
 40
-0.389464600593421
 40
-0.389464600593421
 40
-0.389464600593421
 40
-0.1064781870810468
 40
-0.1064781870810468
 40
-0.1064781870810468
 40
0.0
 40
0.0
 40
0.0
 40
0.0
 10
-1.990436076872006
 20
23.25446606981091
 30
0.0
 10
-1.964295043589332
 20
23.61723173498021
 30
0.0
 10
-1.886311689165763
 20
23.8953923862979
 30
0.0
 10
-1.773190688142188
 20
24.09333321454678
 30
0.0
 10
-1.508196779401523
 20
24.55702353997188
 30
0.0
 10
-1.054549467643925
 20
24.64361801432779
 30
0.0
 10
-0.6742949633757714
 20
24.7356830970934
 30
0.0
 10
-0.4060850747350543
 20
24.80062056744313
 30
0.0
 10
-0.1716897863539497
 20
24.87223507489832
 30
0.0
 10
-0.0620429895114842
 20
25.07586904859737
 30
0.0
 10
-0.0207866196309597
 20
25.15248960461087
 30
0.0
 10
-0.0000165986139169
 20
25.25247760953471
 30
0.0
 10
-0.0000000000000018
 20
25.37499999999997
 30
0.0
  0
LINE
  5
C0B2
330
C0AC
100
AcDbEntity
  8
0
100
AcDbLine
 10
-2.000000000000011
 20
25.37499999999995
 30
0.0
 11
0.0
 21
25.37499999999995
 31
0.0
  0
SPLINE
  5
C0B3
330
C0AC
100
AcDbEntity
  8
0
100
AcDbSpline
210
0.0
220
0.0
230
1.0
 70
     8
 71
     3
 72
    12
 73
     8
 74
     0
 42
0.000000001
 43
0.0000000001
 40
0.0084345299829948
 40
0.0084345299829948
 40
0.0084345299829948
 40
0.0084345299829948
 40
0.0101907121284412
 40
0.0101907121284412
 40
0.0142262222162879
 40
0.0142262222162879
 40
0.0169844187803125
 40
0.0169844187803125
 40
0.0169844187803125
 40
0.0169844187803125
 10
-1.999846463216427
 20
23.02561692085987
 30
0.0
 10
-1.999846463205493
 20
23.02561692230299
 30
0.0
 10
-1.999849670005193
 20
23.02519857881282
 30
0.0
 10
-1.999866368103442
 20
23.02258507011817
 30
0.0
 10
-1.99988814103762
 20
23.01875668061792
 30
0.0
 10
-1.999906900173502
 20
23.00967151434647
 30
0.0
 10
-1.99990953980333
 20
23.00520962714115
 30
0.0
 10
-1.999900516098365
 20
23.00008124670155
 30
0.0
  0
SPLINE
  5
C0B4
330
C0AC
100
AcDbEntity
  8
0
100
AcDbSpline
210
0.0
220
0.0
230
1.0
 70
     8
 71
     3
 72
    10
 73
     6
 74
     0
 42
0.000000001
 43
0.0000000001
 40
0.0077422588864513
 40
0.0077422588864513
 40
0.0077422588864513
 40
0.0077422588864513
 40
0.0094652971773611
 40
0.0094652971773611
 40
0.0144569525602886
 40
0.0144569525602886
 40
0.0144569525602886
 40
0.0144569525602886
 10
-1.999710128615054
 20
23.02353207325327
 30
0.0
 10
-1.999710128508245
 20
23.02353208068455
 30
0.0
 10
-1.999717311343496
 20
23.0230352738414
 30
0.0
 10
-1.999764402284266
 20
23.01966847326152
 30
0.0
 10
-1.999838076221815
 20
23.01414688312318
 30
0.0
 10
-1.999905372125441
 20
23.00796533587945
 30
0.0
  0
SPLINE
  5
C0B5
330
C0AC
100
AcDbEntity
  8
0
100
AcDbSpline
210
0.0
220
0.0
230
1.0
 70
     8
 71
     3
 72
    34
 73
    30
 74
     0
 42
0.000000001
 43
0.0000000001
 40
0.109636661131774
 40
0.109636661131774
 40
0.109636661131774
 40
0.109636661131774
 40
0.1100575438112694
 40
0.1100575438112694
 40
0.1181977420887002
 40
0.1181977420887002
 40
0.1256658706917503
 40
0.1256658706917503
 40
0.1350917119992707
 40
0.1350917119992707
 40
0.1504100059392723
 40
0.1504100059392723
 40
0.1825008522757228
 40
0.1825008522757228
 40
0.1918806536763099
 40
0.1918806536763099
 40
0.1987295217903255
 40
0.1987295217903255
 40
0.2024346570351791
 40
0.2024346570351791
 40
0.2040290013622237
 40
0.2040290013622237
 40
0.2065422036022622
 40
0.2065422036022622
 40
0.2093381823440413
 40
0.2093381823440413
 40
0.2143192256309524
 40
0.2143192256309524
 40
0.2183466633526971
 40
0.2183466633526971
 40
0.2183466633526971
 40
0.2183466633526971
 10
-1.92128684762752
 20
23.79669155081582
 30
0.0
 10
-1.921286847658906
 20
23.7966915506918
 30
0.0
 10
-1.921289891539235
 20
23.79667952381965
 30
0.0
 10
-1.921413911474398
 20
23.79618901011277
 30
0.0
 10
-1.922763957351535
 20
23.79090270182444
 30
0.0
 10
-1.927084543842145
 20
23.77287839290444
 30
0.0
 10
-1.929897966327051
 20
23.76078179228731
 30
0.0
 10
-1.936812424071442
 20
23.72895726683443
 30
0.0
 10
-1.941083110637011
 20
23.70790830996591
 30
0.0
 10
-1.951923722288428
 20
23.64906130512975
 30
0.0
 10
-1.958322215507719
 20
23.60871089282877
 30
0.0
 10
-1.975512597266935
 20
23.48057912634981
 30
0.0
 10
-1.983672792924257
 20
23.38910098896889
 30
0.0
 10
-1.991110770092585
 20
23.26820195495786
 30
0.0
 10
-1.99259885003276
 20
23.24056257534642
 30
0.0
 10
-1.994911201668398
 20
23.19070537331529
 30
0.0
 10
-1.995822749913252
 20
23.16859799091646
 30
0.0
 10
-1.997061850799699
 20
23.13360996442265
 30
0.0
 10
-1.997473700530201
 20
23.12084862262643
 30
0.0
 10
-1.997971773507516
 20
23.10383126873404
 30
0.0
 10
-1.998111507529356
 20
23.09882698106992
 30
0.0
 10
-1.998437355000523
 20
23.08665115209377
 30
0.0
 10
-1.998606440190452
 20
23.07980084001068
 30
0.0
 10
-1.998904957780212
 20
23.06697861979188
 30
0.0
 10
-1.999032133654879
 20
23.06103143568742
 30
0.0
 10
-1.999340324968482
 20
23.04572777002196
 30
0.0
 10
-1.99949141004095
 20
23.03706803716941
 30
0.0
 10
-1.999729345570741
 20
23.02172527674948
 30
0.0
 10
-1.999821642939065
 20
23.01489749947151
 30
0.0
 10
-1.999894931288137
 20
23.00890466213827
 30
0.0
  0
LINE
  5
C0B6
330
C0AC
100
AcDbEntity
  8
0
100
AcDbLine
 10
-1.999999999999992
 20
-2.0
 30
0.0
 11
-86.00000000000001
 21
-2.0
 31
0.0
  0
LINE
  5
C0B7
330
C0AC
100
AcDbEntity
  8
0
100
AcDbLine
 10
-1.999999999999997
 20
2.000000000000003
 30
0.0
 11
-1.999999999999997
 21
23.00000000000001
 31
0.0
  0
LINE
  5
C0B8
330
C0AC
100
AcDbEntity
  8
0
100
AcDbLine
 10
-1.999999999999997
 20
2.000000000000004
 30
0.0
 11
-1.999999999999992
 21
-1.999999999999999
 31
0.0
  0
LINE
  5
C0B9
330
C0AC
100
AcDbEntity
  8
0
100
AcDbLine
 10
-86.00000000000001
 20
-2.000000000000003
 30
0.0
 11
-86.00000000000001
 21
2.0
 31
0.0
  0
LINE
  5
C0BA
330
C0AC
100
AcDbEntity
  8
0
100
AcDbLine
 10
0.0
 20
52.99999999999997
 30
0.0
 11
0.0
 21
25.37499999999995
 31
0.0
  0
LINE
  5
C0BB
330
C0AC
100
AcDbEntity
  8
0
100
AcDbLine
 10
-1.999999999999992
 20
52.99999999999997
 30
0.0
 11
0.0
 21
52.99999999999997
 31
0.0
  0
LINE
  5
C0BC
330
C0AC
100
AcDbEntity
  8
0
100
AcDbLine
 10
-2.000000000000011
 20
25.37499999999995
 30
0.0
 11
-1.999999999999992
 21
52.99999999999997
 31
0.0
  0
LINE
  5
C0BD
330
C0AC
100
AcDbEntity
  8
0
100
AcDbLine
 10
0.0
 20
52.99999999999997
 30
0.0
 11
0.0
 21
210.0
 31
0.0
  0
CIRCLE
  5
C0BE
330
C0AC
100
AcDbEntity
  8
0
100
AcDbCircle
 10
-38.50000000000002
 20
195.0
 30
0.0
 40
2.5
  0
LINE
  5
C0BF
330
C0AC
100
AcDbEntity
  8
0
100
AcDbLine
 10
-46.00000000000004
 20
52.99999999999997
 30
0.0
 11
-86.00000000000006
 21
23.00000000000001
 31
0.0
  0
LINE
  5
C0C0
330
C0AC
100
AcDbEntity
  8
0
100
AcDbLine
 10
-46.00000000000001
 20
210.0
 30
0.0
 11
-46.00000000000004
 21
52.99999999999997
 31
0.0
  0
LINE
  5
C0C1
330
C0AC
100
AcDbEntity
  8
0
100
AcDbLine
 10
-86.00000000000006
 20
23.00000000000001
 30
0.0
 11
-86.00000000000001
 21
2.000000000000001
 31
0.0
  0
LINE
  5
C0C2
330
C0AC
100
AcDbEntity
  8
0
100
AcDbLine
 10
-4.000000000000003
 20
210.0
 30
0.0
 11
-46.00000000000001
 21
210.0
 31
0.0
  0
LINE
  5
C0C3
330
C0AC
100
AcDbEntity
  8
0
100
AcDbLine
 10
-2.000000000000002
 20
210.0
 30
0.0
 11
-4.000000000000003
 21
210.0
 31
0.0
  0
LINE
  5
C0C4
330
C0AC
100
AcDbEntity
  8
0
100
AcDbLine
 10
0.0
 20
210.0
 30
0.0
 11
-2.000000000000019
 21
210.0
 31
0.0
  0
LINE
  5
C0C5
330
C0AC
100
AcDbEntity
  8
0
100
AcDbLine
 10
-1.999999999999992
 20
52.99999999999997
 30
0.0
 11
-2.000000000000019
 21
210.0
 31
0.0
  0
CIRCLE
  5
C0C6
330
C0AC
100
AcDbEntity
  8
0
100
AcDbCircle
 10
-38.50000000000002
 20
35.0
 30
0.0
 40
2.5
  0
CIRCLE
  5
C0C7
330
C0AC
100
AcDbEntity
  8
0
100
AcDbCircle
 10
-38.50000000000002
 20
55.0
 30
0.0
 40
2.5
  0
CIRCLE
  5
C0C8
330
C0AC
100
AcDbEntity
  8
0
100
AcDbCircle
 10
-38.50000000000002
 20
75.0
 30
0.0
 40
2.5
  0
CIRCLE
  5
C0C9
330
C0AC
100
AcDbEntity
  8
0
100
AcDbCircle
 10
-38.50000000000002
 20
95.0
 30
0.0
 40
2.5
  0
CIRCLE
  5
C0CA
330
C0AC
100
AcDbEntity
  8
0
100
AcDbCircle
 10
-38.50000000000002
 20
115.0
 30
0.0
 40
2.5
  0
CIRCLE
  5
C0CB
330
C0AC
100
AcDbEntity
  8
0
100
AcDbCircle
 10
-38.50000000000002
 20
135.0
 30
0.0
 40
2.5
  0
CIRCLE
  5
C0CC
330
C0AC
100
AcDbEntity
  8
0
100
AcDbCircle
 10
-38.50000000000002
 20
155.0
 30
0.0
 40
2.5
  0
CIRCLE
  5
C0CD
330
C0AC
100
AcDbEntity
  8
0
100
AcDbCircle
 10
-38.50000000000002
 20
175.0
 30
0.0
 40
2.5
  0
LINE
  5
C0CE
330
C0AC
100
AcDbEntity
  8
0
100
AcDbLine
 10
-1.999900516091611
 20
23.00008124641773
 30
0.0
 11
-1.999900372537258
 21
23.00000015086073
 31
0.0
  0
SPLINE
  5
C0CF
330
C0AC
100
AcDbEntity
  8
0
100
AcDbSpline
210
0.0
220
0.0
230
1.0
 70
     8
 71
     3
 72
     8
 73
     4
 74
     0
 42
0.000000001
 43
0.0000000001
 40
0.0141806184650571
 40
0.0141806184650571
 40
0.0141806184650571
 40
0.0141806184650571
 40
0.0144557654098634
 40
0.0144557654098634
 40
0.0144557654098634
 40
0.0144557654098634
 10
-1.999894092001559
 20
23.00898226078595
 30
0.0
 10
-1.999897825794302
 20
23.0086460634238
 30
0.0
 10
-1.999901689068116
 20
23.00830583561172
 30
0.0
 10
-1.999905398359527
 20
23.00796511412849
 30
0.0
  0
ENDBLK
  5
C0AE
330
C0AC
100
AcDbEntity
  8
0
100
AcDbBlockEnd
  0
BLOCK
  5
C0D1
330
C0D0
100
AcDbEntity
  8
0
100
AcDbBlockBegin
  2
SAE500_80_2-Top
 70
     0
 10
0.0
 20
0.0
 30
0.0
  3
SAE500_80_2-Top
  1

  0
LINE
  5
C0D3
330
C0D0
100
AcDbEntity
  8
0
100
AcDbLine
 10
40.0
 20
-1.999999999999995
 30
0.0
 11
40.0
 21
-2.065911061922215
 31
0.0
  0
SPLINE
  5
C0D4
330
C0D0
100
AcDbEntity
  8
0
100
AcDbSpline
210
0.0
220
0.0
230
1.0
 70
     8
 71
     3
 72
    11
 73
     7
 74
     0
 42
0.000000001
 43
0.0000000001
 40
-1.0
 40
-1.0
 40
-1.0
 40
-1.0
 40
-0.7906685193979081
 40
-0.7906685193979081
 40
-0.7906685193979081
 40
-0.65580360192827
 40
-0.65580360192827
 40
-0.65580360192827
 40
-0.65580360192827
 10
40.0
 20
-2.000000000000024
 30
0.0
 10
40.00001668753106
 20
-1.997223802221323
 30
0.0
 10
40.13599085878055
 20
-1.911453463422434
 30
0.0
 10
40.3670380014792
 20
-1.773190688142188
 30
0.0
 10
40.51589355699348
 20
-1.684112840301717
 30
0.0
 10
40.70303718816342
 20
-1.573717687766675
 30
0.0
 10
40.91723157308741
 20
-1.451958811591736
 30
0.0
  0
SPLINE
  5
C0D5
330
C0D0
100
AcDbEntity
  8
0
100
AcDbSpline
210
0.0
220
0.0
230
1.0
 70
     8
 71
     3
 72
    10
 73
     6
 74
     0
 42
0.000000001
 43
0.0000000001
 40
0.0
 40
0.0
 40
0.0
 40
0.0
 40
0.0708400272793907
 40
0.0708400272793907
 40
0.1094193670431312
 40
0.1094193670431312
 40
0.1094193670431312
 40
0.1094193670431312
 10
44.64812200990404
 20
-2.000040667433801
 30
0.0
 10
44.43419475873362
 20
-2.000376789326923
 30
0.0
 10
44.21533814646562
 20
-2.001761833247615
 30
0.0
 10
43.87210113088911
 20
-2.015527502289732
 30
0.0
 10
43.74785142490806
 20
-2.022885365091418
 30
0.0
 10
43.6225455163623
 20
-2.035940909024398
 30
0.0
  0
SPLINE
  5
C0D6
330
C0D0
100
AcDbEntity
  8
0
100
AcDbSpline
210
0.0
220
0.0
230
1.0
 70
     8
 71
     3
 72
     8
 73
     4
 74
     0
 42
0.000000001
 43
0.0000000001
 40
0.0392210754851064
 40
0.0392210754851064
 40
0.0392210754851064
 40
0.0392210754851064
 40
0.0400080328327795
 40
0.0400080328327795
 40
0.0400080328327795
 40
0.0400080328327795
 10
42.00026353295302
 20
-3.967533673406606
 30
0.0
 10
42.00024018279958
 20
-3.970008735789829
 30
0.0
 10
42.00021872268729
 20
-3.972465230193803
 30
0.0
 10
42.00019901981128
 20
-3.974905240849658
 30
0.0
  0
SPLINE
  5
C0D7
330
C0D0
100
AcDbEntity
  8
0
100
AcDbSpline
210
0.0
220
0.0
230
1.0
 70
     8
 71
     3
 72
     8
 73
     4
 74
     0
 42
0.000000001
 43
0.0000000001
 40
0.0249771739815563
 40
0.0249771739815563
 40
0.0249771739815563
 40
0.0249771739815563
 40
0.0280566206503873
 40
0.0280566206503873
 40
0.0280566206503873
 40
0.0280566206503873
 10
42.0002369834781
 20
-3.969212376654698
 30
0.0
 10
42.00016214082584
 20
-3.979481171678616
 30
0.0
 10
42.00012223813319
 20
-3.989755978299882
 30
0.0
 10
42.0001087455869
 20
-3.999998849436097
 30
0.0
  0
SPLINE
  5
C0D8
330
C0D0
100
AcDbEntity
  8
0
100
AcDbSpline
210
0.0
220
0.0
230
1.0
 70
     8
 71
     3
 72
    24
 73
    20
 74
     0
 42
0.000000001
 43
0.0000000001
 40
0.0
 40
0.0
 40
0.0
 40
0.0
 40
0.0000147216496711
 40
0.0000147216496711
 40
0.0000441649490775
 40
0.0000441649490775
 40
0.0009863534801786
 40
0.0009863534801786
 40
0.0023975626702835
 40
0.0023975626702835
 40
0.005101337793826
 40
0.005101337793826
 40
0.0102472317761801
 40
0.0102472317761801
 40
0.0254080461854595
 40
0.0254080461854595
 40
0.0292305473050372
 40
0.0292305473050372
 40
0.0304072832151197
 40
0.0304072832151197
 40
0.0304072832151197
 40
0.0304072832151197
 10
39.99957010610553
 20
-4.112153439420472
 30
0.0
 10
39.99957024136356
 20
-4.112124810142327
 30
0.0
 10
39.99957037657439
 20
-4.112096182337189
 30
0.0
 10
39.99957078206526
 20
-4.112010303362122
 30
0.0
 10
39.99957105220372
 20
-4.111953056622484
 30
0.0
 10
39.99957996057138
 20
-4.110064104029229
 30
0.0
 10
39.9995884056756
 20
-4.108238458742055
 30
0.0
 10
39.99960902160686
 20
-4.103694771994296
 30
0.0
 10
39.99962095428358
 20
-4.100984886295967
 30
0.0
 10
39.99965452500189
 20
-4.093130147613637
 30
0.0
 10
39.99967503779114
 20
-4.088028742965336
 30
0.0
 10
39.99973046667854
 20
-4.073404533921716
 30
0.0
 10
39.9997615668002
 20
-4.064060367732213
 30
0.0
 10
39.99987096129657
 20
-4.027801606539183
 30
0.0
 10
39.99993908287569
 20
-3.997820152791428
 30
0.0
 10
40.00006233138812
 20
-3.971010620637867
 30
0.0
 10
40.00008617210911
 20
-3.966520193130696
 30
0.0
 10
40.00009869327964
 20
-3.964137870415829
 30
0.0
 10
40.00010028603305
 20
-3.96383076071942
 30
0.0
 10
40.00010028603273
 20
-3.963830760782415
 30
0.0
  0
SPLINE
  5
C0D9
330
C0D0
100
AcDbEntity
  8
0
100
AcDbSpline
210
0.0
220
0.0
230
1.0
 70
     8
 71
     3
 72
     8
 73
     4
 74
     0
 42
0.000000001
 43
0.0000000001
 40
0.0627881097118428
 40
0.0627881097118428
 40
0.0627881097118428
 40
0.0627881097118428
 40
0.0660606145083771
 40
0.0660606145083771
 40
0.0660606145083771
 40
0.0660606145083771
 10
39.99996952010418
 20
-3.993110160107246
 30
0.0
 10
39.99996726763077
 20
-3.992155794752976
 30
0.0
 10
39.99996607265804
 20
-3.991707928497052
 30
0.0
 10
39.99996607265611
 20
-3.991707927794394
 30
0.0
  0
SPLINE
  5
C0DA
330
C0D0
100
AcDbEntity
  8
0
100
AcDbSpline
210
0.0
220
0.0
230
1.0
 70
     8
 71
     3
 72
    12
 73
     8
 74
     0
 42
0.000000001
 43
0.0000000001
 40
0.0
 40
0.0
 40
0.0
 40
0.0
 40
0.0070692688145771
 40
0.0070692688145771
 40
0.0092621033422364
 40
0.0092621033422364
 40
0.0098193573865861
 40
0.0098193573865861
 40
0.0098193573865861
 40
0.0098193573865861
 10
39.99994584614317
 20
-3.999999559992192
 30
0.0
 10
39.99998637701838
 20
-3.987664034111065
 30
0.0
 10
40.0000424284711
 20
-3.975033598997584
 30
0.0
 10
40.00008850021131
 20
-3.966057043860547
 30
0.0
 10
40.00009655401985
 20
-3.96454715077653
 30
0.0
 10
40.00009993481605
 20
-3.963899034354382
 30
0.0
 10
40.00010028603273
 20
-3.963830760787456
 30
0.0
 10
40.00010028603276
 20
-3.963830760781576
 30
0.0
  0
SPLINE
  5
C0DB
330
C0D0
100
AcDbEntity
  8
0
100
AcDbSpline
210
0.0
220
0.0
230
1.0
 70
     8
 71
     3
 72
     8
 73
     4
 74
     0
 42
0.000000001
 43
0.0000000001
 40
0.0046267240152374
 40
0.0046267240152374
 40
0.0046267240152374
 40
0.0046267240152374
 40
0.0079165843493747
 40
0.0079165843493747
 40
0.0079165843493747
 40
0.0079165843493747
 10
39.99996943751369
 20
-3.993167507297099
 30
0.0
 10
39.9999671852885
 20
-3.992213247109175
 30
0.0
 10
39.9999660726561
 20
-3.99170792779564
 30
0.0
 10
39.9999660726561
 20
-3.991707927796003
 30
0.0
  0
SPLINE
  5
C0DC
330
C0D0
100
AcDbEntity
  8
0
100
AcDbSpline
210
0.0
220
0.0
230
1.0
 70
     8
 71
     3
 72
    30
 73
    26
 74
     0
 42
0.000000001
 43
0.0000000001
 40
0.0088758086819408
 40
0.0088758086819408
 40
0.0088758086819408
 40
0.0088758086819408
 40
0.0094844858050897
 40
0.0094844858050897
 40
0.0097881821952629
 40
0.0097881821952629
 40
0.0104055692861001
 40
0.0104055692861001
 40
0.020124077293281
 40
0.020124077293281
 40
0.0297537944026993
 40
0.0297537944026993
 40
0.0586486927611421
 40
0.0586486927611421
 40
0.1454192221182006
 40
0.1454192221182006
 40
0.1835488494393056
 40
0.1835488494393056
 40
0.2029808546486926
 40
0.2029808546486926
 40
0.2129496955627447
 40
0.2129496955627447
 40
0.218365439594596
 40
0.218365439594596
 40
0.2240915092543492
 40
0.2240915092543492
 40
0.2240915092543492
 40
0.2240915092543492
 10
39.99995432995369
 20
-3.997458536447263
 30
0.0
 10
39.99994994885514
 20
-3.997204866619168
 30
0.0
 10
39.99994287982
 20
-3.99679523092309
 30
0.0
 10
39.99992335826008
 20
-3.995662951808107
 30
0.0
 10
39.99991472818139
 20
-3.99516217097941
 30
0.0
 10
39.99988222024143
 20
-3.993273279804947
 30
0.0
 10
39.99985211430252
 20
-3.991520347435857
 30
0.0
 10
39.99934548167195
 20
-3.96191008162949
 30
0.0
 10
39.99883091233473
 20
-3.930211414183853
 30
0.0
 10
39.99792788823118
 20
-3.870631225598697
 30
0.0
 10
39.99750950495332
 20
-3.841047812620053
 30
0.0
 10
39.99596790907288
 20
-3.723178777966813
 30
0.0
 10
39.99511741022596
 20
-3.635933749053891
 30
0.0
 10
39.99276581310288
 20
-3.287213874788134
 30
0.0
 10
39.993110329298
 20
-3.019974195043456
 30
0.0
 10
39.99520130533479
 20
-2.626824511413677
 30
0.0
 10
39.996079119275
 20
-2.506923911227921
 30
0.0
 10
39.99763558539824
 20
-2.331498554880273
 30
0.0
 10
39.99827431354756
 20
-2.272168549999706
 30
0.0
 10
39.99911585011875
 20
-2.185242002983631
 30
0.0
 10
39.99934105296714
 20
-2.156432690270297
 30
0.0
 10
39.9995169263461
 20
-2.117725648581964
 30
0.0
 10
39.99954968253218
 20
-2.10502818444967
 30
0.0
 10
39.99957794402023
 20
-2.082278684135745
 30
0.0
 10
39.99957150145679
 20
-2.07212560077544
 30
0.0
 10
39.99956150307763
 20
-2.065911061922215
 30
0.0
  0
LINE
  5
C0DD
330
C0D0
100
AcDbEntity
  8
0
100
AcDbLine
 10
-40.0
 20
-1.999999999999995
 30
0.0
 11
-40.0
 21
-2.065910882195681
 31
0.0
  0
SPLINE
  5
C0DE
330
C0D0
100
AcDbEntity
  8
0
100
AcDbSpline
210
0.0
220
0.0
230
1.0
 70
     8
 71
     3
 72
    11
 73
     7
 74
     0
 42
0.000000001
 43
0.0000000001
 40
-1.0
 40
-1.0
 40
-1.0
 40
-1.0
 40
-0.7906685193979081
 40
-0.7906685193979081
 40
-0.7906685193979081
 40
-0.65580360192827
 40
-0.65580360192827
 40
-0.65580360192827
 40
-0.65580360192827
 10
-40.0
 20
-2.000000000000024
 30
0.0
 10
-40.00001668753106
 20
-1.997223802221323
 30
0.0
 10
-40.13599085878055
 20
-1.911453463422434
 30
0.0
 10
-40.3670380014792
 20
-1.773190688142188
 30
0.0
 10
-40.51589355699348
 20
-1.684112840301717
 30
0.0
 10
-40.70303718816342
 20
-1.573717687766675
 30
0.0
 10
-40.91723157308741
 20
-1.451958811591736
 30
0.0
  0
SPLINE
  5
C0DF
330
C0D0
100
AcDbEntity
  8
0
100
AcDbSpline
210
0.0
220
0.0
230
1.0
 70
     8
 71
     3
 72
    38
 73
    34
 74
     0
 42
0.000000001
 43
0.0000000001
 40
0.0
 40
0.0
 40
0.0
 40
0.0
 40
0.000031465098074
 40
0.000031465098074
 40
0.0001036459579544
 40
0.0001036459579544
 40
0.0006928969736204
 40
0.0006928969736204
 40
0.0018781258112802
 40
0.0018781258112802
 40
0.004202005044693
 40
0.004202005044693
 40
0.0085734048760606
 40
0.0085734048760606
 40
0.0162801062348689
 40
0.0162801062348689
 40
0.0287687251095108
 40
0.0287687251095108
 40
0.0808538594645161
 40
0.0808538594645161
 40
0.150322691891454
 40
0.150322691891454
 40
0.1965842174369173
 40
0.1965842174369173
 40
0.2120000052417674
 40
0.2120000052417674
 40
0.2158988082212193
 40
0.2158988082212193
 40
0.216389172716629
 40
0.216389172716629
 40
0.2166316227454769
 40
0.2166316227454769
 40
0.2173481205936969
 40
0.2173481205936969
 40
0.2173481205936969
 40
0.2173481205936969
 10
-39.99955086269416
 20
-2.060836547227633
 30
0.0
 10
-39.99955090756826
 20
-2.060852891000442
 30
0.0
 10
-39.99955095417757
 20
-2.060869920197612
 30
0.0
 10
-39.99955110359116
 20
-2.060924704812872
 30
0.0
 10
-39.9995512089181
 20
-2.060963620738947
 30
0.0
 10
-39.99955218514284
 20
-2.061327199892247
 30
0.0
 10
-39.9995531355619
 20
-2.061702056995986
 30
0.0
 10
-39.99955613265316
 20
-2.062978340537049
 30
0.0
 10
-39.9995583158757
 20
-2.064031039561657
 30
0.0
 10
-39.99956453937439
 20
-2.067662655542489
 30
0.0
 10
-39.99956833449952
 20
-2.070746757740538
 30
0.0
 10
-39.99957424591979
 20
-2.080986879078967
 30
0.0
 10
-39.99957200617036
 20
-2.089374271432043
 30
0.0
 10
-39.99952953595777
 20
-2.115004201483854
 30
0.0
 10
-39.99945757442715
 20
-2.134436473996734
 30
0.0
 10
-39.99910369284897
 20
-2.189121932939556
 30
0.0
 10
-39.99871214009849
 20
-2.226997519278512
 30
0.0
 10
-39.99671400145487
 20
-2.421422300044306
 30
0.0
 10
-39.99542764799444
 20
-2.583911134807777
 30
0.0
 10
-39.99339712829785
 20
-2.96652698407447
 30
0.0
 10
-39.9929998301774
 20
-3.182773927208177
 30
0.0
 10
-39.99422941928712
 20
-3.532884460052028
 30
0.0
 10
-39.99528600121865
 20
-3.671395735306166
 30
0.0
 10
-39.99776059204508
 20
-3.860125102988817
 30
0.0
 10
-39.99846509014246
 20
-3.907667048108446
 30
0.0
 10
-39.9994392656612
 20
-3.967167308498243
 30
0.0
 10
-39.99965165464555
 20
-3.979817024230341
 30
0.0
 10
-39.99986225091847
 20
-3.992110531113683
 30
0.0
 10
-39.99988509671553
 20
-3.99344031924685
 30
0.0
 10
-39.99991135648821
 20
-3.994966300732924
 30
0.0
 10
-39.99991877029568
 20
-3.995396669529588
 30
0.0
 10
-39.99994236504778
 20
-3.99676568044744
 30
0.0
 10
-39.99994971724147
 20
-3.997191401233838
 30
0.0
 10
-39.99995433050587
 20
-3.997458373718369
 30
0.0
  0
SPLINE
  5
C0E0
330
C0D0
100
AcDbEntity
  8
0
100
AcDbSpline
210
0.0
220
0.0
230
1.0
 70
     8
 71
     3
 72
    38
 73
    34
 74
     0
 42
0.000000001
 43
0.0000000001
 40
0.0
 40
0.0
 40
0.0
 40
0.0
 40
0.0042155396960402
 40
0.0042155396960402
 40
0.0094084015228746
 40
0.0094084015228746
 40
0.0174403857270228
 40
0.0174403857270228
 40
0.0285096308488557
 40
0.0285096308488557
 40
0.0616586729777347
 40
0.0616586729777347
 40
0.1610776443202115
 40
0.1610776443202115
 40
0.1899991365814493
 40
0.1899991365814493
 40
0.2043619557858961
 40
0.2043619557858961
 40
0.2114354222868072
 40
0.2114354222868072
 40
0.2132185581448206
 40
0.2132185581448206
 40
0.2138881504931842
 40
0.2138881504931842
 40
0.2142553741056114
 40
0.2142553741056114
 40
0.2144926932855146
 40
0.2144926932855146
 40
0.2148245561338359
 40
0.2148245561338359
 40
0.2152693390940435
 40
0.2152693390940435
 40
0.2152804026078336
 40
0.2152804026078336
 40
0.2152804026078336
 40
0.2152804026078336
 10
-39.99956150278848
 20
-2.065910882195681
 30
0.0
 10
-39.99956886364527
 20
-2.070485977203294
 30
0.0
 10
-39.99957445746174
 20
-2.077223155506183
 30
0.0
 10
-39.99956666423756
 20
-2.094682733581628
 30
0.0
 10
-39.99954861236528
 20
-2.10611414910663
 30
0.0
 10
-39.99944066048156
 20
-2.137665182354086
 30
0.0
 10
-39.99931048565374
 20
-2.159556701611406
 30
0.0
 10
-39.99886086456952
 20
-2.2140939358194
 30
0.0
 10
-39.99849770097747
 20
-2.247635745333541
 30
0.0
 10
-39.99713722226125
 20
-2.381157679892421
 30
0.0
 10
-39.99628747552219
 20
-2.482645576080655
 30
0.0
 10
-39.99337069502881
 20
-2.897245082296502
 30
0.0
 10
-39.99252096676686
 20
-3.209538024221643
 30
0.0
 10
-39.9947925128654
 20
-3.59646303799902
 30
0.0
 10
-39.99555488509658
 20
-3.683597546864366
 30
0.0
 10
-39.99715271742413
 20
-3.815540992687398
 30
0.0
 10
-39.99775755793195
 20
-3.859619540698288
 30
0.0
 10
-39.99876354651387
 20
-3.925640969501047
 30
0.0
 10
-39.99911289507366
 20
-3.947504756611321
 30
0.0
 10
-39.99956652897586
 20
-3.974708553669683
 30
0.0
 10
-39.99965910459351
 20
-3.980201303726096
 30
0.0
 10
-39.99978399465707
 20
-3.987538542049842
 30
0.0
 10
-39.99981809760701
 20
-3.989534272648769
 30
0.0
 10
-39.99986688862532
 20
-3.992380226843951
 30
0.0
 10
-39.99988347898367
 20
-3.99334595330508
 30
0.0
 10
-39.99990633204934
 20
-3.994674462380312
 30
0.0
 10
-39.99991419350013
 20
-3.99513097544353
 30
0.0
 10
-39.99992959470752
 20
-3.996024836070442
 30
0.0
 10
-39.99993594625794
 20
-3.99639304504235
 30
0.0
 10
-39.99994713478061
 20
-3.997041521358781
 30
0.0
 10
-39.99995102774788
 20
-3.997266971899321
 30
0.0
 10
-39.9999541796489
 20
-3.997449501818319
 30
0.0
 10
-39.99995425555827
 20
-3.997453897780526
 30
0.0
 10
-39.99995433089187
 20
-3.997458260373919
 30
0.0
  0
SPLINE
  5
C0E1
330
C0D0
100
AcDbEntity
  8
0
100
AcDbSpline
210
0.0
220
0.0
230
1.0
 70
     8
 71
     3
 72
    14
 73
    10
 74
     0
 42
0.000000001
 43
0.0000000001
 40
0.0084924939837507
 40
0.0084924939837507
 40
0.0084924939837507
 40
0.0084924939837507
 40
0.0097191003164012
 40
0.0097191003164012
 40
0.0121785782641879
 40
0.0121785782641879
 40
0.0158342202522783
 40
0.0158342202522783
 40
0.0183225655727775
 40
0.0183225655727775
 40
0.0183225655727775
 40
0.0183225655727775
 10
-40.00010028603276
 20
-3.96383076078287
 30
0.0
 10
-40.00010028603505
 20
-3.96383076033479
 30
0.0
 10
-40.00009854227834
 20
-3.96416668512107
 30
0.0
 10
-40.00008894048843
 20
-3.965993283147403
 30
0.0
 10
-40.00007662590276
 20
-3.968318342798117
 30
0.0
 10
-40.00004075144546
 20
-3.97557346723866
 30
0.0
 10
-40.0000150886785
 20
-3.98121809581754
 30
0.0
 10
-39.99997539615932
 20
-3.991368034246706
 30
0.0
 10
-39.99996011279735
 20
-3.995657519973408
 30
0.0
 10
-39.99994584614314
 20
-3.99999955999219
 30
0.0
  0
SPLINE
  5
C0E2
330
C0D0
100
AcDbEntity
  8
0
100
AcDbSpline
210
0.0
220
0.0
230
1.0
 70
     8
 71
     3
 72
     8
 73
     4
 74
     0
 42
0.000000001
 43
0.0000000001
 40
0.0105085540020774
 40
0.0105085540020774
 40
0.0105085540020774
 40
0.0105085540020774
 40
0.0138059197952344
 40
0.0138059197952344
 40
0.0138059197952344
 40
0.0138059197952344
 10
-39.99996607265611
 20
-3.991707927794921
 30
0.0
 10
-39.99996607266775
 20
-3.991707932047991
 30
0.0
 10
-39.99996717751894
 20
-3.992209952400639
 30
0.0
 10
-39.99996942698485
 20
-3.993163043487611
 30
0.0
  0
SPLINE
  5
C0E3
330
C0D0
100
AcDbEntity
  8
0
100
AcDbSpline
210
0.0
220
0.0
230
1.0
 70
     8
 71
     3
 72
     8
 73
     4
 74
     0
 42
0.000000001
 43
0.0000000001
 40
0.0191131045030056
 40
0.0191131045030056
 40
0.0191131045030056
 40
0.0191131045030056
 40
0.0194646761305231
 40
0.0194646761305231
 40
0.0194646761305231
 40
0.0194646761305231
 10
-39.99997709231706
 20
-3.998776051044599
 30
0.0
 10
-39.99997828847625
 20
-3.999168320966605
 30
0.0
 10
-39.99997952673149
 20
-3.999576200174516
 30
0.0
 10
-39.99998080903827
 20
-4.000000149069752
 30
0.0
  0
SPLINE
  5
C0E4
330
C0D0
100
AcDbEntity
  8
0
100
AcDbSpline
210
0.0
220
0.0
230
1.0
 70
     8
 71
     3
 72
     8
 73
     4
 74
     0
 42
0.000000001
 43
0.0000000001
 40
0.0027252063484804
 40
0.0027252063484804
 40
0.0027252063484804
 40
0.0027252063484804
 40
0.0035328219111266
 40
0.0035328219111266
 40
0.0035328219111266
 40
0.0035328219111266
 10
-42.0001972365085
 20
-3.975126637920265
 30
0.0
 10
-42.00021744349837
 20
-3.9726116521931
 30
0.0
 10
-42.00023948856742
 20
-3.970082322797396
 30
0.0
 10
-42.00026353295303
 20
-3.967533673405655
 30
0.0
  0
SPLINE
  5
C0E5
330
C0D0
100
AcDbEntity
  8
0
100
AcDbSpline
210
0.0
220
0.0
230
1.0
 70
     8
 71
     3
 72
     8
 73
     4
 74
     0
 42
0.000000001
 43
0.0000000001
 40
0.0
 40
0.0
 40
0.0
 40
0.0
 40
0.0030791655079529
 40
0.0030791655079529
 40
0.0030791655079529
 40
0.0030791655079529
 10
-42.00010874558691
 20
-3.999998849436098
 30
0.0
 10
-42.0001222369013
 20
-3.989756913498619
 30
0.0
 10
-42.00016149317961
 20
-3.979517737927388
 30
0.0
 10
-42.00023612095752
 20
-3.969268451438647
 30
0.0
  0
SPLINE
  5
C0E6
330
C0D0
100
AcDbEntity
  8
0
100
AcDbSpline
210
0.0
220
0.0
230
1.0
 70
     8
 71
     3
 72
    12
 73
     8
 74
     0
 42
0.000000001
 43
0.0000000001
 40
0.1038538251911331
 40
0.1038538251911331
 40
0.1038538251911331
 40
0.1038538251911331
 40
0.1084024242757549
 40
0.1084024242757549
 40
0.1511364414935211
 40
0.1511364414935211
 40
0.2133914859932874
 40
0.2133914859932874
 40
0.2133914859932874
 40
0.2133914859932874
 10
-43.62254551654199
 20
-2.035940909005676
 30
0.0
 10
-43.63731700751173
 20
-2.034401876637071
 30
0.0
 10
-43.65205471914072
 20
-2.032946516568304
 30
0.0
 10
-43.80479820197762
 20
-2.018615101634038
 30
0.0
 10
-43.94056113149793
 20
-2.012008786519582
 30
0.0
 10
-44.26769570080353
 20
-2.00165009446596
 30
0.0
 10
-44.4601202395378
 20
-2.000336055284669
 30
0.0
 10
-44.6481220099041
 20
-2.0000406674338
 30
0.0
  0
LINE
  5
C0E7
330
C0D0
100
AcDbEntity
  8
0
100
AcDbLine
 10
-40.0
 20
-1.999999999999995
 30
0.0
 11
-38.00000000000001
 21
-1.999999999999992
 31
0.0
  0
LINE
  5
C0E8
330
C0D0
100
AcDbEntity
  8
0
100
AcDbLine
 10
-40.0
 20
-86.00000000000001
 30
0.0
 11
-37.99999999999999
 21
-86.00000000000001
 31
0.0
  0
LINE
  5
C0E9
330
C0D0
100
AcDbEntity
  8
0
100
AcDbLine
 10
38.00000000000002
 20
-1.999999999999992
 30
0.0
 11
-38.00000000000002
 21
-1.999999999999992
 31
0.0
  0
LINE
  5
C0EA
330
C0D0
100
AcDbEntity
  8
0
100
AcDbLine
 10
-37.99999999999999
 20
-86.00000000000001
 30
0.0
 11
37.99999999999999
 21
-86.00000000000001
 31
0.0
  0
CIRCLE
  5
C0EB
330
C0D0
100
AcDbEntity
  8
0
100
AcDbCircle
 10
0.0
 20
-47.99999999999998
 30
0.0
 40
2.5
  0
CIRCLE
  5
C0EC
330
C0D0
100
AcDbEntity
  8
0
100
AcDbCircle
 10
0.0
 20
-67.99999999999998
 30
0.0
 40
2.5
  0
LINE
  5
C0ED
330
C0D0
100
AcDbEntity
  8
0
100
AcDbLine
 10
40.0
 20
-1.999999999999995
 30
0.0
 11
38.00000000000001
 21
-1.999999999999992
 31
0.0
  0
LINE
  5
C0EE
330
C0D0
100
AcDbEntity
  8
0
100
AcDbLine
 10
44.0
 20
0.0
 30
0.0
 11
81.5
 21
0.0
 31
0.0
  0
ARC
  5
C0EF
330
C0D0
100
AcDbEntity
  8
0
100
AcDbCircle
 10
44.0
 20
-4.000000000000004
 30
0.0
 40
4.000000000000003
100
AcDbArc
 50
90.0
 51
180.0
  0
LINE
  5
C0F0
330
C0D0
100
AcDbEntity
  8
0
100
AcDbLine
 10
39.99999999999998
 20
-86.00000000000006
 30
0.0
 11
39.99999999999999
 21
-46.00000000000004
 31
0.0
  0
LINE
  5
C0F1
330
C0D0
100
AcDbEntity
  8
0
100
AcDbLine
 10
41.99999999999998
 20
-86.00000000000006
 30
0.0
 11
39.99999999999998
 21
-86.00000000000006
 31
0.0
  0
LINE
  5
C0F2
330
C0D0
100
AcDbEntity
  8
0
100
AcDbLine
 10
41.99999999999999
 20
-46.00000000000004
 30
0.0
 11
41.99999999999998
 21
-86.00000000000006
 31
0.0
  0
LINE
  5
C0F3
330
C0D0
100
AcDbEntity
  8
0
100
AcDbLine
 10
39.99999999999999
 20
-46.00000000000001
 30
0.0
 11
41.99999999999999
 21
-46.00000000000001
 31
0.0
  0
LINE
  5
C0F4
330
C0D0
100
AcDbEntity
  8
0
100
AcDbLine
 10
42.0
 20
-4.000000000000003
 30
0.0
 11
41.99999999999999
 21
-46.00000000000001
 31
0.0
  0
LINE
  5
C0F5
330
C0D0
100
AcDbEntity
  8
0
100
AcDbLine
 10
39.99999999999999
 20
-46.00000000000001
 30
0.0
 11
40.0
 21
-4.000000000000003
 31
0.0
  0
LINE
  5
C0F6
330
C0D0
100
AcDbEntity
  8
0
100
AcDbLine
 10
40.0
 20
-86.00000000000001
 30
0.0
 11
37.99999999999999
 21
-86.00000000000001
 31
0.0
  0
ARC
  5
C0F7
330
C0D0
100
AcDbEntity
  8
0
100
AcDbCircle
 10
44.0
 20
-4.000000000000004
 30
0.0
 40
2.000000000000001
100
AcDbArc
 50
90.0
 51
180.0
  0
LINE
  5
C0F8
330
C0D0
100
AcDbEntity
  8
0
100
AcDbLine
 10
81.5
 20
0.0
 30
0.0
 11
81.5
 21
-2.000000000000019
 31
0.0
  0
LINE
  5
C0F9
330
C0D0
100
AcDbEntity
  8
0
100
AcDbLine
 10
81.5
 20
-2.000000000000019
 30
0.0
 11
44.0
 21
-2.000000000000001
 31
0.0
  0
LINE
  5
C0FA
330
C0D0
100
AcDbEntity
  8
0
100
AcDbLine
 10
-81.5
 20
-2.000000000000019
 30
0.0
 11
-44.0
 21
-2.000000000000001
 31
0.0
  0
LINE
  5
C0FB
330
C0D0
100
AcDbEntity
  8
0
100
AcDbLine
 10
-39.99999999999999
 20
-46.00000000000001
 30
0.0
 11
-40.0
 21
-4.000000000000003
 31
0.0
  0
LINE
  5
C0FC
330
C0D0
100
AcDbEntity
  8
0
100
AcDbLine
 10
-42.0
 20
-4.000000000000003
 30
0.0
 11
-41.99999999999999
 21
-46.00000000000001
 31
0.0
  0
LINE
  5
C0FD
330
C0D0
100
AcDbEntity
  8
0
100
AcDbLine
 10
-44.0
 20
0.0
 30
0.0
 11
-81.5
 21
0.0
 31
0.0
  0
LINE
  5
C0FE
330
C0D0
100
AcDbEntity
  8
0
100
AcDbLine
 10
-81.5
 20
0.0
 30
0.0
 11
-81.5
 21
-2.000000000000019
 31
0.0
  0
ARC
  5
C0FF
330
C0D0
100
AcDbEntity
  8
0
100
AcDbCircle
 10
-44.0
 20
-4.000000000000004
 30
0.0
 40
2.000000000000001
100
AcDbArc
 50
0.0
 51
90.0
  0
ARC
  5
C100
330
C0D0
100
AcDbEntity
  8
0
100
AcDbCircle
 10
-44.0
 20
-4.000000000000004
 30
0.0
 40
4.000000000000003
100
AcDbArc
 50
0.0
 51
90.0
  0
LINE
  5
C101
330
C0D0
100
AcDbEntity
  8
0
100
AcDbLine
 10
-39.99999999999999
 20
-46.00000000000004
 30
0.0
 11
-39.99999999999998
 21
-86.00000000000006
 31
0.0
  0
LINE
  5
C102
330
C0D0
100
AcDbEntity
  8
0
100
AcDbLine
 10
-41.99999999999998
 20
-86.00000000000006
 30
0.0
 11
-41.99999999999999
 21
-46.00000000000004
 31
0.0
  0
LINE
  5
C103
330
C0D0
100
AcDbEntity
  8
0
100
AcDbLine
 10
-39.99999999999998
 20
-86.00000000000006
 30
0.0
 11
-41.99999999999998
 21
-86.00000000000006
 31
0.0
  0
LINE
  5
C104
330
C0D0
100
AcDbEntity
  8
0
100
AcDbLine
 10
-41.99999999999999
 20
-46.00000000000001
 30
0.0
 11
-39.99999999999999
 21
-46.00000000000001
 31
0.0
  0
ENDBLK
  5
C0D2
330
C0D0
100
AcDbEntity
  8
0
100
AcDbBlockEnd
  0
BLOCK
  5
C106
330
C105
100
AcDbEntity
  8
0
100
AcDbBlockBegin
  2
SAE500_80_2-Bottom
 70
     0
 10
0.0
 20
0.0
 30
0.0
  3
SAE500_80_2-Bottom
  1

  0
SPLINE
  5
C108
330
C105
100
AcDbEntity
  8
0
100
AcDbSpline
210
0.0
220
0.0
230
1.0
 70
     8
 71
     3
 72
    17
 73
    13
 74
     0
 42
0.000000001
 43
0.0000000001
 40
0.0
 40
0.0
 40
0.0
 40
0.0
 40
0.369062643218737
 40
0.369062643218737
 40
0.369062643218737
 40
0.6936378219993707
 40
0.6936378219993707
 40
0.6936378219993707
 40
0.921954538644244
 40
0.921954538644244
 40
0.921954538644244
 40
1.0
 40
1.0
 40
1.0
 40
1.0
 10
44.6666666666667
 20
2.000000000000011
 30
0.0
 10
44.31083458278184
 20
2.000007003368946
 30
0.0
 10
43.85987304241679
 20
2.000476349919154
 30
0.0
 10
43.42414735818052
 20
1.999863204549016
 30
0.0
 10
43.04094481937334
 20
1.999323968807368
 30
0.0
 10
42.67697529433505
 20
1.999985049619632
 30
0.0
 10
42.41326214682223
 20
2.00026162796054
 30
0.0
 10
42.22775775858647
 20
2.000456182143421
 30
0.0
 10
42.08930240207497
 20
2.000333558699189
 30
0.0
 10
42.03081927694217
 20
2.000050547976821
 30
0.0
 10
42.01082800100938
 20
1.999953806473525
 30
0.0
 10
41.99999739290342
 20
2.000681435773538
 30
0.0
 10
42.00000000006099
 20
2.000000000000313
 30
0.0
  0
ARC
  5
C109
330
C105
100
AcDbEntity
  8
0
100
AcDbCircle
 10
44.0
 20
4.000000000000004
 30
0.0
 40
1.999999999999992
100
AcDbArc
 50
180.4263269478713
 51
259.1109222747276
  0
ARC
  5
C10A
330
C105
100
AcDbEntity
  8
0
100
AcDbCircle
 10
44.0
 20
4.000000000000004
 30
0.0
 40
3.999999999999994
100
AcDbArc
 50
219.5569546897483
 51
270.0
  0
LINE
  5
C10B
330
C105
100
AcDbEntity
  8
0
100
AcDbLine
 10
44.66666666666668
 20
0.0
 30
0.0
 11
44.0
 21
0.0
 31
0.0
  0
SPLINE
  5
C10C
330
C105
100
AcDbEntity
  8
0
100
AcDbSpline
210
0.0
220
0.0
230
1.0
 70
     8
 71
     3
 72
    17
 73
    13
 74
     0
 42
0.000000001
 43
0.0000000001
 40
-1.0
 40
-1.0
 40
-1.0
 40
-1.0
 40
-0.7906685193979081
 40
-0.7906685193979081
 40
-0.7906685193979081
 40
-0.389464600593421
 40
-0.389464600593421
 40
-0.389464600593421
 40
-0.1064781870810468
 40
-0.1064781870810468
 40
-0.1064781870810468
 40
0.0
 40
0.0
 40
0.0
 40
0.0
 10
40.0
 20
2.000000000000024
 30
0.0
 10
40.00001668753106
 20
1.997223802221323
 30
0.0
 10
40.13599085878055
 20
1.911453463422434
 30
0.0
 10
40.3670380014792
 20
1.773190688142188
 30
0.0
 10
40.80986207558718
 20
1.508196779401523
 30
0.0
 10
41.59152709937935
 20
1.054549467643925
 30
0.0
 10
42.41619003863575
 20
0.6742949633757714
 30
0.0
 10
42.9978603479192
 20
0.4060850747350543
 30
0.0
 10
43.60765563815204
 20
0.1716897863539497
 30
0.0
 10
44.12324022303963
 20
0.0620429895114842
 30
0.0
 10
44.31723721110834
 20
0.0207866196309597
 30
0.0
 10
44.4987932434249
 20
0.0000165986139169
 30
0.0
 10
44.66666666666667
 20
0.0000000000000018
 30
0.0
  0
LINE
  5
C10D
330
C105
100
AcDbEntity
  8
0
100
AcDbLine
 10
44.66666666666668
 20
2.000000000000011
 30
0.0
 11
44.66666666666668
 21
0.0
 31
0.0
  0
SPLINE
  5
C10E
330
C105
100
AcDbEntity
  8
0
100
AcDbSpline
210
0.0
220
0.0
230
1.0
 70
     8
 71
     3
 72
    26
 73
    22
 74
     0
 42
0.000000001
 43
0.0000000001
 40
0.0712008774829181
 40
0.0712008774829181
 40
0.0712008774829181
 40
0.0712008774829181
 40
0.0717833189609562
 40
0.0717833189609562
 40
0.0724189798573699
 40
0.0724189798573699
 40
0.0737111620237758
 40
0.0737111620237758
 40
0.074988053649534
 40
0.074988053649534
 40
0.0775471331892514
 40
0.0775471331892514
 40
0.0826439393061218
 40
0.0826439393061218
 40
0.0901203215047025
 40
0.0901203215047025
 40
0.10840242429676
 40
0.10840242429676
 40
0.1511364415451925
 40
0.1511364415451925
 40
0.1919733793109241
 40
0.1919733793109241
 40
0.1919733793109241
 40
0.1919733793109241
 10
43.32135291138898
 20
2.081530384959007
 30
0.0
 10
43.3213529120417
 20
2.081530384815799
 30
0.0
 10
43.32151326262785
 20
2.08149517710442
 30
0.0
 10
43.32222318354664
 20
2.081340547400851
 30
0.0
 10
43.32281281472552
 20
2.081212468685646
 30
0.0
 10
43.3252299738524
 20
2.080691431462457
 30
0.0
 10
43.32778164156782
 20
2.080146125285228
 30
0.0
 10
43.33375811277069
 20
2.07889272051609
 30
0.0
 10
43.33722258952737
 20
2.078175970133875
 30
0.0
 10
43.34813277805936
 20
2.075957293110502
 30
0.0
 10
43.35622793744581
 20
2.074360472956904
 30
0.0
 10
43.38057307808226
 20
2.069712850848795
 30
0.0
 10
43.39745391099589
 20
2.066686894829074
 30
0.0
 10
43.43876572318978
 20
2.05970455235729
 30
0.0
 10
43.46345385788942
 20
2.055894138391806
 30
0.0
 10
43.54800645543576
 20
2.043859623983195
 30
0.0
 10
43.60768950963767
 20
2.037109157185185
 30
0.0
 10
43.80479820227861
 20
2.018615101612124
 30
0.0
 10
43.94056113189145
 20
2.012008786500993
 30
0.0
 10
44.20095919552561
 20
2.003763300998342
 30
0.0
 10
44.32726833339664
 20
2.001902325185035
 30
0.0
 10
44.45281374962402
 20
2.000885712190535
 30
0.0
  0
SPLINE
  5
C10F
330
C105
100
AcDbEntity
  8
0
100
AcDbSpline
210
0.0
220
0.0
230
1.0
 70
     8
 71
     3
 72
    20
 73
    16
 74
     0
 42
0.000000001
 43
0.0000000001
 40
0.0
 40
0.0
 40
0.0
 40
0.0
 40
0.0056243718484446
 40
0.0056243718484446
 40
0.008815040433529
 40
0.008815040433529
 40
0.0117407488392625
 40
0.0117407488392625
 40
0.0143384412418884
 40
0.0143384412418884
 40
0.0172331020026534
 40
0.0172331020026534
 40
0.0203288171312217
 40
0.0203288171312217
 40
0.0219031273695438
 40
0.0219031273695438
 40
0.0219031273695438
 40
0.0219031273695438
 10
42.0000519560699
 20
3.999998939803046
 30
0.0
 10
42.00011395536818
 20
3.983317983397607
 30
0.0
 10
42.00024716986994
 20
3.965783257741837
 30
0.0
 10
42.00063173532419
 20
3.936931555077674
 30
0.0
 10
42.00081239926979
 20
3.925980405682562
 30
0.0
 10
42.00121559335517
 20
3.905856418236416
 30
0.0
 10
42.00143788656726
 20
3.896387911580008
 30
0.0
 10
42.00186079249096
 20
3.880398465732779
 30
0.0
 10
42.00206547775682
 20
3.873465907538693
 30
0.0
 10
42.00246729829292
 20
3.860788815082197
 30
0.0
 10
42.00266528242983
 20
3.855119553562551
 30
0.0
 10
42.00299226416891
 20
3.846155460724329
 30
0.0
 10
42.0031186029568
 20
3.842949888974805
 30
0.0
 10
42.00321395522952
 20
3.840549859357657
 30
0.0
 10
42.00323057408225
 20
3.840140828026305
 30
0.0
 10
42.00323057368272
 20
3.840140837898074
 30
0.0
  0
SPLINE
  5
C110
330
C105
100
AcDbEntity
  8
0
100
AcDbSpline
210
0.0
220
0.0
230
1.0
 70
     8
 71
     3
 72
     8
 73
     4
 74
     0
 42
0.000000001
 43
0.0000000001
 40
0.0
 40
0.0
 40
0.0
 40
0.0
 40
0.0024923845074668
 40
0.0024923845074668
 40
0.0024923845074668
 40
0.0024923845074668
 10
42.00010874558691
 20
3.999998849436098
 30
0.0
 10
42.00011966592974
 20
3.991708667439999
 30
0.0
 10
42.00014744084327
 20
3.983419897689183
 30
0.0
 10
42.00019723650846
 20
3.975126637926969
 30
0.0
  0
SPLINE
  5
C111
330
C105
100
AcDbEntity
  8
0
100
AcDbSpline
210
0.0
220
0.0
230
1.0
 70
     8
 71
     3
 72
    16
 73
    12
 74
     0
 42
0.000000001
 43
0.0000000001
 40
0.0097504753447376
 40
0.0097504753447376
 40
0.0097504753447376
 40
0.0097504753447376
 40
0.0104274554228077
 40
0.0104274554228077
 40
0.0117224875301193
 40
0.0117224875301193
 40
0.0126192148635193
 40
0.0126192148635193
 40
0.0135228633740386
 40
0.0135228633740386
 40
0.0137616208226415
 40
0.0137616208226415
 40
0.0137616208226415
 40
0.0137616208226415
 10
42.00125800427577
 20
3.904424100902679
 30
0.0
 10
42.00130819543155
 20
3.902464474326477
 30
0.0
 10
42.00135927102855
 20
3.900551175907358
 30
0.0
 10
42.0015085046861
 20
3.895167233596978
 30
0.0
 10
42.00160873081403
 20
3.89182161305872
 30
0.0
 10
42.00176159440471
 20
3.886996532568809
 30
0.0
 10
42.00182000407429
 20
3.885239014050629
 30
0.0
 10
42.00191155711407
 20
3.882556777943756
 30
0.0
 10
42.00194480319516
 20
3.881626539465519
 30
0.0
 10
42.00195900174226
 20
3.881231222931105
 30
0.0
 10
42.0019605216981
 20
3.881189261530639
 30
0.0
 10
42.0019605217028
 20
3.881189261400969
 30
0.0
  0
CIRCLE
  5
C112
330
C105
100
AcDbEntity
  8
0
100
AcDbCircle
 10
0.0
 20
67.99999999999998
 30
0.0
 40
2.5
  0
CIRCLE
  5
C113
330
C105
100
AcDbEntity
  8
0
100
AcDbCircle
 10
0.0
 20
47.99999999999998
 30
0.0
 40
2.5
  0
LINE
  5
C114
330
C105
100
AcDbEntity
  8
0
100
AcDbLine
 10
38.00000000000002
 20
1.999999999999992
 30
0.0
 11
-38.00000000000002
 21
1.999999999999992
 31
0.0
  0
LINE
  5
C115
330
C105
100
AcDbEntity
  8
0
100
AcDbLine
 10
37.99999999999999
 20
86.00000000000001
 30
0.0
 11
-37.99999999999999
 21
86.00000000000001
 31
0.0
  0
SPLINE
  5
C116
330
C105
100
AcDbEntity
  8
0
100
AcDbSpline
210
0.0
220
0.0
230
1.0
 70
     8
 71
     3
 72
    17
 73
    13
 74
     0
 42
0.000000001
 43
0.0000000001
 40
-1.0
 40
-1.0
 40
-1.0
 40
-1.0
 40
-0.7906685193979081
 40
-0.7906685193979081
 40
-0.7906685193979081
 40
-0.389464600593421
 40
-0.389464600593421
 40
-0.389464600593421
 40
-0.1064781870810468
 40
-0.1064781870810468
 40
-0.1064781870810468
 40
0.0
 40
0.0
 40
0.0
 40
0.0
 10
-40.0
 20
2.000000000000024
 30
0.0
 10
-40.00001668753106
 20
1.997223802221323
 30
0.0
 10
-40.13599085878055
 20
1.911453463422434
 30
0.0
 10
-40.3670380014792
 20
1.773190688142188
 30
0.0
 10
-40.80986207558718
 20
1.508196779401523
 30
0.0
 10
-41.59152709937935
 20
1.054549467643925
 30
0.0
 10
-42.41619003863575
 20
0.6742949633757714
 30
0.0
 10
-42.9978603479192
 20
0.4060850747350543
 30
0.0
 10
-43.60765563815204
 20
0.1716897863539497
 30
0.0
 10
-44.12324022303963
 20
0.0620429895114842
 30
0.0
 10
-44.31723721110834
 20
0.0207866196309597
 30
0.0
 10
-44.4987932434249
 20
0.0000165986139169
 30
0.0
 10
-44.66666666666667
 20
0.0000000000000018
 30
0.0
  0
LINE
  5
C117
330
C105
100
AcDbEntity
  8
0
100
AcDbLine
 10
-44.0
 20
0.0
 30
0.0
 11
-44.66666666666668
 21
0.0
 31
0.0
  0
ARC
  5
C118
330
C105
100
AcDbEntity
  8
0
100
AcDbCircle
 10
-44.0
 20
4.000000000000004
 30
0.0
 40
3.999999999999994
100
AcDbArc
 50
270.0
 51
320.4430453102518
  0
ARC
  5
C119
330
C105
100
AcDbEntity
  8
0
100
AcDbCircle
 10
-44.0
 20
4.000000000000004
 30
0.0
 40
1.999999999999992
100
AcDbArc
 50
280.8890777252719
 51
359.5726586118183
  0
SPLINE
  5
C11A
330
C105
100
AcDbEntity
  8
0
100
AcDbSpline
210
0.0
220
0.0
230
1.0
 70
     8
 71
     3
 72
    17
 73
    13
 74
     0
 42
0.000000001
 43
0.0000000001
 40
0.0
 40
0.0
 40
0.0
 40
0.0
 40
0.369062643218737
 40
0.369062643218737
 40
0.369062643218737
 40
0.6936378219993707
 40
0.6936378219993707
 40
0.6936378219993707
 40
0.921954538644244
 40
0.921954538644244
 40
0.921954538644244
 40
1.0
 40
1.0
 40
1.0
 40
1.0
 10
-44.6666666666667
 20
2.000000000000011
 30
0.0
 10
-44.31083458278184
 20
2.000007003368946
 30
0.0
 10
-43.85987304241679
 20
2.000476349919154
 30
0.0
 10
-43.42414735818052
 20
1.999863204549016
 30
0.0
 10
-43.04094481937334
 20
1.999323968807368
 30
0.0
 10
-42.67697529433505
 20
1.999985049619632
 30
0.0
 10
-42.41326214682223
 20
2.00026162796054
 30
0.0
 10
-42.22775775858647
 20
2.000456182143421
 30
0.0
 10
-42.08930240207497
 20
2.000333558699189
 30
0.0
 10
-42.03081927694217
 20
2.000050547976821
 30
0.0
 10
-42.01082800100938
 20
1.999953806473525
 30
0.0
 10
-41.99999739290342
 20
2.000681435773538
 30
0.0
 10
-42.00000000006099
 20
2.000000000000313
 30
0.0
  0
LINE
  5
C11B
330
C105
100
AcDbEntity
  8
0
100
AcDbLine
 10
-44.66666666666668
 20
0.0
 30
0.0
 11
-44.66666666666668
 21
2.000000000000011
 31
0.0
  0
SPLINE
  5
C11C
330
C105
100
AcDbEntity
  8
0
100
AcDbSpline
210
0.0
220
0.0
230
1.0
 70
     8
 71
     3
 72
    22
 73
    18
 74
     0
 42
0.000000001
 43
0.0000000001
 40
0.0208542036137693
 40
0.0208542036137693
 40
0.0208542036137693
 40
0.0208542036137693
 40
0.0210241475345246
 40
0.0210241475345246
 40
0.024321805086374
 40
0.024321805086374
 40
0.0275425398962881
 40
0.0275425398962881
 40
0.030673193838695
 40
0.030673193838695
 40
0.0336222334267435
 40
0.0336222334267435
 40
0.036248517842975
 40
0.036248517842975
 40
0.0389832184312653
 40
0.0389832184312653
 40
0.0427669629993914
 40
0.0427669629993914
 40
0.0427669629993914
 40
0.0427669629993914
 10
-42.00323057368279
 20
3.840140837896892
 30
0.0
 10
-42.0032305736825
 20
3.840140837903763
 30
0.0
 10
-42.00323038369997
 20
3.840145531845825
 30
0.0
 10
-42.00322264908769
 20
3.840336868358951
 30
0.0
 10
-42.0031408655506
 20
3.842334191993668
 30
0.0
 10
-42.00286241005734
 20
3.849661924988312
 30
0.0
 10
-42.00266574233181
 20
3.855006356990325
 30
0.0
 10
-42.00222641500864
 20
3.8682064596472
 30
0.0
 10
-42.00198007237028
 20
3.876166740267402
 30
0.0
 10
-42.00151295967028
 20
3.893363343558072
 30
0.0
 10
-42.00128531771887
 20
3.902759876612508
 30
0.0
 10
-42.00090785782188
 20
3.920974402457998
 30
0.0
 10
-42.00074820199104
 20
3.929927741064607
 30
0.0
 10
-42.00047994297815
 20
3.947693852547487
 30
0.0
 10
-42.00037038491729
 20
3.956644058130314
 30
0.0
 10
-42.00016740323277
 20
3.977239015430138
 30
0.0
 10
-42.00009366552907
 20
3.988776979397245
 30
0.0
 10
-42.00005195606988
 20
3.999998939803046
 30
0.0
  0
SPLINE
  5
C11D
330
C105
100
AcDbEntity
  8
0
100
AcDbSpline
210
0.0
220
0.0
230
1.0
 70
     8
 71
     3
 72
    14
 73
    10
 74
     0
 42
0.000000001
 43
0.0000000001
 40
0.0143123123546157
 40
0.0143123123546157
 40
0.0143123123546157
 40
0.0143123123546157
 40
0.014825626600655
 40
0.014825626600655
 40
0.0154982852870215
 40
0.0154982852870215
 40
0.0168569551765489
 40
0.0168569551765489
 40
0.0183174975420059
 40
0.0183174975420059
 40
0.0183174975420059
 40
0.0183174975420059
 10
-42.00196052170269
 20
3.881189261404536
 30
0.0
 10
-42.0019605217033
 20
3.881189261387238
 30
0.0
 10
-42.001953400094
 20
3.881385556258987
 30
0.0
 10
-42.00192261607241
 20
3.882253150909477
 30
0.0
 10
-42.00189423482253
 20
3.88306145746607
 30
0.0
 10
-42.00178832853713
 20
3.886173555847838
 30
0.0
 10
-42.0016896700569
 20
3.889192883854886
 30
0.0
 10
-42.00148072108163
 20
3.896121385913336
 30
0.0
 10
-42.001367090984
 20
3.900164999687435
 30
0.0
 10
-42.00125800427565
 20
3.904424100906704
 30
0.0
  0
SPLINE
  5
C11E
330
C105
100
AcDbEntity
  8
0
100
AcDbSpline
210
0.0
220
0.0
230
1.0
 70
     8
 71
     3
 72
     8
 73
     4
 74
     0
 42
0.000000001
 43
0.0000000001
 40
0.0255462025329656
 40
0.0255462025329656
 40
0.0255462025329656
 40
0.0255462025329656
 40
0.0280566206503873
 40
0.0280566206503873
 40
0.0280566206503873
 40
0.0280566206503873
 10
-42.00019901981128
 20
3.974905240850803
 30
0.0
 10
-42.00014829593452
 20
3.983277294814815
 30
0.0
 10
-42.00011974494372
 20
3.991648683955059
 30
0.0
 10
-42.0001087455869
 20
3.999998849436097
 30
0.0
  0
SPLINE
  5
C11F
330
C105
100
AcDbEntity
  8
0
100
AcDbSpline
210
0.0
220
0.0
230
1.0
 70
     8
 71
     3
 72
    24
 73
    20
 74
     0
 42
0.000000001
 43
0.0000000001
 40
0.0214147410834595
 40
0.0214147410834595
 40
0.0214147410834595
 40
0.0214147410834595
 40
0.0708400272793917
 40
0.0708400272793917
 40
0.1241856024347277
 40
0.1241856024347277
 40
0.1319856868079249
 40
0.1319856868079249
 40
0.1360200242305197
 40
0.1360200242305197
 40
0.1380390169169877
 40
0.1380390169169877
 40
0.1390474634523307
 40
0.1390474634523307
 40
0.1400599069299965
 40
0.1400599069299965
 40
0.1410784365192453
 40
0.1410784365192453
 40
0.1420941749603639
 40
0.1420941749603639
 40
0.1420941749603639
 40
0.1420941749603639
 10
-44.45281374962407
 20
2.000885712190535
 30
0.0
 10
-44.30081991642437
 20
2.002116493134659
 30
0.0
 10
-44.14816236198198
 20
2.004455947153989
 30
0.0
 10
-43.82578100764155
 20
2.017385190877149
 30
0.0
 10
-43.65321495853383
 20
2.02831865528118
 30
0.0
 10
-43.45235789287389
 20
2.057575293046111
 30
0.0
 10
-43.42654090153852
 20
2.061667902963661
 30
0.0
 10
-43.38775762533486
 20
2.068432801410516
 30
0.0
 10
-43.37448767455348
 20
2.070859729417471
 30
0.0
 10
-43.35534258815595
 20
2.074539489844997
 30
0.0
 10
-43.34902944384911
 20
2.075784312789001
 30
0.0
 10
-43.34022595185778
 20
2.077562845918789
 30
0.0
 10
-43.33738849565356
 20
2.078143642042795
 30
0.0
 10
-43.33214203348922
 20
2.079230036173548
 30
0.0
 10
-43.32970444821801
 20
2.079741733030256
 30
0.0
 10
-43.32563663279919
 20
2.080604101369737
 30
0.0
 10
-43.3239848419097
 20
2.080959274808432
 30
0.0
 10
-43.32185771174516
 20
2.081419416465267
 30
0.0
 10
-43.32135291140583
 20
2.08153038495531
 30
0.0
 10
-43.32135291138889
 20
2.081530384959026
 30
0.0
  0
LINE
  5
C120
330
C105
100
AcDbEntity
  8
0
100
AcDbLine
 10
-42.00000000000001
 20
1.999999999999997
 30
0.0
 11
-38.00000000000001
 21
1.999999999999992
 31
0.0
  0
LINE
  5
C121
330
C105
100
AcDbEntity
  8
0
100
AcDbLine
 10
-37.99999999999999
 20
86.00000000000001
 30
0.0
 11
-41.99999999999999
 21
86.00000000000001
 31
0.0
  0
LINE
  5
C122
330
C105
100
AcDbEntity
  8
0
100
AcDbLine
 10
-42.0
 20
1.999999999999997
 30
0.0
 11
-41.99999999999999
 21
86.00000000000001
 31
0.0
  0
LINE
  5
C123
330
C105
100
AcDbEntity
  8
0
100
AcDbLine
 10
42.00000000000001
 20
1.999999999999997
 30
0.0
 11
38.00000000000001
 21
1.999999999999992
 31
0.0
  0
LINE
  5
C124
330
C105
100
AcDbEntity
  8
0
100
AcDbLine
 10
42.0
 20
1.999999999999997
 30
0.0
 11
41.99999999999999
 21
86.00000000000001
 31
0.0
  0
LINE
  5
C125
330
C105
100
AcDbEntity
  8
0
100
AcDbLine
 10
37.99999999999999
 20
86.00000000000001
 30
0.0
 11
41.99999999999999
 21
86.00000000000001
 31
0.0
  0
LINE
  5
C126
330
C105
100
AcDbEntity
  8
0
100
AcDbLine
 10
81.50000000000003
 20
0.0
 30
0.0
 11
44.66666666666668
 21
0.0
 31
0.0
  0
LINE
  5
C127
330
C105
100
AcDbEntity
  8
0
100
AcDbLine
 10
81.50000000000003
 20
1.999999999999992
 30
0.0
 11
81.50000000000003
 21
0.0
 31
0.0
  0
LINE
  5
C128
330
C105
100
AcDbEntity
  8
0
100
AcDbLine
 10
44.66666666666668
 20
2.000000000000011
 30
0.0
 11
81.50000000000003
 21
1.999999999999992
 31
0.0
  0
LINE
  5
C129
330
C105
100
AcDbEntity
  8
0
100
AcDbLine
 10
-81.50000000000003
 20
1.999999999999992
 30
0.0
 11
-44.66666666666668
 21
2.000000000000011
 31
0.0
  0
LINE
  5
C12A
330
C105
100
AcDbEntity
  8
0
100
AcDbLine
 10
-81.50000000000003
 20
0.0
 30
0.0
 11
-81.50000000000003
 21
1.999999999999992
 31
0.0
  0
LINE
  5
C12B
330
C105
100
AcDbEntity
  8
0
100
AcDbLine
 10
-44.66666666666668
 20
0.0
 30
0.0
 11
-81.50000000000003
 21
0.0
 31
0.0
  0
ENDBLK
  5
C107
330
C105
100
AcDbEntity
  8
0
100
AcDbBlockEnd
  0
BLOCK
  5
C12D
330
C12C
100
AcDbEntity
  8
0
100
AcDbBlockBegin
  2
SAE500_80_2-ISO
 70
     0
 10
0.0
 20
0.0
 30
0.0
  3
SAE500_80_2-ISO
  1

  0
LINE
  5
C12F
330
C12C
100
AcDbEntity
  8
0
100
AcDbLine
 10
58.67604350760756
 20
-66.55244994001089
 30
0.0
 11
57.26182994523445
 21
-67.36894652093861
 31
0.0
  0
SPLINE
  5
C130
330
C12C
100
AcDbEntity
  8
0
100
AcDbSpline
210
0.0
220
0.0
230
1.0
 70
     8
 71
     3
 72
    17
 73
    13
 74
     0
 42
0.000000001
 43
0.0000000001
 40
0.0
 40
0.0
 40
0.0
 40
0.0
 40
0.369062643218737
 40
0.369062643218737
 40
0.369062643218737
 40
0.6936378219993707
 40
0.6936378219993707
 40
0.6936378219993707
 40
0.921954538644244
 40
0.921954538644244
 40
0.921954538644244
 40
1.0
 40
1.0
 40
1.0
 40
1.0
 10
60.56166159077169
 20
-65.70193266821124
 30
0.0
 10
60.31004535916331
 20
-65.77163379836846
 30
0.0
 10
59.99083551778847
 20
-65.75427937084296
 30
0.0
 10
59.68316449097692
 20
-65.75716434715719
 30
0.0
 10
59.41258067446804
 20
-65.75970156331867
 30
0.0
 10
59.15474790044296
 20
-65.78080496164074
 30
0.0
 10
58.96807897512822
 20
-65.89819103357813
 30
0.0
 10
58.83676999368482
 20
-65.98076420699597
 30
0.0
 10
58.73895398007288
 20
-66.11576917132771
 30
0.0
 10
58.69780028450744
 20
-66.31635257306349
 30
0.0
 10
58.68373272430379
 20
-66.38491796047279
 30
0.0
 10
58.67555981625546
 20
-66.45790733650811
 30
0.0
 10
58.67604350765045
 20
-66.55244994002818
 30
0.0
  0
LINE
  5
C131
330
C12C
100
AcDbEntity
  8
0
100
AcDbLine
 10
60.51599132015683
 20
-65.67556492517778
 30
0.0
 11
60.56166159077168
 21
-65.70193266821123
 31
0.0
  0
LINE
  5
C132
330
C12C
100
AcDbEntity
  8
0
100
AcDbLine
 10
60.09025706998063
 20
-65.42976714123532
 30
0.0
 11
60.51599132015683
 21
-65.67556492517778
 31
0.0
  0
ELLIPSE
  5
C133
330
C12C
100
AcDbEntity
  8
0
100
AcDbEllipse
 10
58.67604350760754
 20
-66.24626372216304
 30
0.0
 11
1.999999999999992
 21
0.0000000000000002
 31
0.0
210
0.0
220
0.0
230
1.0
 40
0.5773502691896257
 41
0.7853981633974457
 42
0.8276340031818829
  0
ELLIPSE
  5
C134
330
C12C
100
AcDbEntity
  8
0
100
AcDbEllipse
 10
58.67604350760754
 20
-66.24626372216304
 30
0.0
 11
1.999999999999991
 21
-0.0000000000001197
 31
0.0
210
0.0
220
0.0
230
1.0
 40
0.5773502691896258
 41
0.8276340031821192
 42
2.356194490192603
  0
LINE
  5
C135
330
C12C
100
AcDbEntity
  8
0
100
AcDbLine
 10
57.26182994523444
 20
-67.36894652093861
 30
0.0
 11
57.26182994523444
 21
-65.4297671412353
 31
0.0
  0
ELLIPSE
  5
C136
330
C12C
100
AcDbEntity
  8
0
100
AcDbEllipse
 10
-17.69148886053956
 20
-96.76282343433673
 30
0.0
 11
-2.5
 21
-0.0000000000001492
 31
0.0
210
0.0
220
0.0
230
1.0
 40
0.5773502691896258
 41
3.742856870268575
 42
5.68192109050012
  0
ELLIPSE
  5
C137
330
C12C
100
AcDbEntity
  8
0
100
AcDbEllipse
 10
-3.549353236808614
 20
-88.59785762505948
 30
0.0
 11
-2.5
 21
-0.0000000000001492
 31
0.0
210
0.0
220
0.0
230
1.0
 40
0.5773502691896258
 41
3.742856870268575
 42
5.68192109050012
  0
LINE
  5
C138
330
C12C
100
AcDbEntity
  8
0
100
AcDbLine
 10
-3.54935323680865
 20
-119.6247277003131
 30
0.0
 11
-57.28946860698624
 21
-88.5978576250595
 31
0.0
  0
LINE
  5
C139
330
C12C
100
AcDbEntity
  8
0
100
AcDbLine
 10
0.6932874503106535
 20
-33.07609012197411
 30
0.0
 11
0.6932874503106579
 21
-50.22251832145636
 31
0.0
  0
LINE
  5
C13A
330
C12C
100
AcDbEntity
  8
0
100
AcDbLine
 10
33.11468566008253
 20
-70.57401446722765
 30
0.0
 11
32.26505293792129
 21
-70.08347878637555
 31
0.0
  0
LINE
  5
C13B
330
C12C
100
AcDbEntity
  8
0
100
AcDbLine
 10
22.51258241263838
 20
-64.45288730333958
 30
0.0
 11
2.107501012683745
 21
-52.67200806423954
 31
0.0
  0
LINE
  5
C13C
330
C12C
100
AcDbEntity
  8
0
100
AcDbLine
 10
-57.28946860698624
 20
-86.96486446320404
 30
0.0
 11
-3.549353236808645
 21
-117.9917345384576
 31
0.0
  0
ELLIPSE
  5
C13D
330
C12C
100
AcDbEntity
  8
0
100
AcDbEllipse
 10
-3.549353236808614
 20
-86.96486446320404
 30
0.0
 11
-2.499999999999999
 21
0.0000000000001492
 31
0.0
210
0.0
220
0.0
230
1.0
 40
0.5773502691896259
 41
0.0
 42
6.283185307179586
  0
ELLIPSE
  5
C13E
330
C12C
100
AcDbEntity
  8
0
100
AcDbEllipse
 10
-17.69148886053956
 20
-95.12983027248129
 30
0.0
 11
-2.499999999999999
 21
0.0000000000001492
 31
0.0
210
0.0
220
0.0
230
1.0
 40
0.5773502691896259
 41
0.0
 42
6.283185307179586
  0
LINE
  5
C13F
330
C12C
100
AcDbEntity
  8
0
100
AcDbLine
 10
0.6932874503106535
 20
-33.07609012197411
 30
0.0
 11
-0.7209261120624478
 21
-33.89258670290184
 31
0.0
  0
SPLINE
  5
C140
330
C12C
100
AcDbEntity
  8
0
100
AcDbSpline
210
0.0
220
0.0
230
1.0
 70
     8
 71
     3
 72
    11
 73
     7
 74
     0
 42
0.000000001
 43
0.0000000001
 40
-1.0
 40
-1.0
 40
-1.0
 40
-1.0
 40
-0.7906685193979081
 40
-0.7906685193979081
 40
-0.7906685193979081
 40
-0.6677373407639732
 40
-0.6677373407639732
 40
-0.6677373407639732
 40
-0.6677373407639732
 10
0.6932874503106401
 20
-33.07609012197411
 30
0.0
 10
0.6952387187195042
 20
-32.67517397182494
 30
0.0
 10
0.6597392483521203
 20
-32.28925879741671
 30
0.0
 10
0.5941307929624662
 20
-31.94095014001556
 30
0.0
 10
0.5556018305426447
 20
-31.73640377336507
 30
0.0
 10
0.507102465790994
 20
-31.54054630224298
 30
0.0
 10
0.4493201651854495
 20
-31.35094386271302
 30
0.0
  0
ELLIPSE
  5
C141
330
C12C
100
AcDbEntity
  8
0
100
AcDbEllipse
 10
-3.549353236808636
 20
-30.32041416134309
 30
0.0
 11
3.999999999999994
 21
-0.0000000000000001
 31
0.0
210
0.0
220
0.0
230
1.0
 40
0.5773502691896259
 41
6.081788027114992
 42
6.283185307179586
  0
ELLIPSE
  5
C142
330
C12C
100
AcDbEntity
  8
0
100
AcDbEllipse
 10
-3.549353236808636
 20
-30.32041416134309
 30
0.0
 11
3.999999999999993
 21
-0.0000000000000001
 31
0.0
210
0.0
220
0.0
230
1.0
 40
0.5773502691896257
 41
5.497787143782129
 42
6.08178802711499
  0
LINE
  5
C143
330
C12C
100
AcDbEntity
  8
0
100
AcDbLine
 10
-0.7209261120624433
 20
-31.95340732319854
 30
0.0
 11
-0.7209261120624433
 21
-33.89258670290184
 31
0.0
  0
SPLINE
  5
C144
330
C12C
100
AcDbEntity
  8
0
100
AcDbSpline
210
0.0
220
0.0
230
1.0
 70
     8
 71
     3
 72
    16
 73
    12
 74
     0
 42
0.000000001
 43
0.0000000001
 40
0.0
 40
0.0
 40
0.0
 40
0.0
 40
0.0282631046504565
 40
0.0282631046504565
 40
0.0461467105310931
 40
0.0461467105310931
 40
0.0689250371744237
 40
0.0689250371744237
 40
0.0923099032163421
 40
0.0923099032163421
 40
0.1011500782798989
 40
0.1011500782798989
 40
0.1011500782798989
 40
0.1011500782798989
 10
0.4383453967955609
 20
-30.5014021389141
 30
0.0
 10
0.4256441363343822
 20
-30.5946870302928
 30
0.0
 10
0.4137682980017044
 20
-30.68965469744276
 30
0.0
 10
0.4013115162727621
 20
-30.83956653368581
 30
0.0
 10
0.398204386997536
 20
-30.89695667278244
 30
0.0
 10
0.3965454139935254
 20
-31.01871813635238
 30
0.0
 10
0.3995059962361758
 20
-31.08151353181562
 30
0.0
 10
0.4119736767531146
 20
-31.19384412279897
 30
0.0
 10
0.4214525781002499
 20
-31.24439564271039
 30
0.0
 10
0.4390132987624496
 20
-31.31350938938991
 30
0.0
 10
0.4443406089321123
 20
-31.33251877776975
 30
0.0
 10
0.4502714675063002
 20
-31.35196238485239
 30
0.0
  0
ELLIPSE
  5
C145
330
C12C
100
AcDbEntity
  8
0
100
AcDbEllipse
 10
2.10750101268375
 20
-51.03901490238408
 30
0.0
 11
1.000000000000105
 21
-1.732050807568816
 31
0.0
210
0.0
220
0.0
230
1.0
 40
0.5773502691896266
 41
3.926990816987
 42
5.497787143781893
  0
LINE
  5
C146
330
C12C
100
AcDbEntity
  8
0
100
AcDbLine
 10
2.107501012683745
 20
-52.67200806423954
 30
0.0
 11
-57.28946860698626
 21
-86.96486446320404
 31
0.0
  0
ELLIPSE
  5
C147
330
C12C
100
AcDbEntity
  8
0
100
AcDbEllipse
 10
-57.28946860698624
 20
-85.3318713013486
 30
0.0
 11
2.000000000000208
 21
-3.464101615137637
 31
0.0
210
0.0
220
0.0
230
1.0
 40
0.577350269189626
 41
3.926990816987002
 42
5.497787143781893
  0
LINE
  5
C148
330
C12C
100
AcDbEntity
  8
0
100
AcDbLine
 10
-58.70368216935933
 20
-84.51537472042089
 30
0.0
 11
0.6932874503106579
 21
-50.22251832145636
 31
0.0
  0
LINE
  5
C149
330
C12C
100
AcDbEntity
  8
0
100
AcDbLine
 10
-60.11789573173243
 20
-83.69887813949313
 30
0.0
 11
-58.70368216935933
 21
-84.51537472042089
 31
0.0
  0
LINE
  5
C14A
330
C12C
100
AcDbEntity
  8
0
100
AcDbLine
 10
-57.28946860698624
 20
-88.5978576250595
 30
0.0
 11
-57.28946860698624
 21
-86.96486446320404
 31
0.0
  0
ELLIPSE
  5
C14B
330
C12C
100
AcDbEntity
  8
0
100
AcDbEllipse
 10
-57.28946860698624
 20
-85.3318713013486
 30
0.0
 11
1.000000000000104
 21
-1.732050807568818
 31
0.0
210
0.0
220
0.0
230
1.0
 40
0.577350269189626
 41
3.926990816986998
 42
5.497787143781896
  0
LINE
  5
C14C
330
C12C
100
AcDbEntity
  8
0
100
AcDbLine
 10
58.67604350760756
 20
-83.69887813949311
 30
0.0
 11
58.67604350760756
 21
-66.55244994001089
 31
0.0
  0
ELLIPSE
  5
C14D
330
C12C
100
AcDbEntity
  8
0
100
AcDbEllipse
 10
55.84761638286138
 20
-82.06588497763767
 30
0.0
 11
1.999999999999999
 21
-3.464101615137753
 31
0.0
210
0.0
220
0.0
230
1.0
 40
0.5773502691896254
 41
0.0
 42
0.7853981633974412
  0
LINE
  5
C14E
330
C12C
100
AcDbEntity
  8
0
100
AcDbLine
 10
-3.54935323680865
 20
-117.9917345384576
 30
0.0
 11
-2.135139674435548
 21
-117.1752379575299
 31
0.0
  0
LINE
  5
C14F
330
C12C
100
AcDbEntity
  8
0
100
AcDbLine
 10
58.67604350760756
 20
-83.69887813949311
 30
0.0
 11
-0.7209261120624611
 21
-117.9917345384576
 31
0.0
  0
ELLIPSE
  5
C150
330
C12C
100
AcDbEntity
  8
0
100
AcDbEllipse
 10
-3.549353236808645
 20
-116.3587413766022
 30
0.0
 11
2.000000000000002
 21
-3.464101615137757
 31
0.0
210
0.0
220
0.0
230
1.0
 40
0.5773502691896259
 41
5.497787143782137
 42
7.068583470577033
  0
LINE
  5
C151
330
C12C
100
AcDbEntity
  8
0
100
AcDbLine
 10
86.60676136447619
 20
-58.18335998550171
 30
0.0
 11
88.02097492684929
 21
-57.36686340457399
 31
0.0
  0
LINE
  5
C152
330
C12C
100
AcDbEntity
  8
0
100
AcDbLine
 10
60.56166159077168
 20
-65.70193266821123
 30
0.0
 11
86.60676136447619
 21
-58.18335998550171
 31
0.0
  0
ELLIPSE
  5
C153
330
C12C
100
AcDbEntity
  8
0
100
AcDbEllipse
 10
74.23239269371158
 20
62.4540098465698
 30
0.0
 11
-3.25
 21
5.629165124598853
 31
0.0
210
0.0
220
0.0
230
1.0
 40
0.5773502691896255
 41
0.2193254863005963
 42
2.922267167289198
  0
ELLIPSE
  5
C154
330
C12C
100
AcDbEntity
  8
0
100
AcDbEllipse
 10
82.01056728676361
 20
62.04576155610592
 30
0.0
 11
1.250000000000128
 21
-2.165063509461022
 31
0.0
210
0.0
220
0.0
230
1.0
 40
0.5773502691896255
 41
3.742856870268601
 42
5.681921090500122
  0
LINE
  5
C155
330
C12C
100
AcDbEntity
  8
0
100
AcDbLine
 10
61.50447063235374
 20
86.13241069347386
 30
0.0
 11
88.02097492684925
 21
70.823099801079
 31
0.0
  0
LINE
  5
C156
330
C12C
100
AcDbEntity
  8
0
100
AcDbLine
 10
88.02097492684929
 20
-57.36686340457399
 30
0.0
 11
88.02097492684925
 21
70.823099801079
 31
0.0
  0
ELLIPSE
  5
C157
330
C12C
100
AcDbEntity
  8
0
100
AcDbEllipse
 10
58.67604350760754
 20
84.49941753161841
 30
0.0
 11
4.000000000000002
 21
-0.000000000000238
 31
0.0
210
0.0
220
0.0
230
1.0
 40
0.577350269189626
 41
0.7853981633976935
 42
2.356194490192587
  0
ELLIPSE
  5
C158
330
C12C
100
AcDbEntity
  8
0
100
AcDbEllipse
 10
31.45243243192545
 20
59.80039595855467
 30
0.0
 11
1.24999999999987
 21
2.16506350946117
 31
0.0
210
0.0
220
0.0
230
1.0
 40
0.577350269189626
 41
3.742856870268578
 42
5.681921090500101
  0
ELLIPSE
  5
C159
330
C12C
100
AcDbEntity
  8
0
100
AcDbEllipse
 10
32.86664599429855
 20
58.98389937762695
 30
0.0
 11
-1.25
 21
-2.165063509461095
 31
0.0
210
0.0
220
0.0
230
1.0
 40
0.577350269189626
 41
0.0
 42
6.283185307179586
  0
LINE
  5
C15A
330
C12C
100
AcDbEntity
  8
0
100
AcDbLine
 10
-2.135139674435588
 20
-100.0288097580476
 30
0.0
 11
26.14913157302633
 21
-59.20398071166139
 31
0.0
  0
LINE
  5
C15B
330
C12C
100
AcDbEntity
  8
0
100
AcDbLine
 10
-0.7209261120624877
 20
-100.8453063389753
 30
0.0
 11
-2.135139674435588
 21
-100.0288097580476
 31
0.0
  0
LINE
  5
C15C
330
C12C
100
AcDbEntity
  8
0
100
AcDbLine
 10
27.56334513539942
 20
-60.02047729258912
 30
0.0
 11
-0.7209261120624877
 21
-100.8453063389753
 31
0.0
  0
LINE
  5
C15D
330
C12C
100
AcDbEntity
  8
0
100
AcDbLine
 10
27.56334513539942
 20
-60.02047729258912
 30
0.0
 11
26.14913157302633
 21
-59.20398071166139
 31
0.0
  0
LINE
  5
C15E
330
C12C
100
AcDbEntity
  8
0
100
AcDbLine
 10
26.14913157302633
 20
-59.20398071166139
 30
0.0
 11
26.14913157302634
 21
68.98598249399163
 31
0.0
  0
LINE
  5
C15F
330
C12C
100
AcDbEntity
  8
0
100
AcDbLine
 10
27.56334513539944
 20
68.16948591306388
 30
0.0
 11
27.56334513539942
 21
-60.02047729258912
 31
0.0
  0
LINE
  5
C160
330
C12C
100
AcDbEntity
  8
0
100
AcDbLine
 10
26.14913157302634
 20
68.98598249399163
 30
0.0
 11
27.56334513539944
 21
68.16948591306388
 31
0.0
  0
LINE
  5
C161
330
C12C
100
AcDbEntity
  8
0
100
AcDbLine
 10
-0.7209261120624877
 20
-100.8453063389753
 30
0.0
 11
-0.7209261120624566
 21
-117.9917345384576
 31
0.0
  0
LINE
  5
C162
330
C12C
100
AcDbEntity
  8
0
100
AcDbLine
 10
57.26182994523444
 20
-65.4297671412353
 30
0.0
 11
57.26182994523444
 21
85.31591411254613
 31
0.0
  0
LINE
  5
C163
330
C12C
100
AcDbEntity
  8
0
100
AcDbLine
 10
57.26182994523444
 20
85.31591411254613
 30
0.0
 11
27.56334513539944
 21
68.16948591306388
 31
0.0
  0
LINE
  5
C164
330
C12C
100
AcDbEntity
  8
0
100
AcDbLine
 10
26.14913157302634
 20
68.98598249399163
 30
0.0
 11
55.84761638286135
 21
86.13241069347386
 31
0.0
  0
LINE
  5
C165
330
C12C
100
AcDbEntity
  8
0
100
AcDbLine
 10
-2.135139674435557
 20
-117.1752379575299
 30
0.0
 11
-2.135139674435588
 21
-100.0288097580476
 31
0.0
  0
LINE
  5
C166
330
C12C
100
AcDbEntity
  8
0
100
AcDbLine
 10
-3.54935323680865
 20
-117.9917345384576
 30
0.0
 11
-3.54935323680865
 21
-119.6247277003131
 31
0.0
  0
LINE
  5
C167
330
C12C
100
AcDbEntity
  8
0
100
AcDbLine
 10
-2.135139674435557
 20
-117.1752379575299
 30
0.0
 11
-0.7209261120624566
 21
-117.9917345384576
 31
0.0
  0
ELLIPSE
  5
C168
330
C12C
100
AcDbEntity
  8
0
100
AcDbEllipse
 10
-3.549353236808645
 20
-116.3587413766022
 30
0.0
 11
1.000000000000001
 21
-1.732050807568878
 31
0.0
210
0.0
220
0.0
230
1.0
 40
0.5773502691896259
 41
5.497787143782142
 42
7.068583470577038
  0
LINE
  5
C169
330
C12C
100
AcDbEntity
  8
0
100
AcDbLine
 10
60.09025706998063
 20
-65.4297671412353
 30
0.0
 11
60.09025706998065
 21
85.31591411254613
 31
0.0
  0
ELLIPSE
  5
C16A
330
C12C
100
AcDbEntity
  8
0
100
AcDbEllipse
 10
58.67604350760754
 20
84.49941753161841
 30
0.0
 11
-2.000000000000001
 21
-0.0000000000001194
 31
0.0
210
0.0
220
0.0
230
1.0
 40
0.577350269189626
 41
3.926990816986995
 42
5.497787143781887
  0
LINE
  5
C16B
330
C12C
100
AcDbEntity
  8
0
100
AcDbLine
 10
88.02097492684925
 20
70.823099801079
 30
0.0
 11
86.60676136447618
 21
70.00660322015128
 31
0.0
  0
LINE
  5
C16C
330
C12C
100
AcDbEntity
  8
0
100
AcDbLine
 10
86.60676136447619
 20
-58.18335998550171
 30
0.0
 11
86.60676136447618
 21
70.00660322015128
 31
0.0
  0
LINE
  5
C16D
330
C12C
100
AcDbEntity
  8
0
100
AcDbLine
 10
57.26182994523444
 20
85.31591411254613
 30
0.0
 11
55.84761638286135
 21
86.13241069347386
 31
0.0
  0
LINE
  5
C16E
330
C12C
100
AcDbEntity
  8
0
100
AcDbLine
 10
60.09025706998065
 20
85.31591411254613
 30
0.0
 11
61.50447063235374
 21
86.13241069347386
 31
0.0
  0
LINE
  5
C16F
330
C12C
100
AcDbEntity
  8
0
100
AcDbLine
 10
86.60676136447618
 20
70.00660322015128
 30
0.0
 11
60.09025706998065
 21
85.31591411254613
 31
0.0
  0
ELLIPSE
  5
C170
330
C12C
100
AcDbEntity
  8
0
100
AcDbEllipse
 10
72.81817913133849
 20
61.63751326564208
 30
0.0
 11
-3.249999999999997
 21
5.629165124598853
 31
0.0
210
0.0
220
0.0
230
1.0
 40
0.5773502691896257
 41
0.0
 42
6.283185307179586
  0
ELLIPSE
  5
C171
330
C12C
100
AcDbEntity
  8
0
100
AcDbEllipse
 10
80.5963537243905
 20
61.2292649751782
 30
0.0
 11
-1.249999999999999
 21
2.165063509461097
 31
0.0
210
0.0
220
0.0
230
0.9999999999999998
 40
0.5773502691896257
 41
0.0
 42
6.283185307179586
  0
LINE
  5
C172
330
C12C
100
AcDbEntity
  8
0
100
AcDbLine
 10
-1.549353236808643
 20
-119.8228429917399
 30
0.0
 11
57.84761638286138
 21
-85.52998659277543
 31
0.0
  0
ELLIPSE
  5
C173
330
C12C
100
AcDbEntity
  8
0
100
AcDbEllipse
 10
74.23239269371157
 20
-43.69054567403455
 30
0.0
 11
-3.25
 21
5.629165124598853
 31
0.0
210
0.0
220
0.0
230
1.0
 40
0.5773502691896255
 41
0.2193254863005963
 42
2.922267167289201
  0
ELLIPSE
  5
C174
330
C12C
100
AcDbEntity
  8
0
100
AcDbEllipse
 10
72.81817913133848
 20
-44.50704225496228
 30
0.0
 11
-3.249999999999997
 21
5.629165124598853
 31
0.0
210
0.0
220
0.0
230
1.0
 40
0.5773502691896257
 41
0.0
 42
6.283185307179586
  0
ELLIPSE
  5
C175
330
C12C
100
AcDbEntity
  8
0
100
AcDbEllipse
 10
74.23239269371158
 20
13.46421499090626
 30
0.0
 11
-3.249999999999999
 21
5.629165124598853
 31
0.0
210
0.0
220
0.0
230
1.0
 40
0.5773502691896255
 41
0.2193254863005923
 42
2.9222671672892
  0
ELLIPSE
  5
C176
330
C12C
100
AcDbEntity
  8
0
100
AcDbEllipse
 10
72.81817913133849
 20
12.64771840997854
 30
0.0
 11
-3.249999999999997
 21
5.629165124598853
 31
0.0
210
0.0
220
0.0
230
1.0
 40
0.5773502691896257
 41
0.0
 42
6.283185307179586
  0
ELLIPSE
  5
C177
330
C12C
100
AcDbEntity
  8
0
100
AcDbEllipse
 10
66.45421810065956
 20
-51.44726319284796
 30
0.0
 11
1.250000000000128
 21
-2.165063509461022
 31
0.0
210
0.0
220
0.0
230
1.0
 40
0.5773502691896255
 41
3.742856870268578
 42
5.681921090500122
  0
ELLIPSE
  5
C178
330
C12C
100
AcDbEntity
  8
0
100
AcDbEllipse
 10
66.45421810065956
 20
-35.11733157429343
 30
0.0
 11
1.250000000000128
 21
-2.165063509461022
 31
0.0
210
0.0
220
0.0
230
1.0
 40
0.5773502691896255
 41
3.742856870268578
 42
5.681921090500122
  0
ELLIPSE
  5
C179
330
C12C
100
AcDbEntity
  8
0
100
AcDbEllipse
 10
66.45421810065956
 20
-18.78739995573891
 30
0.0
 11
1.250000000000128
 21
-2.165063509461022
 31
0.0
210
0.0
220
0.0
230
1.0
 40
0.5773502691896255
 41
3.742856870268578
 42
5.681921090500122
  0
ELLIPSE
  5
C17A
330
C12C
100
AcDbEntity
  8
0
100
AcDbEllipse
 10
66.45421810065956
 20
-2.457468337184405
 30
0.0
 11
1.250000000000128
 21
-2.165063509461022
 31
0.0
210
0.0
220
0.0
230
1.0
 40
0.5773502691896255
 41
3.742856870268578
 42
5.681921090500121
  0
ELLIPSE
  5
C17B
330
C12C
100
AcDbEntity
  8
0
100
AcDbEllipse
 10
66.45421810065956
 20
13.87246328137012
 30
0.0
 11
1.250000000000128
 21
-2.165063509461022
 31
0.0
210
0.0
220
0.0
230
1.0
 40
0.5773502691896255
 41
3.742856870268578
 42
5.681921090500121
  0
ELLIPSE
  5
C17C
330
C12C
100
AcDbEntity
  8
0
100
AcDbEllipse
 10
66.45421810065956
 20
30.20239489992463
 30
0.0
 11
1.250000000000128
 21
-2.165063509461022
 31
0.0
210
0.0
220
0.0
230
1.0
 40
0.5773502691896255
 41
3.742856870268578
 42
5.681921090500121
  0
ELLIPSE
  5
C17D
330
C12C
100
AcDbEntity
  8
0
100
AcDbEllipse
 10
66.45421810065956
 20
46.53232651847915
 30
0.0
 11
1.250000000000128
 21
-2.165063509461022
 31
0.0
210
0.0
220
0.0
230
1.0
 40
0.5773502691896255
 41
3.742856870268585
 42
5.681921090500116
  0
ELLIPSE
  5
C17E
330
C12C
100
AcDbEntity
  8
0
100
AcDbEllipse
 10
66.45421810065956
 20
62.86225813703367
 30
0.0
 11
1.250000000000128
 21
-2.165063509461022
 31
0.0
210
0.0
220
0.0
230
1.0
 40
0.5773502691896255
 41
3.742856870268585
 42
5.681921090500116
  0
ELLIPSE
  5
C17F
330
C12C
100
AcDbEntity
  8
0
100
AcDbEllipse
 10
65.04000453828648
 20
-52.26375977377568
 30
0.0
 11
-1.249999999999999
 21
2.165063509461097
 31
0.0
210
0.0
220
0.0
230
0.9999999999999998
 40
0.5773502691896257
 41
0.0
 42
6.283185307179586
  0
ELLIPSE
  5
C180
330
C12C
100
AcDbEntity
  8
0
100
AcDbEllipse
 10
65.04000453828648
 20
-35.93382815522116
 30
0.0
 11
-1.249999999999999
 21
2.165063509461097
 31
0.0
210
0.0
220
0.0
230
0.9999999999999998
 40
0.5773502691896257
 41
0.0
 42
6.283185307179586
  0
ELLIPSE
  5
C181
330
C12C
100
AcDbEntity
  8
0
100
AcDbEllipse
 10
65.04000453828648
 20
-19.60389653666664
 30
0.0
 11
-1.249999999999999
 21
2.165063509461097
 31
0.0
210
0.0
220
0.0
230
0.9999999999999998
 40
0.5773502691896257
 41
0.0
 42
6.283185307179586
  0
ELLIPSE
  5
C182
330
C12C
100
AcDbEntity
  8
0
100
AcDbEllipse
 10
65.04000453828648
 20
-3.273964918112124
 30
0.0
 11
-1.249999999999999
 21
2.165063509461097
 31
0.0
210
0.0
220
0.0
230
0.9999999999999998
 40
0.5773502691896257
 41
0.0
 42
6.283185307179586
  0
ELLIPSE
  5
C183
330
C12C
100
AcDbEntity
  8
0
100
AcDbEllipse
 10
65.04000453828648
 20
13.0559667004424
 30
0.0
 11
-1.249999999999999
 21
2.165063509461097
 31
0.0
210
0.0
220
0.0
230
0.9999999999999998
 40
0.5773502691896257
 41
0.0
 42
6.283185307179586
  0
ELLIPSE
  5
C184
330
C12C
100
AcDbEntity
  8
0
100
AcDbEllipse
 10
65.04000453828648
 20
29.38589831899691
 30
0.0
 11
-1.249999999999999
 21
2.165063509461097
 31
0.0
210
0.0
220
0.0
230
0.9999999999999998
 40
0.5773502691896257
 41
0.0
 42
6.283185307179586
  0
ELLIPSE
  5
C185
330
C12C
100
AcDbEntity
  8
0
100
AcDbEllipse
 10
65.04000453828648
 20
45.71582993755143
 30
0.0
 11
-1.249999999999999
 21
2.165063509461097
 31
0.0
210
0.0
220
0.0
230
0.9999999999999998
 40
0.5773502691896257
 41
0.0
 42
6.283185307179586
  0
ELLIPSE
  5
C186
330
C12C
100
AcDbEntity
  8
0
100
AcDbEllipse
 10
65.04000453828648
 20
62.04576155610595
 30
0.0
 11
-1.249999999999999
 21
2.165063509461097
 31
0.0
210
0.0
220
0.0
230
0.9999999999999998
 40
0.5773502691896257
 41
0.0
 42
6.283185307179586
  0
ELLIPSE
  5
C187
330
C12C
100
AcDbEntity
  8
0
100
AcDbEllipse
 10
66.45421810065956
 20
79.19218975558819
 30
0.0
 11
1.250000000000128
 21
-2.165063509461022
 31
0.0
210
0.0
220
0.0
230
1.0
 40
0.5773502691896255
 41
3.742856870268589
 42
5.681921090500122
  0
ELLIPSE
  5
C188
330
C12C
100
AcDbEntity
  8
0
100
AcDbEllipse
 10
-7.084887142741358
 20
120.0170188019745
 30
0.0
 11
1.25
 21
-2.165063509461096
 31
0.0
210
0.0
220
0.0
230
0.9999999999999998
 40
0.577350269189626
 41
0.0
 42
6.283185307179586
  0
ELLIPSE
  5
C189
330
C12C
100
AcDbEntity
  8
0
100
AcDbEllipse
 10
-5.67067358036827
 20
120.8335153829022
 30
0.0
 11
1.250000000000129
 21
-2.165063509461021
 31
0.0
210
0.0
220
0.0
230
1.0
 40
0.577350269189626
 41
3.742856870268576
 42
5.681921090500121
  0
ELLIPSE
  5
C18A
330
C12C
100
AcDbEntity
  8
0
100
AcDbEllipse
 10
65.04000453828648
 20
78.37569317466047
 30
0.0
 11
-1.249999999999999
 21
2.165063509461097
 31
0.0
210
0.0
220
0.0
230
0.9999999999999998
 40
0.5773502691896257
 41
0.0
 42
6.283185307179586
  0
ELLIPSE
  5
C18B
330
C12C
100
AcDbEntity
  8
0
100
AcDbEllipse
 10
82.01056728676361
 20
-52.2637597737757
 30
0.0
 11
1.250000000000128
 21
-2.165063509461022
 31
0.0
210
0.0
220
0.0
230
1.0
 40
0.5773502691896255
 41
3.742856870268573
 42
5.68192109050011
  0
ELLIPSE
  5
C18C
330
C12C
100
AcDbEntity
  8
0
100
AcDbEllipse
 10
82.01056728676361
 20
-35.93382815522118
 30
0.0
 11
1.250000000000128
 21
-2.165063509461022
 31
0.0
210
0.0
220
0.0
230
1.0
 40
0.5773502691896255
 41
3.742856870268578
 42
5.681921090500111
  0
ELLIPSE
  5
C18D
330
C12C
100
AcDbEntity
  8
0
100
AcDbEllipse
 10
82.01056728676361
 20
-19.60389653666666
 30
0.0
 11
1.250000000000128
 21
-2.165063509461022
 31
0.0
210
0.0
220
0.0
230
1.0
 40
0.5773502691896255
 41
3.742856870268575
 42
5.681921090500111
  0
ELLIPSE
  5
C18E
330
C12C
100
AcDbEntity
  8
0
100
AcDbEllipse
 10
82.01056728676361
 20
-3.273964918112142
 30
0.0
 11
1.250000000000128
 21
-2.165063509461022
 31
0.0
210
0.0
220
0.0
230
1.0
 40
0.5773502691896255
 41
3.742856870268575
 42
5.681921090500111
  0
ELLIPSE
  5
C18F
330
C12C
100
AcDbEntity
  8
0
100
AcDbEllipse
 10
82.01056728676361
 20
13.05596670044236
 30
0.0
 11
1.250000000000128
 21
-2.165063509461022
 31
0.0
210
0.0
220
0.0
230
1.0
 40
0.5773502691896255
 41
3.742856870268575
 42
5.68192109050011
  0
ELLIPSE
  5
C190
330
C12C
100
AcDbEntity
  8
0
100
AcDbEllipse
 10
82.01056728676361
 20
29.38589831899689
 30
0.0
 11
1.250000000000128
 21
-2.165063509461022
 31
0.0
210
0.0
220
0.0
230
1.0
 40
0.5773502691896255
 41
3.742856870268575
 42
5.681921090500111
  0
ELLIPSE
  5
C191
330
C12C
100
AcDbEntity
  8
0
100
AcDbEllipse
 10
82.01056728676361
 20
45.71582993755142
 30
0.0
 11
1.250000000000128
 21
-2.165063509461022
 31
0.0
210
0.0
220
0.0
230
1.0
 40
0.5773502691896255
 41
3.742856870268601
 42
5.681921090500122
  0
ELLIPSE
  5
C192
330
C12C
100
AcDbEntity
  8
0
100
AcDbEllipse
 10
80.5963537243905
 20
-53.08025635470342
 30
0.0
 11
-1.249999999999999
 21
2.165063509461097
 31
0.0
210
0.0
220
0.0
230
0.9999999999999998
 40
0.5773502691896257
 41
0.0
 42
6.283185307179586
  0
ELLIPSE
  5
C193
330
C12C
100
AcDbEntity
  8
0
100
AcDbEllipse
 10
80.5963537243905
 20
-36.75032473614891
 30
0.0
 11
-1.249999999999999
 21
2.165063509461097
 31
0.0
210
0.0
220
0.0
230
0.9999999999999998
 40
0.5773502691896257
 41
0.0
 42
6.283185307179586
  0
ELLIPSE
  5
C194
330
C12C
100
AcDbEntity
  8
0
100
AcDbEllipse
 10
80.5963537243905
 20
-20.42039311759439
 30
0.0
 11
-1.249999999999999
 21
2.165063509461097
 31
0.0
210
0.0
220
0.0
230
0.9999999999999998
 40
0.5773502691896257
 41
0.0
 42
6.283185307179586
  0
ELLIPSE
  5
C195
330
C12C
100
AcDbEntity
  8
0
100
AcDbEllipse
 10
80.5963537243905
 20
-4.090461499039861
 30
0.0
 11
-1.249999999999999
 21
2.165063509461097
 31
0.0
210
0.0
220
0.0
230
0.9999999999999998
 40
0.5773502691896257
 41
0.0
 42
6.283185307179586
  0
ELLIPSE
  5
C196
330
C12C
100
AcDbEntity
  8
0
100
AcDbEllipse
 10
80.5963537243905
 20
12.23947011951464
 30
0.0
 11
-1.249999999999999
 21
2.165063509461097
 31
0.0
210
0.0
220
0.0
230
0.9999999999999998
 40
0.5773502691896257
 41
0.0
 42
6.283185307179586
  0
ELLIPSE
  5
C197
330
C12C
100
AcDbEntity
  8
0
100
AcDbEllipse
 10
80.5963537243905
 20
28.56940173806917
 30
0.0
 11
-1.249999999999999
 21
2.165063509461097
 31
0.0
210
0.0
220
0.0
230
0.9999999999999998
 40
0.5773502691896257
 41
0.0
 42
6.283185307179586
  0
ELLIPSE
  5
C198
330
C12C
100
AcDbEntity
  8
0
100
AcDbEllipse
 10
80.5963537243905
 20
44.8993333566237
 30
0.0
 11
-1.249999999999999
 21
2.165063509461097
 31
0.0
210
0.0
220
0.0
230
0.9999999999999998
 40
0.5773502691896257
 41
0.0
 42
6.283185307179586
  0
LINE
  5
C199
330
C12C
100
AcDbEntity
  8
0
100
AcDbLine
 10
-25.75494868381225
 20
4.180091853548768
 30
0.0
 11
-25.06020777623019
 21
3.177319728524894
 31
0.0
  0
LINE
  5
C19A
330
C12C
100
AcDbEntity
  8
0
100
AcDbLine
 10
-30.41941092189745
 20
-26.54411747455236
 30
0.0
 11
-58.70368216935934
 21
-67.36894652093863
 31
0.0
  0
LINE
  5
C19B
330
C12C
100
AcDbEntity
  8
0
100
AcDbLine
 10
-31.83362448427055
 20
-25.72762089362463
 30
0.0
 11
-30.41941092189745
 21
-26.54411747455236
 31
0.0
  0
LINE
  5
C19C
330
C12C
100
AcDbEntity
  8
0
100
AcDbLine
 10
-60.11789573173246
 20
-66.55244994001091
 30
0.0
 11
-31.83362448427055
 21
-25.72762089362463
 31
0.0
  0
LINE
  5
C19D
330
C12C
100
AcDbEntity
  8
0
100
AcDbLine
 10
-58.70368216935934
 20
-67.36894652093863
 30
0.0
 11
-60.11789573173246
 21
-66.55244994001091
 31
0.0
  0
LINE
  5
C19E
330
C12C
100
AcDbEntity
  8
0
100
AcDbLine
 10
-30.41941092189743
 20
101.6458457311006
 30
0.0
 11
-30.41941092189745
 21
-26.54411747455237
 31
0.0
  0
LINE
  5
C19F
330
C12C
100
AcDbEntity
  8
0
100
AcDbLine
 10
-31.83362448427054
 20
102.4623423120283
 30
0.0
 11
-30.41941092189743
 21
101.6458457311006
 31
0.0
  0
LINE
  5
C1A0
330
C12C
100
AcDbEntity
  8
0
100
AcDbLine
 10
-31.83362448427055
 20
-25.72762089362463
 30
0.0
 11
-31.83362448427054
 21
102.4623423120283
 31
0.0
  0
ELLIPSE
  5
C1A1
330
C12C
100
AcDbEntity
  8
0
100
AcDbEllipse
 10
-14.86306173579338
 20
112.2603012831611
 30
0.0
 11
-3.250000000000004
 21
5.629165124598848
 31
0.0
210
0.0
220
0.0
230
0.9999999999999998
 40
0.577350269189626
 41
4.71238898038469
 42
7.853981633974483
  0
ELLIPSE
  5
C1A2
330
C12C
100
AcDbEntity
  8
0
100
AcDbEllipse
 10
-13.44884817342029
 20
113.0767978640888
 30
0.0
 11
-3.250000000000002
 21
5.629165124598852
 31
0.0
210
0.0
220
0.0
230
1.0
 40
0.5773502691896261
 41
0.21932548630059
 42
1.570796326794897
  0
ELLIPSE
  5
C1A3
330
C12C
100
AcDbEntity
  8
0
100
AcDbEllipse
 10
-22.64123632884544
 20
120.8335153829022
 30
0.0
 11
1.25
 21
-2.165063509461096
 31
0.0
210
0.0
220
0.0
230
0.9999999999999998
 40
0.577350269189626
 41
0.0
 42
6.283185307179586
  0
ELLIPSE
  5
C1A4
330
C12C
100
AcDbEntity
  8
0
100
AcDbEllipse
 10
-21.22702276647235
 20
121.6500119638299
 30
0.0
 11
1.250000000000129
 21
-2.165063509461021
 31
0.0
210
0.0
220
0.0
230
1.0
 40
0.577350269189626
 41
3.742856870268576
 42
5.681921090500118
  0
LINE
  5
C1A5
330
C12C
100
AcDbEntity
  8
0
100
AcDbLine
 10
-2.135139674435544
 20
119.6087705115106
 30
0.0
 11
-2.135139674435539
 21
121.241763673366
 31
0.0
  0
ELLIPSE
  5
C1A6
330
C12C
100
AcDbEntity
  8
0
100
AcDbEllipse
 10
-3.549353236808636
 20
120.4252670924383
 30
0.0
 11
2.000000000000001
 21
0.0
 31
0.0
210
0.0
220
0.0
230
1.0
 40
0.5773502691896257
 41
5.497787143782129
 42
7.068583470577027
  0
LINE
  5
C1A7
330
C12C
100
AcDbEntity
  8
0
100
AcDbLine
 10
-0.7209261120624433
 20
118.7922739305829
 30
0.0
 11
-0.7209261120624433
 21
-31.95340732319854
 31
0.0
  0
ELLIPSE
  5
C1A8
330
C12C
100
AcDbEntity
  8
0
100
AcDbEllipse
 10
-3.549353236808636
 20
120.4252670924383
 30
0.0
 11
4.000000000000002
 21
-0.0000000000000001
 31
0.0
210
0.0
220
0.0
230
1.0
 40
0.577350269189626
 41
5.497787143782137
 42
7.068583470577034
  0
LINE
  5
C1A9
330
C12C
100
AcDbEntity
  8
0
100
AcDbLine
 10
-2.135139674435539
 20
121.241763673366
 30
0.0
 11
-0.7209261120624433
 21
122.0582602542938
 31
0.0
  0
LINE
  5
C1AA
330
C12C
100
AcDbEntity
  8
0
100
AcDbLine
 10
-2.135139674435539
 20
119.6087705115106
 30
0.0
 11
-0.7209261120624433
 21
118.7922739305829
 31
0.0
  0
LINE
  5
C1AB
330
C12C
100
AcDbEntity
  8
0
100
AcDbLine
 10
0.450646763191358
 20
-30.32041416134309
 30
0.0
 11
0.450646763191358
 21
120.4252670924383
 31
0.0
  0
LINE
  5
C1AC
330
C12C
100
AcDbEntity
  8
0
100
AcDbLine
 10
-28.65164396893109
 20
136.5510745657609
 30
0.0
 11
-2.135139674435539
 21
121.241763673366
 31
0.0
  0
LINE
  5
C1AD
330
C12C
100
AcDbEntity
  8
0
100
AcDbLine
 10
-28.65164396893108
 20
104.2994596191157
 30
0.0
 11
-28.65164396893109
 21
136.5510745657609
 31
0.0
  0
LINE
  5
C1AE
330
C12C
100
AcDbEntity
  8
0
100
AcDbLine
 10
-58.70368216935933
 20
-84.51537472042089
 30
0.0
 11
-58.70368216935934
 21
-67.36894652093863
 31
0.0
  0
LINE
  5
C1AF
330
C12C
100
AcDbEntity
  8
0
100
AcDbLine
 10
-30.41941092189743
 20
101.6458457311006
 30
0.0
 11
-0.7209261120624433
 21
118.7922739305829
 31
0.0
  0
LINE
  5
C1B0
330
C12C
100
AcDbEntity
  8
0
100
AcDbLine
 10
-60.11789573173246
 20
-66.55244994001091
 30
0.0
 11
-60.11789573173243
 21
-83.69887813949313
 31
0.0
  0
LINE
  5
C1B1
330
C12C
100
AcDbEntity
  8
0
100
AcDbLine
 10
-2.135139674435539
 20
119.6087705115106
 30
0.0
 11
-31.83362448427054
 21
102.4623423120283
 31
0.0
  0
LINE
  5
C1B2
330
C12C
100
AcDbEntity
  8
0
100
AcDbLine
 10
-0.7209261120624433
 20
122.0582602542938
 30
0.0
 11
-27.23743040655798
 21
137.3675711466886
 31
0.0
  0
LINE
  5
C1B3
330
C12C
100
AcDbEntity
  8
0
100
AcDbLine
 10
-27.23743040655798
 20
137.3675711466886
 30
0.0
 11
-28.65164396893109
 21
136.5510745657609
 31
0.0
  0
ELLIPSE
  5
C1B4
330
C12C
100
AcDbEntity
  8
0
100
AcDbEllipse
 10
31.45243243192545
 20
-70.83905698988146
 30
0.0
 11
1.24999999999987
 21
2.16506350946117
 31
0.0
210
0.0
220
0.0
230
1.0
 40
0.577350269189626
 41
3.742856870268578
 42
5.681921090500113
  0
ELLIPSE
  5
C1B5
330
C12C
100
AcDbEntity
  8
0
100
AcDbEllipse
 10
32.86664599429855
 20
-71.65555357080918
 30
0.0
 11
-1.25
 21
-2.165063509461095
 31
0.0
210
0.0
220
0.0
230
1.0
 40
0.577350269189626
 41
0.0
 42
6.283185307179586
  0
ELLIPSE
  5
C1B6
330
C12C
100
AcDbEntity
  8
0
100
AcDbEllipse
 10
31.45243243192545
 20
-54.50912537132694
 30
0.0
 11
1.24999999999987
 21
2.16506350946117
 31
0.0
210
0.0
220
0.0
230
1.0
 40
0.577350269189626
 41
3.742856870268578
 42
5.681921090500112
  0
ELLIPSE
  5
C1B7
330
C12C
100
AcDbEntity
  8
0
100
AcDbEllipse
 10
32.86664599429855
 20
-55.32562195225466
 30
0.0
 11
-1.25
 21
-2.165063509461095
 31
0.0
210
0.0
220
0.0
230
1.0
 40
0.577350269189626
 41
0.0
 42
6.283185307179586
  0
ELLIPSE
  5
C1B8
330
C12C
100
AcDbEntity
  8
0
100
AcDbEllipse
 10
31.45243243192545
 20
-38.17919375277242
 30
0.0
 11
1.24999999999987
 21
2.16506350946117
 31
0.0
210
0.0
220
0.0
230
1.0
 40
0.577350269189626
 41
3.742856870268578
 42
5.681921090500109
  0
ELLIPSE
  5
C1B9
330
C12C
100
AcDbEntity
  8
0
100
AcDbEllipse
 10
32.86664599429855
 20
-38.99569033370015
 30
0.0
 11
-1.25
 21
-2.165063509461095
 31
0.0
210
0.0
220
0.0
230
1.0
 40
0.577350269189626
 41
0.0
 42
6.283185307179586
  0
ELLIPSE
  5
C1BA
330
C12C
100
AcDbEntity
  8
0
100
AcDbEllipse
 10
31.45243243192545
 20
-21.8492621342179
 30
0.0
 11
1.24999999999987
 21
2.16506350946117
 31
0.0
210
0.0
220
0.0
230
1.0
 40
0.577350269189626
 41
3.742856870268578
 42
5.681921090500117
  0
ELLIPSE
  5
C1BB
330
C12C
100
AcDbEntity
  8
0
100
AcDbEllipse
 10
32.86664599429855
 20
-22.66575871514563
 30
0.0
 11
-1.25
 21
-2.165063509461095
 31
0.0
210
0.0
220
0.0
230
1.0
 40
0.577350269189626
 41
0.0
 42
6.283185307179586
  0
ELLIPSE
  5
C1BC
330
C12C
100
AcDbEntity
  8
0
100
AcDbEllipse
 10
31.45243243192545
 20
-5.519330515663378
 30
0.0
 11
1.24999999999987
 21
2.16506350946117
 31
0.0
210
0.0
220
0.0
230
1.0
 40
0.577350269189626
 41
3.742856870268578
 42
5.681921090500116
  0
ELLIPSE
  5
C1BD
330
C12C
100
AcDbEntity
  8
0
100
AcDbEllipse
 10
32.86664599429855
 20
-6.335827096591106
 30
0.0
 11
-1.25
 21
-2.165063509461095
 31
0.0
210
0.0
220
0.0
230
1.0
 40
0.577350269189626
 41
0.0
 42
6.283185307179586
  0
ELLIPSE
  5
C1BE
330
C12C
100
AcDbEntity
  8
0
100
AcDbEllipse
 10
31.45243243192545
 20
10.81060110289113
 30
0.0
 11
1.24999999999987
 21
2.16506350946117
 31
0.0
210
0.0
220
0.0
230
1.0
 40
0.577350269189626
 41
3.742856870268578
 42
5.681921090500116
  0
ELLIPSE
  5
C1BF
330
C12C
100
AcDbEntity
  8
0
100
AcDbEllipse
 10
32.86664599429855
 20
9.9941045219634
 30
0.0
 11
-1.25
 21
-2.165063509461095
 31
0.0
210
0.0
220
0.0
230
1.0
 40
0.577350269189626
 41
0.0
 42
6.283185307179586
  0
ELLIPSE
  5
C1C0
330
C12C
100
AcDbEntity
  8
0
100
AcDbEllipse
 10
31.45243243192545
 20
27.14053272144566
 30
0.0
 11
1.24999999999987
 21
2.16506350946117
 31
0.0
210
0.0
220
0.0
230
1.0
 40
0.577350269189626
 41
3.742856870268578
 42
5.681921090500117
  0
ELLIPSE
  5
C1C1
330
C12C
100
AcDbEntity
  8
0
100
AcDbEllipse
 10
32.86664599429855
 20
26.32403614051793
 30
0.0
 11
-1.25
 21
-2.165063509461095
 31
0.0
210
0.0
220
0.0
230
1.0
 40
0.577350269189626
 41
0.0
 42
6.283185307179586
  0
ELLIPSE
  5
C1C2
330
C12C
100
AcDbEntity
  8
0
100
AcDbEllipse
 10
31.45243243192545
 20
43.47046434000019
 30
0.0
 11
1.24999999999987
 21
2.16506350946117
 31
0.0
210
0.0
220
0.0
230
1.0
 40
0.577350269189626
 41
3.742856870268578
 42
5.681921090500101
  0
ELLIPSE
  5
C1C3
330
C12C
100
AcDbEntity
  8
0
100
AcDbEllipse
 10
32.86664599429855
 20
42.65396775907245
 30
0.0
 11
-1.25
 21
-2.165063509461095
 31
0.0
210
0.0
220
0.0
230
1.0
 40
0.577350269189626
 41
0.0
 42
6.283185307179586
  0
ELLIPSE
  5
C1C4
330
C12C
100
AcDbEntity
  8
0
100
AcDbEllipse
 10
-26.53032362537143
 20
-29.19773136256743
 30
0.0
 11
1.24999999999987
 21
2.16506350946117
 31
0.0
210
0.0
220
0.0
230
1.0
 40
0.5773502691896257
 41
3.742856870268584
 42
5.681921090500109
  0
ELLIPSE
  5
C1C5
330
C12C
100
AcDbEntity
  8
0
100
AcDbEllipse
 10
-25.11611006299833
 20
-30.01422794349516
 30
0.0
 11
1.249999999999999
 21
2.165063509461096
 31
0.0
210
0.0
220
0.0
230
1.0
 40
0.5773502691896258
 41
0.0
 42
6.283185307179586
  0
ELLIPSE
  5
C1C6
330
C12C
100
AcDbEntity
  8
0
100
AcDbEllipse
 10
-26.53032362537143
 20
-12.8677997440129
 30
0.0
 11
1.24999999999987
 21
2.16506350946117
 31
0.0
210
0.0
220
0.0
230
1.0
 40
0.5773502691896257
 41
3.742856870268584
 42
5.68192109050011
  0
ELLIPSE
  5
C1C7
330
C12C
100
AcDbEntity
  8
0
100
AcDbEllipse
 10
-25.11611006299833
 20
-13.68429632494063
 30
0.0
 11
1.249999999999999
 21
2.165063509461096
 31
0.0
210
0.0
220
0.0
230
1.0
 40
0.5773502691896258
 41
0.0
 42
6.283185307179586
  0
ELLIPSE
  5
C1C8
330
C12C
100
AcDbEntity
  8
0
100
AcDbEllipse
 10
-26.53032362537143
 20
3.462131874541611
 30
0.0
 11
1.24999999999987
 21
2.16506350946117
 31
0.0
210
0.0
220
0.0
230
1.0
 40
0.5773502691896257
 41
3.742856870268584
 42
5.681921090500117
  0
ELLIPSE
  5
C1C9
330
C12C
100
AcDbEntity
  8
0
100
AcDbEllipse
 10
-25.11611006299833
 20
2.645635293613883
 30
0.0
 11
1.249999999999999
 21
2.165063509461096
 31
0.0
210
0.0
220
0.0
230
1.0
 40
0.5773502691896258
 41
0.0
 42
6.283185307179586
  0
ELLIPSE
  5
C1CA
330
C12C
100
AcDbEntity
  8
0
100
AcDbEllipse
 10
-26.53032362537143
 20
19.79206349309612
 30
0.0
 11
1.24999999999987
 21
2.16506350946117
 31
0.0
210
0.0
220
0.0
230
1.0
 40
0.5773502691896257
 41
3.742856870268584
 42
5.681921090500117
  0
ELLIPSE
  5
C1CB
330
C12C
100
AcDbEntity
  8
0
100
AcDbEllipse
 10
-25.11611006299833
 20
18.9755669121684
 30
0.0
 11
1.249999999999999
 21
2.165063509461096
 31
0.0
210
0.0
220
0.0
230
1.0
 40
0.5773502691896258
 41
0.0
 42
6.283185307179586
  0
ELLIPSE
  5
C1CC
330
C12C
100
AcDbEntity
  8
0
100
AcDbEllipse
 10
-26.53032362537143
 20
36.12199511165065
 30
0.0
 11
1.24999999999987
 21
2.16506350946117
 31
0.0
210
0.0
220
0.0
230
1.0
 40
0.5773502691896257
 41
3.742856870268584
 42
5.681921090500117
  0
ELLIPSE
  5
C1CD
330
C12C
100
AcDbEntity
  8
0
100
AcDbEllipse
 10
-25.11611006299833
 20
35.30549853072293
 30
0.0
 11
1.249999999999999
 21
2.165063509461096
 31
0.0
210
0.0
220
0.0
230
1.0
 40
0.5773502691896258
 41
0.0
 42
6.283185307179586
  0
ELLIPSE
  5
C1CE
330
C12C
100
AcDbEntity
  8
0
100
AcDbEllipse
 10
-26.53032362537143
 20
52.45192673020515
 30
0.0
 11
1.24999999999987
 21
2.16506350946117
 31
0.0
210
0.0
220
0.0
230
1.0
 40
0.5773502691896257
 41
3.742856870268584
 42
5.681921090500117
  0
ELLIPSE
  5
C1CF
330
C12C
100
AcDbEntity
  8
0
100
AcDbEllipse
 10
-25.11611006299833
 20
51.63543014927743
 30
0.0
 11
1.249999999999999
 21
2.165063509461096
 31
0.0
210
0.0
220
0.0
230
1.0
 40
0.5773502691896258
 41
0.0
 42
6.283185307179586
  0
ELLIPSE
  5
C1D0
330
C12C
100
AcDbEntity
  8
0
100
AcDbEllipse
 10
-26.53032362537143
 20
68.78185834875967
 30
0.0
 11
1.24999999999987
 21
2.16506350946117
 31
0.0
210
0.0
220
0.0
230
1.0
 40
0.5773502691896257
 41
3.742856870268584
 42
5.681921090500103
  0
ELLIPSE
  5
C1D1
330
C12C
100
AcDbEntity
  8
0
100
AcDbEllipse
 10
-25.11611006299833
 20
67.96536176783195
 30
0.0
 11
1.249999999999999
 21
2.165063509461096
 31
0.0
210
0.0
220
0.0
230
1.0
 40
0.5773502691896258
 41
0.0
 42
6.283185307179586
  0
ELLIPSE
  5
C1D2
330
C12C
100
AcDbEntity
  8
0
100
AcDbEllipse
 10
-26.53032362537143
 20
85.1117899673142
 30
0.0
 11
1.24999999999987
 21
2.16506350946117
 31
0.0
210
0.0
220
0.0
230
1.0
 40
0.5773502691896257
 41
3.742856870268584
 42
5.681921090500103
  0
ELLIPSE
  5
C1D3
330
C12C
100
AcDbEntity
  8
0
100
AcDbEllipse
 10
-25.11611006299833
 20
84.29529338638648
 30
0.0
 11
1.249999999999999
 21
2.165063509461096
 31
0.0
210
0.0
220
0.0
230
1.0
 40
0.5773502691896258
 41
0.0
 42
6.283185307179586
  0
ELLIPSE
  5
C1D4
330
C12C
100
AcDbEntity
  8
0
100
AcDbEllipse
 10
-26.53032362537143
 20
101.4417215858687
 30
0.0
 11
1.24999999999987
 21
2.16506350946117
 31
0.0
210
0.0
220
0.0
230
1.0
 40
0.5773502691896257
 41
3.742856870268584
 42
5.681921090500103
  0
ELLIPSE
  5
C1D5
330
C12C
100
AcDbEntity
  8
0
100
AcDbEllipse
 10
-25.11611006299833
 20
100.625225004941
 30
0.0
 11
1.249999999999999
 21
2.165063509461096
 31
0.0
210
0.0
220
0.0
230
1.0
 40
0.5773502691896258
 41
0.0
 42
6.283185307179586
  0
ENDBLK
  5
C12E
330
C12C
100
AcDbEntity
  8
0
100
AcDbBlockEnd
  0
ENDSEC
  0
SECTION
  2
ENTITIES
  0
INSERT
  5
C1D6
330
1F
100
AcDbEntity
  8
0
100
AcDbBlockReference
  2
SAE500_80_2-Front
 10
0.0
 20
0.0
 30
0.0
  0
INSERT
  5
C1D7
330
1F
100
AcDbEntity
  8
0
100
AcDbBlockReference
  2
SAE500_80_2-Left
 10
145.1
 20
0.0
 30
0.0
  0
INSERT
  5
C1D8
330
1F
100
AcDbEntity
  8
0
100
AcDbBlockReference
  2
SAE500_80_2-Right
 10
-145.1
 20
0.0
 30
0.0
  0
INSERT
  5
C1D9
330
1F
100
AcDbEntity
  8
0
100
AcDbBlockReference
  2
SAE500_80_2-Top
 10
0.0
 20
-65.60000000000001
 30
0.0
  0
INSERT
  5
C1DA
330
1F
100
AcDbEntity
  8
0
100
AcDbBlockReference
  2
SAE500_80_2-Bottom
 10
0.0
 20
273.6
 30
0.0
  0
INSERT
  5
C1DB
330
1F
100
AcDbEntity
  8
0
100
AcDbBlockReference
  2
SAE500_80_2-ISO
 10
205.2178957317326
 20
-202.9675711466887
 30
0.0
  0
MTEXT
  5
C1DC
330
1F
100
AcDbEntity
  8
0
100
AcDbMText
 10
0.0
 20
-215.2000000000001
 30
0.0
 40
18.1375
 41
0.0
 71
     5
 72
     5
  1
SAE500/80/2
 73
     1
 44
1.0
1001
ACAD
1000
MTEXTBEGIN
1070
    73
1070
     1
1070
    44
1040
1.0
1070
    74
1070
     0
1000
MTEXTEND
  0
ENDSEC
  0
SECTION
  2
OBJECTS
  0
DICTIONARY
  5
C
330
0
100
AcDbDictionary
281
     1
  3
ACAD_CIP_PREVIOUS_PRODUCT_INFO
350
216
  3
ACAD_COLOR
350
6B
  3
ACAD_DETAILVIEWSTYLE
350
21B
  3
ACAD_GROUP
350
D
  3
ACAD_LAYOUT
350
1A
  3
ACAD_MATERIAL
350
6A
  3
ACAD_MLEADERSTYLE
350
12D
  3
ACAD_MLINESTYLE
350
17
  3
ACAD_PLOTSETTINGS
350
19
  3
ACAD_PLOTSTYLENAME
350
E
  3
ACAD_SCALELIST
350
10C
  3
ACAD_SECTIONVIEWSTYLE
350
219
  3
ACAD_TABLESTYLE
350
7E
  3
ACAD_VISUALSTYLE
350
EF
  3
ACDB_RECOMPOSE_DATA
350
C2DD
  3
AcDbVariableDictionary
350
5E
  3
DWGPROPS
350
C2DE
  0
DICTIONARY
  5
C22D
330
8
100
AcDbDictionary
280
     1
281
     1
  0
DICTIONARY
  5
1FF
330
2
100
AcDbDictionary
280
     1
281
     1
  3
ACAD_LAYERSTATES
360
200
  0
DICTIONARY
  5
13C
330
10
100
AcDbDictionary
280
     1
281
     1
  0
DICTIONARY
  5
1CE
330
1F
100
AcDbDictionary
280
     1
281
     1
  3
ACAD_LAYOUTSELFREF
360
C235
  0
DICTIONARY
  5
C1E0
330
D2
100
AcDbDictionary
280
     1
281
     1
  3
ACAD_LAYOUTSELFREF
360
C23E
  0
DICTIONARY
  5
C1E2
330
D6
100
AcDbDictionary
280
     1
281
     1
  3
ACAD_LAYOUTSELFREF
360
C241
  0
XRECORD
  5
216
102
{ACAD_REACTORS
330
C
102
}
330
C
100
AcDbXrecord
280
     1
300
ACD
300
2021
300
87393ACD_2021_0F
  0
DICTIONARY
  5
6B
102
{ACAD_REACTORS
330
C
102
}
330
C
100
AcDbDictionary
281
     1
  0
DICTIONARY
  5
21B
102
{ACAD_REACTORS
330
C
102
}
330
C
100
AcDbDictionary
281
     1
  3
Metric50
350
21C
  0
DICTIONARY
  5
D
102
{ACAD_REACTORS
330
C
102
}
330
C
100
AcDbDictionary
281
     1
  0
DICTIONARY
  5
1A
102
{ACAD_REACTORS
330
C
102
}
330
C
100
AcDbDictionary
281
     1
  3
Layout1
350
D3
  3
Layout2
350
D7
  3
Model
350
22
  0
DICTIONARY
  5
6A
102
{ACAD_REACTORS
330
C
102
}
330
C
100
AcDbDictionary
281
     1
  3
ByBlock
350
ED
  3
ByLayer
350
EC
  3
Global
350
EE
  0
DICTIONARY
  5
12D
102
{ACAD_REACTORS
330
C
102
}
330
C
100
AcDbDictionary
281
     1
  3
Standard
350
12E
  0
DICTIONARY
  5
17
102
{ACAD_REACTORS
330
C
102
}
330
C
100
AcDbDictionary
281
     1
  3
Standard
350
18
  0
DICTIONARY
  5
19
102
{ACAD_REACTORS
330
C
102
}
330
C
100
AcDbDictionary
281
     1
  0
ACDBDICTIONARYWDFLT
  5
E
102
{ACAD_REACTORS
330
C
102
}
330
C
100
AcDbDictionary
281
     1
  3
Normal
350
F
100
AcDbDictionaryWithDefault
340
F
  0
DICTIONARY
  5
10C
102
{ACAD_REACTORS
330
C
102
}
330
C
100
AcDbDictionary
281
     1
  3
A0
350
10D
  3
A1
350
1BE
  3
A2
350
1BF
  3
A3
350
1C0
  3
A4
350
1C1
  3
A5
350
1C2
  3
A6
350
1C3
  3
A7
350
1C4
  3
A8
350
1C5
  3
A9
350
1C6
  3
B0
350
1C7
  3
B1
350
1C8
  3
B2
350
1C9
  3
B3
350
1CA
  3
B4
350
1CB
  3
B5
350
1CC
  3
B6
350
1CD
  0
DICTIONARY
  5
219
102
{ACAD_REACTORS
330
C
102
}
330
C
100
AcDbDictionary
281
     1
  3
Metric50
350
21A
  0
DICTIONARY
  5
7E
102
{ACAD_REACTORS
330
C
102
}
330
C
100
AcDbDictionary
281
     1
  3
Standard
350
7F
  0
DICTIONARY
  5
EF
102
{ACAD_REACTORS
330
C
102
}
330
C
100
AcDbDictionary
281
     1
  3
2dWireframe
350
F5
  3
Basic
350
F4
  3
Brighten
350
FB
  3
ColorChange
350
FF
  3
Conceptual
350
F8
  3
Dim
350
FA
  3
EdgeColorOff
350
1E6
  3
Facepattern
350
FE
  3
Flat
350
F0
  3
FlatWithEdges
350
F1
  3
Gouraud
350
F2
  3
GouraudWithEdges
350
F3
  3
Hidden
350
F7
  3
JitterOff
350
1E4
  3
Linepattern
350
FD
  3
OverhangOff
350
1E5
  3
Realistic
350
F9
  3
Shaded
350
1F3
  3
Shaded with edges
350
1F2
  3
Shades of Gray
350
1EF
  3
Sketchy
350
1F0
  3
Thicken
350
FC
  3
Wireframe
350
F6
  3
X-Ray
350
1F1
  0
XRECORD
  5
C2DD
102
{ACAD_REACTORS
330
C
102
}
330
C
100
AcDbXrecord
280
     1
 90
        1
330
7F
  0
DICTIONARY
  5
5E
102
{ACAD_REACTORS
330
C
102
}
330
C
100
AcDbDictionary
281
     1
  3
CANNOSCALE
350
146
  3
CENTEREXE
350
259
  3
CENTERLTYPEFILE
350
25A
  3
CMLEADERSTYLE
350
145
  3
CTABLESTYLE
350
84
  3
CVIEWDETAILSTYLE
350
227
  3
CVIEWSECTIONSTYLE
350
228
  3
DIMASSOC
350
5F
  3
HIDETEXT
350
63
  3
INDEXCTL
350
C28A
  3
LAYEREVAL
350
1AE
  3
LAYERNOTIFY
350
1AF
  3
LIGHTINGUNITS
350
C288
  3
MSLTSCALE
350
C287
  3
PSOLHEIGHT
350
C2DA
  3
PSOLWIDTH
350
C2D9
  3
SORTENTS
350
C289
  3
XCLIPFRAME
350
C2DB
  0
XRECORD
  5
C2DE
102
{ACAD_REACTORS
330
C
102
}
330
C
100
AcDbXrecord
280
     1
  1
DWGPROPS COOKIE
  2

  3

  4

  6

  7

  8
truole
  9

300
=
301
=
302
=
303
=
304
=
305
=
306
=
307
=
308
=
309
=
 40
0.0081365740740741
 41
2460398.356956019
 42
2460398.376296296
  1

 90
        0
  0
DICTIONARY
  5
200
102
{ACAD_REACTORS
330
1FF
102
}
330
1FF
100
AcDbDictionary
281
     1
  0
XRECORD
  5
C235
102
{ACAD_REACTORS
330
1CE
102
}
330
1CE
100
AcDbXrecord
280
     1
340
1F
  0
XRECORD
  5
C23E
102
{ACAD_REACTORS
330
C1E0
102
}
330
C1E0
100
AcDbXrecord
280
     1
340
D2
  0
XRECORD
  5
C241
102
{ACAD_REACTORS
330
C1E2
102
}
330
C1E2
100
AcDbXrecord
280
     1
340
D6
  0
ACDBDETAILVIEWSTYLE
  5
21C
102
{ACAD_XDICTIONARY
360
C31D
102
}
102
{ACAD_REACTORS
330
21B
102
}
330
21B
100
AcDbModelDocViewStyle
 70
     0
  3
Metric50
290
     0
100
AcDbDetailViewStyle
 70
     0
 71
     0
 90
        3
 71
     1
340
11
 40
5.0
340
0
 40
5.0
300

 40
0.0
280
     1
 71
     2
340
16
 90
       25
 71
     3
340
11
 40
5.0
 90
        0
 40
15.0
 90
        1
300
%<\AcVar ViewDetailId>% (%<\AcVar ViewScale \f "%sn">%)
 71
     4
340
16
 90
       25
340
16
 90
       25
280
     0
  0
LAYOUT
  5
D3
102
{ACAD_XDICTIONARY
360
C2E2
102
}
102
{ACAD_REACTORS
330
1A
102
}
330
1A
100
AcDbPlotSettings
  1

  2
C:\Documents and Settings\basas\Application Data\Autodesk\AutoCAD 2005\R16.1\enu\plotters\Default Windows System Printer.pc3
  4

  6

 40
0.0
 41
0.0
 42
0.0
 43
0.0
 44
0.0
 45
0.0
 46
0.0
 47
0.0
 48
0.0
 49
0.0
140
0.0
141
0.0
142
1.0
143
1.0
 70
   688
 72
     0
 73
     0
 74
     5
  7

 75
    16
147
1.0
148
0.0
149
0.0
100
AcDbLayout
  1
Layout1
 70
     1
 71
     1
 10
0.0
 20
0.0
 11
12.0
 21
9.0
 12
0.0
 22
0.0
 32
0.0
 14
0.0
 24
0.0
 34
0.0
 15
0.0
 25
0.0
 35
0.0
146
0.0
 13
0.0
 23
0.0
 33
0.0
 16
1.0
 26
0.0
 36
0.0
 17
0.0
 27
1.0
 37
0.0
 76
     0
330
D2
  0
LAYOUT
  5
D7
102
{ACAD_XDICTIONARY
360
C2E4
102
}
102
{ACAD_REACTORS
330
1A
102
}
330
1A
100
AcDbPlotSettings
  1

  2
C:\Documents and Settings\basas\Application Data\Autodesk\AutoCAD 2005\R16.1\enu\plotters\Default Windows System Printer.pc3
  4

  6

 40
0.0
 41
0.0
 42
0.0
 43
0.0
 44
0.0
 45
0.0
 46
0.0
 47
0.0
 48
0.0
 49
0.0
140
0.0
141
0.0
142
1.0
143
1.0
 70
   688
 72
     0
 73
     0
 74
     5
  7

 75
    16
147
1.0
148
0.0
149
0.0
100
AcDbLayout
  1
Layout2
 70
     1
 71
     2
 10
0.0
 20
0.0
 11
12.0
 21
9.0
 12
0.0
 22
0.0
 32
0.0
 14
0.0
 24
0.0
 34
0.0
 15
0.0
 25
0.0
 35
0.0
146
0.0
 13
0.0
 23
0.0
 33
0.0
 16
1.0
 26
0.0
 36
0.0
 17
0.0
 27
1.0
 37
0.0
 76
     0
330
D6
  0
LAYOUT
  5
22
102
{ACAD_XDICTIONARY
360
C2DF
102
}
102
{ACAD_REACTORS
330
1A
102
}
330
1A
100
AcDbPlotSettings
  1

  2
none_device
  4
ISO_A4_(210.00_x_297.00_MM)
  6

 40
7.5
 41
20.0
 42
7.5
 43
20.0
 44
210.0
 45
297.0
 46
11.54999923706054
 47
-13.65000009536743
 48
0.0
 49
0.0
140
0.0
141
0.0
142
1.0
143
8.704084754739808
 70
 11952
 72
     1
 73
     0
 74
     0
  7

 75
     0
147
0.1148885871608098
148
0.0
149
0.0
100
AcDbLayout
  1
Model
 70
     1
 71
     0
 10
0.0
 20
0.0
 11
12.0
 21
9.0
 12
0.0
 22
0.0
 32
0.0
 14
0.0
 24
0.0
 34
0.0
 15
0.0
 25
0.0
 35
0.0
146
0.0
 13
0.0
 23
0.0
 33
0.0
 16
1.0
 26
0.0
 36
0.0
 17
0.0
 27
1.0
 37
0.0
 76
     0
330
1F
331
EA
1001
ACAD_PSEXT
1000
None
1000
None
1000
Not applicable
1000
The layout will not be plotted unless a new plotter configuration name is selected.
1070
     0
  0
MATERIAL
  5
ED
102
{ACAD_XDICTIONARY
360
1F9
102
}
102
{ACAD_REACTORS
330
6A
102
}
330
6A
100
AcDbMaterial
  1
ByBlock
  0
MATERIAL
  5
EC
102
{ACAD_XDICTIONARY
360
1F7
102
}
102
{ACAD_REACTORS
330
6A
102
}
330
6A
100
AcDbMaterial
  1
ByLayer
  0
MATERIAL
  5
EE
102
{ACAD_XDICTIONARY
360
173
102
}
102
{ACAD_REACTORS
330
6A
102
}
330
6A
100
AcDbMaterial
  1
Global
 43
0.0007999999797903
 43
0.0
 43
0.0
 43
0.0
 43
0.0
 43
0.0007999999797903
 43
0.0
 43
0.0
 43
0.0
 43
0.0
 43
1.0
 43
0.0
 43
0.0
 43
0.0
 43
0.0
 43
1.0
 49
0.0007999999797903
 49
0.0
 49
0.0
 49
0.0
 49
0.0
 49
0.0007999999797903
 49
0.0
 49
0.0
 49
0.0
 49
0.0
 49
1.0
 49
0.0
 49
0.0
 49
0.0
 49
0.0
 49
1.0
142
0.0007999999797903
142
0.0
142
0.0
142
0.0
142
0.0
142
0.0007999999797903
142
0.0
142
0.0
142
0.0
142
0.0
142
1.0
142
0.0
142
0.0
142
0.0
142
0.0
142
1.0
144
0.0007999999797903
144
0.0
144
0.0
144
0.0
144
0.0
144
0.0007999999797903
144
0.0
144
0.0
144
0.0
144
0.0
144
1.0
144
0.0
144
0.0
144
0.0
144
0.0
144
1.0
1001
ACAD
1070
    -1
1070
     3
1070
     0
1000

1071
        0
1070
     0
  0
MLEADERSTYLE
  5
12E
102
{ACAD_XDICTIONARY
360
C309
102
}
102
{ACAD_REACTORS
330
12D
102
}
330
12D
100
AcDbMLeaderStyle
170
     2
171
     1
172
     0
 90
        2
 40
0.0
 41
0.0
173
     1
 91
-1056964608
340
14
 92
       -2
290
     1
 42
2.0
291
     1
 43
8.0
  3
Standard
 44
4.0
300

342
11
174
     1
178
     1
175
     1
176
     0
 93
-1056964608
 45
4.0
292
     0
297
     0
 46
4.0
 94
-1056964608
 47
1.0
 49
1.0
140
1.0
293
     1
141
0.0
294
     1
177
     0
142
1.0
295
     0
296
     0
143
3.75
1001
ACAD_MLEADERVER
1070
     2
  0
MLINESTYLE
  5
18
102
{ACAD_REACTORS
330
17
102
}
330
17
100
AcDbMlineStyle
  2
STANDARD
 70
     0
  3

 62
   256
 51
90.0
 52
90.0
 71
     2
 49
0.5
 62
   256
  6
BYLAYER
 49
-0.5
 62
   256
  6
BYLAYER
  0
ACDBPLACEHOLDER
  5
F
102
{ACAD_REACTORS
330
E
102
}
330
E
  0
SCALE
  5
10D
102
{ACAD_REACTORS
330
10C
102
}
330
10C
100
AcDbScale
 70
     0
300
1:1
140
1.0
141
1.0
290
     1
  0
SCALE
  5
1BE
102
{ACAD_REACTORS
330
10C
102
}
330
10C
100
AcDbScale
 70
     0
300
1:2
140
1.0
141
2.0
290
     0
  0
SCALE
  5
1BF
102
{ACAD_REACTORS
330
10C
102
}
330
10C
100
AcDbScale
 70
     0
300
1:4
140
1.0
141
4.0
290
     0
  0
SCALE
  5
1C0
102
{ACAD_REACTORS
330
10C
102
}
330
10C
100
AcDbScale
 70
     0
300
1:5
140
1.0
141
5.0
290
     0
  0
SCALE
  5
1C1
102
{ACAD_REACTORS
330
10C
102
}
330
10C
100
AcDbScale
 70
     0
300
1:8
140
1.0
141
8.0
290
     0
  0
SCALE
  5
1C2
102
{ACAD_REACTORS
330
10C
102
}
330
10C
100
AcDbScale
 70
     0
300
1:10
140
1.0
141
10.0
290
     0
  0
SCALE
  5
1C3
102
{ACAD_REACTORS
330
10C
102
}
330
10C
100
AcDbScale
 70
     0
300
1:16
140
1.0
141
16.0
290
     0
  0
SCALE
  5
1C4
102
{ACAD_REACTORS
330
10C
102
}
330
10C
100
AcDbScale
 70
     0
300
1:20
140
1.0
141
20.0
290
     0
  0
SCALE
  5
1C5
102
{ACAD_REACTORS
330
10C
102
}
330
10C
100
AcDbScale
 70
     0
300
1:30
140
1.0
141
30.0
290
     0
  0
SCALE
  5
1C6
102
{ACAD_REACTORS
330
10C
102
}
330
10C
100
AcDbScale
 70
     0
300
1:40
140
1.0
141
40.0
290
     0
  0
SCALE
  5
1C7
102
{ACAD_REACTORS
330
10C
102
}
330
10C
100
AcDbScale
 70
     0
300
1:50
140
1.0
141
50.0
290
     0
  0
SCALE
  5
1C8
102
{ACAD_REACTORS
330
10C
102
}
330
10C
100
AcDbScale
 70
     0
300
1:100
140
1.0
141
100.0
290
     0
  0
SCALE
  5
1C9
102
{ACAD_REACTORS
330
10C
102
}
330
10C
100
AcDbScale
 70
     0
300
2:1
140
2.0
141
1.0
290
     0
  0
SCALE
  5
1CA
102
{ACAD_REACTORS
330
10C
102
}
330
10C
100
AcDbScale
 70
     0
300
4:1
140
4.0
141
1.0
290
     0
  0
SCALE
  5
1CB
102
{ACAD_REACTORS
330
10C
102
}
330
10C
100
AcDbScale
 70
     0
300
8:1
140
8.0
141
1.0
290
     0
  0
SCALE
  5
1CC
102
{ACAD_REACTORS
330
10C
102
}
330
10C
100
AcDbScale
 70
     0
300
10:1
140
10.0
141
1.0
290
     0
  0
SCALE
  5
1CD
102
{ACAD_REACTORS
330
10C
102
}
330
10C
100
AcDbScale
 70
     0
300
100:1
140
100.0
141
1.0
290
     0
  0
ACDBSECTIONVIEWSTYLE
  5
21A
102
{ACAD_XDICTIONARY
360
C31B
102
}
102
{ACAD_REACTORS
330
219
102
}
330
219
100
AcDbModelDocViewStyle
 70
     0
  3
Metric50
290
     0
100
AcDbSectionViewStyle
 70
     0
 71
     0
 90
      102
 71
     1
340
11
 40
5.0
340
0
340
0
 40
5.0
300
I, O, Q, S, X, Z
 40
10.0
 90
        0
 40
2.5
 90
        0
 71
     2
340
16
 90
       25
340
16
 90
       50
 40
5.0
 40
2.5
 40
5.0
 71
     3
340
11
 40
5.0
 90
        0
 40
15.0
 90
        1
300
%<\AcVar ViewSectionStartId>%-%<\AcVar ViewSectionEndId>% (%<\AcVar ViewScale \f "%sn">%)
 71
     4
300
ANSI31
 40
1.0
 90
        0
290
     0
290
     0
 90
        6
 40
0.0
 40
1.570796326794896
 40
0.2617993877991494
 40
1.308996938995747
 40
-0.2617993877991494
 40
1.832595714594046
  0
TABLESTYLE
  5
7F
102
{ACAD_XDICTIONARY
360
162
102
}
102
{ACAD_REACTORS
330
7E
102
}
330
7E
100
AcDbTableStyle
  3
Standard
 70
     0
 71
     0
 40
1.5
 41
1.5
280
     0
281
     0
  7
Standard
140
4.5
170
     2
 62
     0
 63
     7
283
     0
274
    -2
284
     1
 64
     0
275
    -2
285
     1
 65
     0
276
    -2
286
     1
 66
     0
277
    -2
287
     1
 67
     0
278
    -2
288
     1
 68
     0
279
    -2
289
     1
 69
     0
  7
Standard
140
6.0
170
     5
 62
     0
 63
     7
283
     0
274
    -2
284
     1
 64
     0
275
    -2
285
     1
 65
     0
276
    -2
286
     1
 66
     0
277
    -2
287
     1
 67
     0
278
    -2
288
     1
 68
     0
279
    -2
289
     1
 69
     0
  7
Standard
140
4.5
170
     5
 62
     0
 63
     7
283
     0
274
    -2
284
     1
 64
     0
275
    -2
285
     1
 65
     0
276
    -2
286
     1
 66
     0
277
    -2
287
     1
 67
     0
278
    -2
288
     1
 68
     0
279
    -2
289
     1
 69
     0
  0
VISUALSTYLE
  5
F5
102
{ACAD_XDICTIONARY
360
C2F3
102
}
102
{ACAD_REACTORS
330
EF
102
}
330
EF
100
AcDbVisualStyle
  2
2dWireframe
 70
     4
 71
     0
 72
     2
 73
     1
 90
        0
 40
-0.6
 41
-30.0
 62
     5
 63
     7
 74
     1
 91
        4
 64
     7
 65
   257
 75
     1
175
     1
 42
1.0
 92
        0
 66
   257
 43
1.0
 76
     1
 77
     6
 78
     2
 67
     7
 79
     5
170
     0
171
     0
290
     0
174
     0
 93
        1
 44
0.0
173
     0
291
     0
 45
0.0
1001
ACAD
1000
AcDbSavedByObjectVersion
1070
     0
  0
VISUALSTYLE
  5
F4
102
{ACAD_XDICTIONARY
360
C2F1
102
}
102
{ACAD_REACTORS
330
EF
102
}
330
EF
100
AcDbVisualStyle
  2
Basic
 70
     7
 71
     1
 72
     0
 73
     1
 90
        0
 40
-0.6
 41
-30.0
 62
     5
 63
     7
 74
     0
 91
        4
 64
     7
 65
   257
 75
     1
175
     1
 42
1.0
 92
        8
 66
     7
 43
1.0
 76
     1
 77
     6
 78
     2
 67
     7
 79
     5
170
     0
171
     0
290
     0
174
     0
 93
        1
 44
0.0
173
     0
291
     1
 45
0.0
1001
ACAD
1000
AcDbSavedByObjectVersion
1070
     0
  0
VISUALSTYLE
  5
FB
102
{ACAD_XDICTIONARY
360
C2FF
102
}
102
{ACAD_REACTORS
330
EF
102
}
330
EF
100
AcDbVisualStyle
  2
Brighten
 70
    12
 71
     2
 72
     2
 73
     1
 90
        0
 40
-0.6
 41
-30.0
 62
     5
 63
     7
 74
     1
 91
        4
 64
     7
 65
   257
 75
     1
175
     1
 42
1.0
 92
        8
 66
     7
 43
1.0
 76
     1
 77
     6
 78
     2
 67
     7
 79
     5
170
     0
171
     0
290
     0
174
     0
 93
        1
 44
50.0
173
     0
291
     1
 45
0.0
1001
ACAD
1000
AcDbSavedByObjectVersion
1070
     0
  0
VISUALSTYLE
  5
FF
102
{ACAD_XDICTIONARY
360
C307
102
}
102
{ACAD_REACTORS
330
EF
102
}
330
EF
100
AcDbVisualStyle
  2
ColorChange
 70
    16
 71
     2
 72
     2
 73
     3
 90
        0
 40
-0.6
 41
-30.0
 62
     5
 63
     8
 74
     1
 91
        4
 64
     7
 65
   257
 75
     1
175
     1
 42
1.0
 92
        8
 66
     8
 43
1.0
 76
     1
 77
     6
 78
     2
 67
     7
 79
     5
170
     0
171
     0
290
     0
174
     0
 93
        1
 44
0.0
173
     0
291
     1
 45
0.0
1001
ACAD
1000
AcDbSavedByObjectVersion
1070
     0
  0
VISUALSTYLE
  5
F8
102
{ACAD_XDICTIONARY
360
C2F9
102
}
102
{ACAD_REACTORS
330
EF
102
}
330
EF
100
AcDbVisualStyle
  2
Conceptual
 70
     9
 71
     3
 72
     2
 73
     1
 90
        0
 40
-0.6
 41
-30.0
 62
     5
 63
     7
 74
     2
 91
        2
 64
     7
 65
   257
 75
     1
175
     1
 42
40.0
 92
        8
 66
     7
 43
1.0
 76
     1
 77
     6
 78
     2
 67
     7
 79
     3
170
     0
171
     0
290
     0
174
     0
 93
        1
 44
0.0
173
     0
291
     0
 45
0.0
1001
ACAD
1000
AcDbSavedByObjectVersion
1070
     0
  0
VISUALSTYLE
  5
FA
102
{ACAD_XDICTIONARY
360
C2FD
102
}
102
{ACAD_REACTORS
330
EF
102
}
330
EF
100
AcDbVisualStyle
  2
Dim
 70
    11
 71
     2
 72
     2
 73
     1
 90
        0
 40
-0.6
 41
-30.0
 62
     5
 63
     7
 74
     1
 91
        4
 64
     7
 65
   257
 75
     1
175
     1
 42
1.0
 92
        8
 66
     7
 43
1.0
 76
     1
 77
     6
 78
     2
 67
     7
 79
     5
170
     0
171
     0
290
     0
174
     0
 93
        1
 44
-50.0
173
     0
291
     1
 45
0.0
1001
ACAD
1000
AcDbSavedByObjectVersion
1070
     0
  0
VISUALSTYLE
  5
1E6
102
{ACAD_XDICTIONARY
360
C30F
102
}
102
{ACAD_REACTORS
330
EF
102
}
330
EF
100
AcDbVisualStyle
  2
EdgeColorOff
 70
    22
 71
     2
 72
     2
 73
     0
 90
        0
 40
-0.6
 41
-30.0
 62
     5
 63
     7
 74
     1
 91
        4
 64
     7
 65
   257
 75
     1
175
     1
 42
1.0
 92
        8
 66
     7
 43
1.0
 76
     1
 77
     6
 78
     2
 67
     7
 79
     5
170
     0
171
     0
290
     0
174
     0
 93
        1
 44
0.0
173
     0
291
     1
 45
0.0
1001
ACAD
1000
AcDbSavedByObjectVersion
1070
     0
  0
VISUALSTYLE
  5
FE
102
{ACAD_XDICTIONARY
360
C305
102
}
102
{ACAD_REACTORS
330
EF
102
}
330
EF
100
AcDbVisualStyle
  2
Facepattern
 70
    15
 71
     2
 72
     2
 73
     1
 90
        0
 40
-0.6
 41
-30.0
 62
     5
 63
     7
 74
     1
 91
        4
 64
     7
 65
   257
 75
     1
175
     1
 42
1.0
 92
        8
 66
     7
 43
1.0
 76
     1
 77
     6
 78
     2
 67
     7
 79
     5
170
     0
171
     0
290
     0
174
     0
 93
        1
 44
0.0
173
     0
291
     1
 45
0.0
1001
ACAD
1000
AcDbSavedByObjectVersion
1070
     0
  0
VISUALSTYLE
  5
F0
102
{ACAD_XDICTIONARY
360
C2E9
102
}
102
{ACAD_REACTORS
330
EF
102
}
330
EF
100
AcDbVisualStyle
  2
Flat
 70
     0
 71
     2
 72
     1
 73
     1
 90
        2
 40
-0.6
 41
30.0
 62
     5
 63
     7
 74
     0
 91
        0
 64
     7
 65
   257
 75
     1
175
     1
 42
1.0
 92
        8
 66
     7
 43
1.0
 76
     1
 77
     6
 78
     2
 67
     7
 79
     5
170
     0
171
     0
290
     0
174
     0
 93
       13
 44
0.0
173
     0
291
     1
 45
0.0
1001
ACAD
1000
AcDbSavedByObjectVersion
1070
     0
  0
VISUALSTYLE
  5
F1
102
{ACAD_XDICTIONARY
360
C2EB
102
}
102
{ACAD_REACTORS
330
EF
102
}
330
EF
100
AcDbVisualStyle
  2
FlatWithEdges
 70
     1
 71
     2
 72
     1
 73
     1
 90
        2
 40
-0.6
 41
30.0
 62
     5
 63
     7
 74
     1
 91
        0
 64
     7
 65
   257
 75
     1
175
     1
 42
1.0
 92
        0
 66
   257
 43
1.0
 76
     1
 77
     6
 78
     2
 67
     7
 79
     5
170
     0
171
     0
290
     0
174
     0
 93
       13
 44
0.0
173
     0
291
     1
 45
0.0
1001
ACAD
1000
AcDbSavedByObjectVersion
1070
     0
  0
VISUALSTYLE
  5
F2
102
{ACAD_XDICTIONARY
360
C2ED
102
}
102
{ACAD_REACTORS
330
EF
102
}
330
EF
100
AcDbVisualStyle
  2
Gouraud
 70
     2
 71
     2
 72
     2
 73
     1
 90
        2
 40
-0.6
 41
30.0
 62
     5
 63
     7
 74
     0
 91
        0
 64
     7
 65
   257
 75
     1
175
     1
 42
1.0
 92
        0
 66
     7
 43
1.0
 76
     1
 77
     6
 78
     2
 67
     7
 79
     5
170
     0
171
     0
290
     0
174
     0
 93
       13
 44
0.0
173
     0
291
     1
 45
0.0
1001
ACAD
1000
AcDbSavedByObjectVersion
1070
     0
  0
VISUALSTYLE
  5
F3
102
{ACAD_XDICTIONARY
360
C2EF
102
}
102
{ACAD_REACTORS
330
EF
102
}
330
EF
100
AcDbVisualStyle
  2
GouraudWithEdges
 70
     3
 71
     2
 72
     2
 73
     1
 90
        2
 40
-0.6
 41
30.0
 62
     5
 63
     7
 74
     1
 91
        0
 64
     7
 65
   257
 75
     1
175
     1
 42
1.0
 92
        0
 66
   257
 43
1.0
 76
     1
 77
     6
 78
     2
 67
     7
 79
     5
170
     0
171
     0
290
     0
174
     0
 93
       13
 44
0.0
173
     0
291
     1
 45
0.0
1001
ACAD
1000
AcDbSavedByObjectVersion
1070
     0
  0
VISUALSTYLE
  5
F7
102
{ACAD_XDICTIONARY
360
C2F7
102
}
102
{ACAD_REACTORS
330
EF
102
}
330
EF
100
AcDbVisualStyle
  2
Hidden
 70
     6
 71
     1
 72
     2
 73
     2
 90
        0
 40
-0.6
 41
-30.0
 62
     5
 63
     7
 74
     2
 91
        2
 64
     7
 65
   257
 75
     2
175
     1
 42
40.0
 92
        0
 66
   257
 43
1.0
 76
     1
 77
     6
 78
     2
 67
     7
 79
     3
170
     0
171
     0
290
     0
174
     0
 93
        1
 44
0.0
173
     0
291
     0
 45
0.0
1001
ACAD
1000
AcDbSavedByObjectVersion
1070
     0
  0
VISUALSTYLE
  5
1E4
102
{ACAD_XDICTIONARY
360
C30B
102
}
102
{ACAD_REACTORS
330
EF
102
}
330
EF
100
AcDbVisualStyle
  2
JitterOff
 70
    20
 71
     2
 72
     2
 73
     0
 90
        0
 40
-0.6
 41
-30.0
 62
     5
 63
     7
 74
     1
 91
        4
 64
     7
 65
   257
 75
     1
175
     1
 42
1.0
 92
       10
 66
     7
 43
1.0
 76
     1
 77
     6
 78
     2
 67
     7
 79
     5
170
     0
171
     0
290
     0
174
     0
 93
        1
 44
0.0
173
     0
291
     1
 45
0.0
1001
ACAD
1000
AcDbSavedByObjectVersion
1070
     0
  0
VISUALSTYLE
  5
FD
102
{ACAD_XDICTIONARY
360
C303
102
}
102
{ACAD_REACTORS
330
EF
102
}
330
EF
100
AcDbVisualStyle
  2
Linepattern
 70
    14
 71
     2
 72
     2
 73
     1
 90
        0
 40
-0.6
 41
-30.0
 62
     5
 63
     7
 74
     1
 91
        4
 64
     7
 65
   257
 75
     7
175
     7
 42
1.0
 92
        8
 66
     7
 43
1.0
 76
     1
 77
     6
 78
     2
 67
     7
 79
     5
170
     0
171
     0
290
     0
174
     0
 93
        1
 44
0.0
173
     0
291
     1
 45
0.0
1001
ACAD
1000
AcDbSavedByObjectVersion
1070
     0
  0
VISUALSTYLE
  5
1E5
102
{ACAD_XDICTIONARY
360
C30D
102
}
102
{ACAD_REACTORS
330
EF
102
}
330
EF
100
AcDbVisualStyle
  2
OverhangOff
 70
    21
 71
     2
 72
     2
 73
     0
 90
        0
 40
-0.6
 41
-30.0
 62
     5
 63
     7
 74
     1
 91
        4
 64
     7
 65
   257
 75
     1
175
     1
 42
1.0
 92
        9
 66
     7
 43
1.0
 76
     1
 77
     6
 78
     2
 67
     7
 79
     5
170
     0
171
     0
290
     0
174
     0
 93
        1
 44
0.0
173
     0
291
     1
 45
0.0
1001
ACAD
1000
AcDbSavedByObjectVersion
1070
     0
  0
VISUALSTYLE
  5
F9
102
{ACAD_XDICTIONARY
360
C2FB
102
}
102
{ACAD_REACTORS
330
EF
102
}
330
EF
100
AcDbVisualStyle
  2
Realistic
 70
     8
 71
     2
 72
     2
 73
     0
 90
        2
 40
-0.6
 41
30.0
 62
     5
 63
     7
 74
     0
 91
        0
 64
     7
 65
   257
 75
     1
175
     1
 42
1.0
 92
        8
 66
   257
 43
1.0
 76
     1
 77
     6
 78
     2
 67
     7
 79
     3
170
     0
171
     0
290
     0
174
     0
 93
       13
 44
0.0
173
     0
291
     0
 45
0.0
1001
ACAD
1000
AcDbSavedByObjectVersion
1070
     0
  0
VISUALSTYLE
  5
1F3
102
{ACAD_XDICTIONARY
360
C319
102
}
102
{ACAD_REACTORS
330
EF
102
}
330
EF
100
AcDbVisualStyle
  2
Shaded
 70
    27
 71
     2
 72
     2
 73
     1
 90
        2
 40
-0.6
 41
30.0
 62
     5
 63
     7
 74
     0
 91
        4
 64
     7
 65
   257
 75
     1
175
     1
 42
1.0
 92
        8
 66
   257
 43
1.0
 76
     1
 77
     6
 78
     2
 67
     8
 79
     3
170
     0
171
     0
290
     0
174
     0
 93
        5
 44
0.0
173
     0
291
     0
 45
0.0
1001
ACAD
1000
AcDbSavedByObjectVersion
1070
     0
  0
VISUALSTYLE
  5
1F2
102
{ACAD_XDICTIONARY
360
C317
102
}
102
{ACAD_REACTORS
330
EF
102
}
330
EF
100
AcDbVisualStyle
  2
Shaded with edges
 70
    26
 71
     2
 72
     2
 73
     1
 90
        2
 40
-0.6
 41
30.0
 62
     5
 63
     7
 74
     1
 91
        2
 64
     7
 65
   257
 75
     2
175
     1
 42
1.0
 92
        8
 66
   257
 43
1.0
 76
     1
 77
     6
 78
     2
 67
     7
 79
     3
170
     0
171
     0
290
     0
174
     0
 93
        5
 44
0.0
173
     0
291
     0
 45
0.0
1001
ACAD
1000
AcDbSavedByObjectVersion
1070
     0
  0
VISUALSTYLE
  5
1EF
102
{ACAD_XDICTIONARY
360
C311
102
}
102
{ACAD_REACTORS
330
EF
102
}
330
EF
100
AcDbVisualStyle
  2
Shades of Gray
 70
    23
 71
     2
 72
     2
 73
     3
 90
        0
 40
-0.6
 41
-30.0
 62
     5
 63
     7
 74
     2
 91
        2
 64
     7
 65
     7
 75
     1
175
     1
 42
40.0
 92
        8
 66
     7
 43
1.0
 76
     1
 77
     6
 78
     2
 67
     7
 79
     3
170
     0
171
     0
290
     0
174
     0
 93
        1
 44
0.0
173
     0
291
     0
 45
0.0
1001
ACAD
1000
AcDbSavedByObjectVersion
1070
     0
  0
VISUALSTYLE
  5
1F0
102
{ACAD_XDICTIONARY
360
C313
102
}
102
{ACAD_REACTORS
330
EF
102
}
330
EF
100
AcDbVisualStyle
  2
Sketchy
 70
    24
 71
     1
 72
     2
 73
     2
 90
        0
 40
-0.6
 41
-30.0
 62
     5
 63
     7
 74
     2
 91
        2
 64
     7
 65
     7
 75
     1
175
     1
 42
40.0
 92
       11
 66
     7
 43
1.0
 76
     1
 77
     6
 78
     2
 67
     7
 79
     6
170
     0
171
     0
290
     0
174
     0
 93
        1
 44
0.0
173
     0
291
     0
 45
0.0
1001
ACAD
1000
AcDbSavedByObjectVersion
1070
     0
  0
VISUALSTYLE
  5
FC
102
{ACAD_XDICTIONARY
360
C301
102
}
102
{ACAD_REACTORS
330
EF
102
}
330
EF
100
AcDbVisualStyle
  2
Thicken
 70
    13
 71
     2
 72
     2
 73
     1
 90
        0
 40
-0.6
 41
-30.0
 62
     5
 63
     7
 74
     1
 91
        4
 64
     7
 65
   257
 75
     1
175
     1
 42
1.0
 92
       12
 66
     7
 43
1.0
 76
     1
 77
     6
 78
     2
 67
     7
 79
     5
170
     0
171
     0
290
     0
174
     0
 93
        1
 44
0.0
173
     0
291
     1
 45
0.0
1001
ACAD
1000
AcDbSavedByObjectVersion
1070
     0
  0
VISUALSTYLE
  5
F6
102
{ACAD_XDICTIONARY
360
C2F5
102
}
102
{ACAD_REACTORS
330
EF
102
}
330
EF
100
AcDbVisualStyle
  2
Wireframe
 70
     5
 71
     0
 72
     2
 73
     0
 90
        0
 40
-0.6
 41
-30.0
 62
     5
 63
     7
 74
     1
 91
        4
 64
     7
 65
   257
 75
     1
175
     1
 42
1.0
 92
        0
 66
   257
 43
1.0
 76
     1
 77
     6
 78
     2
 67
     7
 79
     3
170
     0
171
     0
290
     0
174
     0
 93
        1
 44
0.0
173
     0
291
     0
 45
0.0
1001
ACAD
1000
AcDbSavedByObjectVersion
1070
     0
  0
VISUALSTYLE
  5
1F1
102
{ACAD_XDICTIONARY
360
C315
102
}
102
{ACAD_REACTORS
330
EF
102
}
330
EF
100
AcDbVisualStyle
  2
X-Ray
 70
    25
 71
     2
 72
     2
 73
     1
 90
        1
 40
0.5
 41
-30.0
 62
     5
 63
     7
 74
     1
 91
        0
 64
     7
 65
   257
 75
     1
175
     1
 42
1.0
 92
        8
 66
     7
 43
1.0
 76
     1
 77
     6
 78
     2
 67
     7
 79
     3
170
     0
171
     0
290
     0
174
     0
 93
       13
 44
0.0
173
     0
291
     0
 45
0.0
1001
ACAD
1000
AcDbSavedByObjectVersion
1070
     0
  0
DICTIONARYVAR
  5
146
102
{ACAD_REACTORS
330
5E
102
}
330
5E
100
DictionaryVariables
280
     0
  1
1:1
  0
DICTIONARYVAR
  5
259
102
{ACAD_REACTORS
330
5E
102
}
330
5E
100
DictionaryVariables
280
     0
  1
3.500000
  0
DICTIONARYVAR
  5
25A
102
{ACAD_REACTORS
330
5E
102
}
330
5E
100
DictionaryVariables
280
     0
  1
acadiso.lin
  0
DICTIONARYVAR
  5
145
102
{ACAD_REACTORS
330
5E
102
}
330
5E
100
DictionaryVariables
280
     0
  1
STANDARD
  0
DICTIONARYVAR
  5
84
102
{ACAD_REACTORS
330
5E
102
}
330
5E
100
DictionaryVariables
280
     0
  1
STANDARD
  0
DICTIONARYVAR
  5
227
102
{ACAD_REACTORS
330
5E
102
}
330
5E
100
DictionaryVariables
280
     0
  1
Metric50
  0
DICTIONARYVAR
  5
228
102
{ACAD_REACTORS
330
5E
102
}
330
5E
100
DictionaryVariables
280
     0
  1
Metric50
  0
DICTIONARYVAR
  5
5F
102
{ACAD_REACTORS
330
5E
102
}
330
5E
100
DictionaryVariables
280
     0
  1
2
  0
DICTIONARYVAR
  5
63
102
{ACAD_REACTORS
330
5E
102
}
330
5E
100
DictionaryVariables
280
     0
  1
1
  0
DICTIONARYVAR
  5
C28A
102
{ACAD_REACTORS
330
5E
102
}
330
5E
100
DictionaryVariables
280
     0
  1
0
  0
DICTIONARYVAR
  5
1AE
102
{ACAD_REACTORS
330
5E
102
}
330
5E
100
DictionaryVariables
280
     0
  1
0
  0
DICTIONARYVAR
  5
1AF
102
{ACAD_REACTORS
330
5E
102
}
330
5E
100
DictionaryVariables
280
     0
  1
0
  0
DICTIONARYVAR
  5
C288
102
{ACAD_REACTORS
330
5E
102
}
330
5E
100
DictionaryVariables
280
     0
  1
2
  0
DICTIONARYVAR
  5
C287
102
{ACAD_REACTORS
330
5E
102
}
330
5E
100
DictionaryVariables
280
     0
  1
1
  0
DICTIONARYVAR
  5
C2DA
102
{ACAD_REACTORS
330
5E
102
}
330
5E
100
DictionaryVariables
280
     0
  1
80.000000
  0
DICTIONARYVAR
  5
C2D9
102
{ACAD_REACTORS
330
5E
102
}
330
5E
100
DictionaryVariables
280
     0
  1
5.000000
  0
DICTIONARYVAR
  5
C289
102
{ACAD_REACTORS
330
5E
102
}
330
5E
100
DictionaryVariables
280
     0
  1
127
  0
DICTIONARYVAR
  5
C2DB
102
{ACAD_REACTORS
330
5E
102
}
330
5E
100
DictionaryVariables
280
     0
  1
2
  0
DICTIONARY
  5
C31D
330
21C
100
AcDbDictionary
280
     1
281
     1
  3
ACAD_XREC_ROUNDTRIP
360
C31E
  0
DICTIONARY
  5
C2E2
330
D3
100
AcDbDictionary
280
     1
281
     1
  3
ACAD_XREC_ROUNDTRIP
360
C2E3
  0
DICTIONARY
  5
C2E4
330
D7
100
AcDbDictionary
280
     1
281
     1
  3
ACAD_XREC_ROUNDTRIP
360
C2E5
  0
DICTIONARY
  5
C2DF
330
22
100
AcDbDictionary
280
     1
281
     1
  3
ACAD_XREC_ROUNDTRIP
360
C2E0
  0
DICTIONARY
  5
1F9
330
ED
100
AcDbDictionary
280
     1
281
     1
  3
ACAD_XREC_ROUNDTRIP
360
C2E7
  3
FBXASSET
360
1FA
  0
DICTIONARY
  5
1F7
330
EC
100
AcDbDictionary
280
     1
281
     1
  3
ACAD_XREC_ROUNDTRIP
360
C2E6
  3
FBXASSET
360
1F8
  0
DICTIONARY
  5
173
330
EE
100
AcDbDictionary
280
     1
281
     1
  3
ACAD_XREC_ROUNDTRIP
360
C2E8
  3
BUMPTILE
360
175
  3
DIFFUSETILE
360
174
  3
FBXASSET
360
1FB
  3
OPACITYTILE
360
176
  3
REFLECTIONTILE
360
177
  0
DICTIONARY
  5
C309
330
12E
100
AcDbDictionary
280
     1
281
     1
  3
ACAD_XREC_ROUNDTRIP
360
C30A
  0
DICTIONARY
  5
C31B
330
21A
100
AcDbDictionary
280
     1
281
     1
  3
ACAD_XREC_ROUNDTRIP
360
C31C
  0
DICTIONARY
  5
162
330
7F
100
AcDbDictionary
280
     1
281
     1
  3
ACAD_ROUNDTRIP_2008_TABLESTYLE_CELLSTYLEMAP
360
C2DC
  3
ACAD_XREC_ROUNDTRIP
360
C2E1
  0
DICTIONARY
  5
C2F3
330
F5
100
AcDbDictionary
280
     1
281
     1
  3
ACAD_XREC_ROUNDTRIP
360
C2F4
  0
DICTIONARY
  5
C2F1
330
F4
100
AcDbDictionary
280
     1
281
     1
  3
ACAD_XREC_ROUNDTRIP
360
C2F2
  0
DICTIONARY
  5
C2FF
330
FB
100
AcDbDictionary
280
     1
281
     1
  3
ACAD_XREC_ROUNDTRIP
360
C300
  0
DICTIONARY
  5
C307
330
FF
100
AcDbDictionary
280
     1
281
     1
  3
ACAD_XREC_ROUNDTRIP
360
C308
  0
DICTIONARY
  5
C2F9
330
F8
100
AcDbDictionary
280
     1
281
     1
  3
ACAD_XREC_ROUNDTRIP
360
C2FA
  0
DICTIONARY
  5
C2FD
330
FA
100
AcDbDictionary
280
     1
281
     1
  3
ACAD_XREC_ROUNDTRIP
360
C2FE
  0
DICTIONARY
  5
C30F
330
1E6
100
AcDbDictionary
280
     1
281
     1
  3
ACAD_XREC_ROUNDTRIP
360
C310
  0
DICTIONARY
  5
C305
330
FE
100
AcDbDictionary
280
     1
281
     1
  3
ACAD_XREC_ROUNDTRIP
360
C306
  0
DICTIONARY
  5
C2E9
330
F0
100
AcDbDictionary
280
     1
281
     1
  3
ACAD_XREC_ROUNDTRIP
360
C2EA
  0
DICTIONARY
  5
C2EB
330
F1
100
AcDbDictionary
280
     1
281
     1
  3
ACAD_XREC_ROUNDTRIP
360
C2EC
  0
DICTIONARY
  5
C2ED
330
F2
100
AcDbDictionary
280
     1
281
     1
  3
ACAD_XREC_ROUNDTRIP
360
C2EE
  0
DICTIONARY
  5
C2EF
330
F3
100
AcDbDictionary
280
     1
281
     1
  3
ACAD_XREC_ROUNDTRIP
360
C2F0
  0
DICTIONARY
  5
C2F7
330
F7
100
AcDbDictionary
280
     1
281
     1
  3
ACAD_XREC_ROUNDTRIP
360
C2F8
  0
DICTIONARY
  5
C30B
330
1E4
100
AcDbDictionary
280
     1
281
     1
  3
ACAD_XREC_ROUNDTRIP
360
C30C
  0
DICTIONARY
  5
C303
330
FD
100
AcDbDictionary
280
     1
281
     1
  3
ACAD_XREC_ROUNDTRIP
360
C304
  0
DICTIONARY
  5
C30D
330
1E5
100
AcDbDictionary
280
     1
281
     1
  3
ACAD_XREC_ROUNDTRIP
360
C30E
  0
DICTIONARY
  5
C2FB
330
F9
100
AcDbDictionary
280
     1
281
     1
  3
ACAD_XREC_ROUNDTRIP
360
C2FC
  0
DICTIONARY
  5
C319
330
1F3
100
AcDbDictionary
280
     1
281
     1
  3
ACAD_XREC_ROUNDTRIP
360
C31A
  0
DICTIONARY
  5
C317
330
1F2
100
AcDbDictionary
280
     1
281
     1
  3
ACAD_XREC_ROUNDTRIP
360
C318
  0
DICTIONARY
  5
C311
330
1EF
100
AcDbDictionary
280
     1
281
     1
  3
ACAD_XREC_ROUNDTRIP
360
C312
  0
DICTIONARY
  5
C313
330
1F0
100
AcDbDictionary
280
     1
281
     1
  3
ACAD_XREC_ROUNDTRIP
360
C314
  0
DICTIONARY
  5
C301
330
FC
100
AcDbDictionary
280
     1
281
     1
  3
ACAD_XREC_ROUNDTRIP
360
C302
  0
DICTIONARY
  5
C2F5
330
F6
100
AcDbDictionary
280
     1
281
     1
  3
ACAD_XREC_ROUNDTRIP
360
C2F6
  0
DICTIONARY
  5
C315
330
1F1
100
AcDbDictionary
280
     1
281
     1
  3
ACAD_XREC_ROUNDTRIP
360
C316
  0
XRECORD
  5
C31E
102
{ACAD_REACTORS
330
C31D
102
}
330
C31D
100
AcDbXrecord
280
     1
102
DISPLAYNAME
  1
Metric50
102
FLAGS
 90
        0
  0
XRECORD
  5
C2E3
102
{ACAD_REACTORS
330
C2E2
102
}
330
C2E2
100
AcDbXrecord
280
     1
102
SHADEPLOT
 70
     0
102
SHADEPLOTRESLEVEL
 70
     2
102
SHADEPLOTCUSTOMDPI
 70
   300
  0
XRECORD
  5
C2E5
102
{ACAD_REACTORS
330
C2E4
102
}
330
C2E4
100
AcDbXrecord
280
     1
102
SHADEPLOT
 70
     0
102
SHADEPLOTRESLEVEL
 70
     2
102
SHADEPLOTCUSTOMDPI
 70
   300
  0
XRECORD
  5
C2E0
102
{ACAD_REACTORS
330
C2DF
102
}
330
C2DF
100
AcDbXrecord
280
     1
102
SHADEPLOT
 70
     0
102
SHADEPLOTRESLEVEL
 70
     2
102
SHADEPLOTCUSTOMDPI
 70
   300
  0
XRECORD
  5
C2E7
102
{ACAD_REACTORS
330
1F9
102
}
330
1F9
100
AcDbXrecord
280
     1
102
MATERIAL
148
0.0
149
0.0
149
0.0
 93
        0
 94
       63
282
     0
 72
     1
 77
     1
171
     1
175
     1
179
     1
273
     0
  0
XRECORD
  5
1FA
102
{ACAD_REACTORS
330
1F9
102
}
330
1F9
100
AcDbXrecord
280
     1
 70
     1
 90
429727718
  1
D62C5603-E3A1-4AEA-B7FB-FE5D8D0755AF
310
504B03040A0000080000CC70623B3DEE336E79000000790000001B0000006175746F6465736B2D64657369676E2D7061636B6167652E786D6C3C3F786D6C2076657273696F6E3D22312E302220656E636F64696E673D227574662D3822203F3E3C666F726D6174733E3C666F726D61743E687474703A2F2F736368656D612E
310
6175746F6465736B2E636F6D2F64657369676E2D7061636B6167652F323030393C2F666F726D61743E3C2F666F726D6174733E504B0304140006080800CC70623BD486FD9CA0000000F4000000130000005B436F6E74656E745F54797065735D2E786D6C7D8EC10E82300C865F65E91D8A1E8C310C0EEA1BF002731658846E
310
D98AC1B77784ABF1D8FE5FBFBF75BBCE937A534CCEB38643598122B6FEE978D0B0485F9C41B54DDD7D022595594E1A469170414C76A4D9A4D207E29CF43ECE46F218070CC6BECC4078ACAA135ACF422C856C0E68EA1BF5669944DDD7BCDE7B1F8E415D77AECB980613C2E4AC91FC167A2B244592486606FC29C8FD7F045B9A
310
EF7053A7E60B504B0304140006080800CC70623B853B8169EB0000007C01000008000000636F72652E786D6C8D90416EC3201045AF62CDB6C206821CC7C244919D9CA01740401C94182C03558F5F9C3852BBEB6A467FFE9B197D7EFC9E1EC5975982F5AE035262288C535E5B377690E21535501C055FBC8FBF6C503839990E
310
5619041F179FE64D52DE45E362569DD7661365082642A11EB9E920A89B99642953CC8E702F67A9EE7234257977194EC9EAE275C4EABCCF5EAD5940D4AC6F0E35A568B8F43562CD7046CD199FD07E60174276A7BE677B5EADB0E0D14EEFFB6A31321A0D82627C4084204C3F096B71DD52F6819B16635EADF63F509AF53FA164
310
5DDCD1EDDD17164090FCC8732078B56691CB33A85CD7DCC40F504B0304140006080800CC70623B55019EA25F0000007C00000007000000636E782E786D6C4DCB3B0E80201045D1AD90E915ED2CF8AC45050C11660C8261F98AB1B07AC9C97D42D718D865D3E909258CFD00CCE24AC6E326A164D74DC0B4128928FF32603847
310
2BA13128B1252AC747C6BAB984FC68F0B87FE8960A5C09FE86CFB69FBA01504B0304140006080800CC70623BDBABAAF470010000D40300000C0000006662782F636F72652E786D6CC553D16E823014FD95A6AF4B694182CC941A83FA05FB810A9511A125A5257EFE2E82712ECEB8A7F100CD39F7F69E734AF9FADC366850B6
310
AF8DCE7018308C942E4C59EB2AC3DE1D498AD15A706B8CFB56869196ADCAF00863C12B6B7C374385D14E6907A836A59A41D9F7CA615434B0C8705F7CAA5606D23BA8E84F41278B93AC54100640439DE0BDB320004D43C63716C7C399D30917DCFBBA9CD9BA8469F5B156168B24CED3F7248AC8769F27244EB73B92EED8862C
310
B7F13E0C179B3C8F979C8ECD82BBBABDAA2BAC924E9558448CBD9330242CFA08E3154B5651FCC6D215639C8EE5774DBE2B5F6CF2B5768B68963BB5F5588420E442FC700B1139D4CB01F450C1E918227C2E09DF070D8140C84E1E9AAB8F1340832A9CB13130A5F1376A908D57309505ECF2A0DF179C4E9D30F5B239B87E3823
310
7A79C6F31DE1A8A5AEC08474B03C7837EAE4938639B44E5932B833D2C6B6B279CDC613877FA26EE21F4A2A4C63EC7F29A2F301D1F9F7A0E37D145F504B0304140006080800CC70623B9C113CC27E0000009D0000000B0000006662782F636E782E786D6C4DCCDF0A83201C86E15B91DFB94BFB330DD428C8FB886521330DA7
310
6397BF1A1DECE883878F57749FCDA1B7892F1BBC047A23808C7F84D9FA55424E0BE6803A256208E9EF06C84F9B91703228B1C690F78B66B34CD9A5439DF5CF0BFBF65E35BCA1B8D6A5C6F540381E886698B5741C695F9503EBA150A2F8958E3DC3EA0B504B0304140006080800CC70623B7DF2F77C2A010000120200003100
310
00006662782F41393633353835312D344632462D344230382D423046372D3739314545314133324237412F636F72652E786D6C8D51DB8EC22014FC15C2939B0D2DB4B45643319AE817EC0F6041255A68B86CFCFC856D4D76DF7CE190393373060EDB3DC707F856CE6B6B7A480A0C81328395DA5C7B18C3057510EC3873D686
310
3F34088C18550F330C39BB3A1BA7051AAC09CA84841A2BD5020AEF55806078A44B0FFD7053A328440C89E1EFC52486BBB8AA8214A99D789CF9E05200300FC927E4FB4D5B375D43103D5527440FB843077C5AA3F5861C8F645F5787F59E95B390B318B55CE45AA638FAA2957BD7248B390B7A7CC51F9C124149C82B8C378810
310
84AB2F42B7B8DD56F413775B8C5999E9FF4471926F8AA236A1AE96B8B3CC434E5839373893369E1FAF30EA395917409EB7F26AF8801C171837A4A6AC9C89E9F9C9B1A58BA30FD6A5EF5DDDCF894B9AD9B6A59C957943A9FCAE2FD5BC4DFE03504B0304140006080800CC70623BAD7543B64E01000033030000300000006662
310
782F41393633353835312D344632462D344230382D423046372D3739314545314133324237412F636E782E786D6CD593CD6EC32010845F0571AD6CE3D48AD20813A9873E410FBD12D82434182C7EAAE6EDBB2424CD25871E7B41D6EC30B3FA84F9E67BB2E40B4234DE8DB46F1925E094D7C6ED479AD3AE5951B2113C789FEE
310
6C943839C1488B4C05DF079FE72A69D8C96C13AAD6B8631503449F83828872B949AC57D26200B826A308D316B4064D6E46FCDA41C05550DC9E483A00797BFD207EFB092A45DE9514C1BBD22178396BD39D891265658C238DEA00936C654E5E433CB65A26D9F6EDB5EBC14EBF49A45CB856E66048291F6939A9A81BB5C89177
310
38143CA680F4AA299D66A042CEB3354A2684DC9D8D178FE0D9B8B41CAAD720F880EE7EF93C0C18769E099ECC04D5A102C8049A8A05632F4DDF376CF1DE0F6BB65C2F8627B65A33C6BB62177CEBBDAD973006829F89F22E814B54F4BC2BE347F8AA8F681390B50FA73F804400B5F542E796F19FF974E7F78DB802FE05E20750
310
4B0304140006080800CC70623BE75B7789680500003C100000340000006662782F41393633353835312D344632462D344230382D423046372D3739314545314133324237412F6F626A656374732E786D6CAD575B8F9B3818FD2B887D06C22499CB8AA1CA655245D5B455A356FB305264C061D8018C6C3393D95FBFC7600890
310
A4CD5EF210B0B1BFEBF98E3F7B1FF6596ABC522E1296DF9BAE3D320D9A872C4AF2F8DE2CE5CEBA358D0FBEC719939D65A691938CDE9B6ADAF4BD98B3B2D05311DD91329583D9D5FC0F438434A7A611A644887B5384CF34233629258BA878B12322891DEFF6B66BD70BFB62634E8AE781D082709A4B588AF91C528CDA28B73F
310
1C998EEF39EABBEFA97FBD6A7C7E9553F9D3D79FE442923C3C523610337627CB87ABE99D359D4CC6D6E4FACAB5E6ABF9D2726FC6A3C5F56271377BB88362213924694B38DD99FE47C48627A1E7D49F5A8BB5E1A74C0A599ED3B0F21F1E56366B89112D681E218F0915D0D6F17AD41FBA2A369DCF6335D62ABBD39779D5DDD1
310
11D4D8DE3CBB96B2E04FB8202E41051754A1AA8E8F76B4C6DFE810B580B1547F4B84911149794252234D024EF8BBE963A95AE27B3D310A9D5C215C7960FAEE415ED75694C6AFB17BCACA5D99A60A9AA65F217B0BFC53292ACB92BF283FAD0D3621576592CB5BED907C2FA8E9DF794E35E97BEA31BED21FEB401ABB94C44839
310
DCACBF0E1C5DA8DA5B2F4DFFD32AD86F543D9E565E7056502E157C00AD2671CD534549AB752FCA9CDA00677A313F04E51B22FF19E57B300579E3C97EB29F682D92935CEC18CF901B7B54FD8C51F362B56FC72FE0B3C1EAE335EDCCBF5AEC39ADB17DC238973F804BA5E6F6BFE7AF1FB32E523BE9F3BD571418E3631DCA4D48
310
5250CF639223210A9446CA30052EDF057BD35F8329C1ECD84552BF0DC8D18BE7BCE23BFE6BD960AB4A7DE79923A103BEBD80F911CBAA2C60DB19B01CF164A5583B772EE6D3FFA56666CBCDA74DC97724A48F9A58967497E489C4D979006FD7A05E227A1EBDD0F737C623387A9C844D3709995625106D157315F8B8392CD4E0
310
A0B9A720C4BE9829CEF37EA1E13111214D53925356365ADA634861B52519DD27A00AEB808EAF0628E6F435519D446F45CF2C9CF5214F0A15B2F6D06B79DA3EE3CBF7F56780D2F4E7EF73A0F5E5B02A38D07DC852C6B7C1FBB6664213E0C39E3EBA7FF4E1AD23EA2829407C85E586727488B751B2DB9502BC7B228A3FD68B6E
310
A65A22397E690AA8D158D7E404EC8CDA235CC3B7D1898680131CEC2CDF2638C65196279577750F15884AEE19F94199155B92B13297978469D4F8D358DF0AEF7631E28DC8F0D9F437D5D39A83B2231A1D52D543813A824EF8D44BCFF2FA6A31BD1E8DAD87F1CCB526B3879935BF59CDADD5C37479BB1CDD4CA7B3556B516589
310
EF352754B706114D9C885EC9131DE6EFEB43D99AFE2391C2F958179413D7CFEF6B1B6DB1E7600F00DE6E5C67454A339A4BA2E0FBA85ED26F045D454F463DBFCE484C2F90F2E5E3666003662ED8F755951A7D1BECD5B30B550B2785C8E7320B7292A4838DDA71BBC863ED7613CAF659337A3354231D4FF4A182A54904C2898C
310
98B28C4AD0CE056CCF332A80986E571EE9DBC305BB5FEB7E509220A58D25CF042D712A806AC0AD0C657FDEF80D2D9CEAA2EE4D1C76F60BFE74219A06527D6F82DF6412526107381E55E353090704D085B52408A8913C4ED159D79BDA71BB4BC506F4831350EB6F975CD22D69BF7AC49B91A2C0A9DDA3D5CA36AD20FC478E37
310
E61844E2352865EBCB61A275A65283CAAA9DD27703B4102F5AF51EF5F573B75CBB5AD38BC845F7A49F82A0966A49C2E3EA5EA0ECD326CD965F1DB402C6FA8B51A4658C5C5E2EC9E214602E55810345408596591009A82E7E7FFACA19EEA299B14A0081A705CB3296EBC14CDF658DCD336EA6D1136881AAEB87B81AB9EE53D5
310
F5EB8BC8362082DA24122F98680A4E7930C01A0079749CEA14382A0783E5EBA5A10F8C098456A03D6A4AEB6BB881E2513747552A5DB22C7EDAF83BD5528081A365F7FF06504B0304140006080000CC70623B000000000000000000000000350000006662782F41393633353835312D344632462D344230382D423046372D37
310
39314545314133324237412F76657274696365732E62696E504B0304140006080800CC70623BF270F1330600000004000000360000006662782F41393633353835312D344632462D344230382D423046372D3739314545314133324237412F747269616E676C65732E62696E636660600000504B0304140006080000CC7062
310
3B000000000000000000000000370000006662782F41393633353835312D344632462D344230382D423046372D3739314545314133324237412F617474726962757465732E62696E504B0304140006080800CC70623B08DA0BD19000000041010000360000006662782F41393633353835312D344632462D344230382D4230
310
46372D3739314545314133324237412F6469726563746F72792E786D6C858F410AC3201045AF22B36F53E9A60B35CBEEBAE80D244E44489C6234F4F835464A48035D0DF398FF9F8AF63D0E6CC63039F212F8F9020C7D47C6792B21C5FE7403D62A1188E2E60C98D7234A5830286103A55745067B9D86B8A3CF9C7F90C11DE6
310
07FB144396D7B6A82D282E9A152AD114D5EF2CB866EEE831B8EEA07A7BB5A8D7D61A2BAAEB7FD5F70921FF497D00504B0304140006080800CC70623BEDD1DC58FD000000A00100003B0000006662782F41393633353835312D344632462D344230382D423046372D3739314545314133324237412F7265736F75726365732F
310
636F72652E786D6C8D504B6E833010BD0A9A6D65B00922041947112427E8052C33A156828DFCA97AFC9A40A576D7CDCCE87D344F8F9FBFE667F689CE6B6B3A6039850C8DB2A336530731DC4903D95970676DF82583CCC8193B5861107C72362E3BA4AC096842428D1D7107A5F7182053CF7474E0D507CE32973124857FE48B
310
540F3961CEF244279DE03EB81420DB9EAC1384436FA353E879B1B182C7A8C75DA3C7F453DF353A1075D537A7BA6464B8F535A99AE14A9A2BBD90E350DD183B5CFABE3AF262350B1EF4FC9351399401471025A527C218A1E53BAB5A5AB765F5469B96525EACF23FA6B88CFF34456DC2A1DCE36E360F82A5202F42F062ED2BAD
310
579969AFDD8A6F504B010214000A0000080000CC70623B3DEE336E79000000790000001B00000000000000000000000000000000006175746F6465736B2D64657369676E2D7061636B6167652E786D6C504B01021400140006080800CC70623BD486FD9CA0000000F40000001300000000000000000000000000B20000005B
310
436F6E74656E745F54797065735D2E786D6C504B01021400140006080800CC70623B853B8169EB0000007C010000080000000000000000000000000083010000636F72652E786D6C504B01021400140006080800CC70623B55019EA25F0000007C000000070000000000000000000000000094020000636E782E786D6C504B
310
01021400140006080800CC70623BDBABAAF470010000D40300000C00000000000000000000000000180300006662782F636F72652E786D6C504B01021400140006080800CC70623B9C113CC27E0000009D0000000B00000000000000000000000000B20400006662782F636E782E786D6C504B01021400140006080800CC70
310
623B7DF2F77C2A010000120200003100000000000000000000000000590500006662782F41393633353835312D344632462D344230382D423046372D3739314545314133324237412F636F72652E786D6C504B01021400140006080800CC70623BAD7543B64E010000330300003000000000000000000000000000D2060000
310
6662782F41393633353835312D344632462D344230382D423046372D3739314545314133324237412F636E782E786D6C504B01021400140006080800CC70623BE75B7789680500003C10000034000000000000000000000000006E0800006662782F41393633353835312D344632462D344230382D423046372D3739314545
310
314133324237412F6F626A656374732E786D6C504B01021400140006080000CC70623B0000000000000000000000003500000000000000000000000000280E00006662782F41393633353835312D344632462D344230382D423046372D3739314545314133324237412F76657274696365732E62696E504B01021400140006
310
080800CC70623BF270F133060000000400000036000000000000000000000000007B0E00006662782F41393633353835312D344632462D344230382D423046372D3739314545314133324237412F747269616E676C65732E62696E504B01021400140006080000CC70623B0000000000000000000000003700000000000000
310
000000000000D50E00006662782F41393633353835312D344632462D344230382D423046372D3739314545314133324237412F617474726962757465732E62696E504B01021400140006080800CC70623B08DA0BD1900000004101000036000000000000000000000000002A0F00006662782F41393633353835312D344632
310
462D344230382D423046372D3739314545314133324237412F6469726563746F72792E786D6C504B01021400140006080800CC70623BEDD1DC58FD000000A00100003B000000000000000000000000000E1000006662782F41393633353835312D344632462D344230382D423046372D3739314545314133324237412F7265
310
736F75726365732F636F72652E786D6C504B0506000000000E000E0080040000641100000000
  0
XRECORD
  5
C2E6
102
{ACAD_REACTORS
330
1F7
102
}
330
1F7
100
AcDbXrecord
280
     1
102
MATERIAL
148
0.0
149
0.0
149
0.0
 93
        0
 94
       63
282
     0
 72
     1
 77
     1
171
     1
175
     1
179
     1
273
     0
  0
XRECORD
  5
1F8
102
{ACAD_REACTORS
330
1F7
102
}
330
1F7
100
AcDbXrecord
280
     1
 70
     1
 90
429727718
  1
30362254-06B7-45E0-A893-8CFA70E3D6BC
310
504B03040A0000080000CC70623B3DEE336E79000000790000001B0000006175746F6465736B2D64657369676E2D7061636B6167652E786D6C3C3F786D6C2076657273696F6E3D22312E302220656E636F64696E673D227574662D3822203F3E3C666F726D6174733E3C666F726D61743E687474703A2F2F736368656D612E
310
6175746F6465736B2E636F6D2F64657369676E2D7061636B6167652F323030393C2F666F726D61743E3C2F666F726D6174733E504B0304140006080800CC70623BD486FD9CA0000000F4000000130000005B436F6E74656E745F54797065735D2E786D6C7D8EC10E82300C865F65E91D8A1E8C310C0EEA1BF002731658846E
310
D98AC1B77784ABF1D8FE5FBFBF75BBCE937A534CCEB38643598122B6FEE978D0B0485F9C41B54DDD7D022595594E1A469170414C76A4D9A4D207E29CF43ECE46F218070CC6BECC4078ACAA135ACF422C856C0E68EA1BF5669944DDD7BCDE7B1F8E415D77AECB980613C2E4AC91FC167A2B244592486606FC29C8FD7F045B9A
310
EF7053A7E60B504B0304140006080800CC70623B1EC5D7A3EB0000007C01000008000000636F72652E786D6C8D90416EC3201045AF82665B6103C6756C6122AB4D4ED00B204C5C94182C03558F5F9C3852BBEB6A467FFE9B197D71FC9E6FE8CBACC17AD7032D0820E3B41FAD9B7A48F1820F808E52ACDEC75F36404ECDA687
310
4D0629A6D5A76597B477D1B89855E747B38B2A041301E95B6E7A08FAD3CCAA50296647B8168BD2573599823EBB0CA76447F43862C7BCCF5EAC59410E4DDD9C7973C2755553CCCFA4C603E3040F1565ED3B1FDE4E432BCA0D9622DAF9795FAF464533826484B498524CD807E51D79ED187F21878E10516EF63F505AC67F42C9
310
BA58B1FDDD071640D2FCC87D2045B96591CB3DA85CB7DCE40F504B0304140006080800CC70623B55019EA25F0000007C00000007000000636E782E786D6C4DCB3B0E80201045D1AD90E915ED2CF8AC45050C11660C8261F98AB1B07AC9C97D42D718D865D3E909258CFD00CCE24AC6E326A164D74DC0B4128928FF32603847
310
2BA13128B1252AC747C6BAB984FC68F0B87FE8960A5C09FE86CFB69FBA01504B0304140006080800CC70623B8C9102E971010000D40300000C0000006662782F636F72652E786D6CC5535B6E833010BC8AE5DF0A6C08340F1947A84D4ED00B38C6A128602363A31CBFCB234A53A551FA553EC09AD9F5CE8C31DB9E9B1AF5CA
310
7695D1198E428A91D2D214952E33ECDD315861B4E5CC1AE3BE9561A445A3323CC098B3D21ADFCE9034DA29ED00D5A6503328BA4E398C640D8B0C77F253352214DE4145770A5B214FA2546114020D759C75CE8200340D19DE981F0F6746269C33EFAB6266AB02A655C74A59CCF365BADC27CB5D902ED22848F6340DF238A141
310
BE88E2F57B92BFEDF23523433367AE6A2EEAA455C2A902F398D2751045018D3FA264435F3771F242571B4A1919CA6F9A7C5B3CD9E42BED16F12C776AEB308F40C848FC700B1139D4891EF410CEC810227CC6846F8386402064270EF5C5C709A05E49676C024C61FC95EA45ED154CA5211D1FF4FB8291A913A68E9B83EBBB33
310
E2A7673CDE118E5AE8124C0807CB8377834E366998436B950D7A7746DAD846D4CFD978E0F04FD455FC5D49D2D4C6FE9722321F10997F0F32DC47FE05504B0304140006080800CC70623BFFEA85907E0000009D0000000B0000006662782F636E782E786D6C4DCCD10A83201886E15B91FFDC95D95A811AB6F23E625948A6C3
310
E9D8E5AF46073BFAE0E1E365ED67B3E8ADC3CB78C7815C7240DA3DFC64DCC221C519D7805AC182F7F1EF06C88D9BE6703008B6049F9E274D7A1E938DBB5AE3D6131B2589BA0D3D965551E0B2EA732C9B9A624AAEB41E3A557677029960D9AFB4EF11165F504B0304140006080800CC70623B4FEEA4082C0100001202000031
310
0000006662782F39464131463745442D413632322D343644302D413938332D3331353338454246344243312F636F72652E786D6C8D515B6EC32010BC0AE2AB55850DD871ED0813254D72825EC00192A2C460F1A872FC42ED48ED5F7E00CDCECCCEB26C731F6FE05B39AFADE921293004CA082BB5B9F43086336A21D870E6AC
310
0D7F68109861543DCC30E4ECE26C9C164858139409093556AA051CBC570102714B8F1E7AF1A5C6A11862480C7F2DA6415C878B2A4891CA89C7990F2E050073937C42DE1DB7E4F87ED8A36D4329AA9B3D46DBAEAD504556557BD81DEBDD0761E52CE42C462D17B996298E3E6BE59E35C962CE821E1FF18553435012728A7187
310
0841987E927A8D9B35ADDF70BBC6989599FE4F1427F9A4286A132ABAC49D651EF234CD5CE04CDA78BA3DC2A8FB645D00B9DF8B57E215725C60BCA2A463E54C4CE327C7A65E1C7DB02E7DEFCBF594B864C5CA6CDBD49C957943E9FA5D5FBAF336F90F504B0304140006080800CC70623BAD7543B64E01000033030000300000
310
006662782F39464131463745442D413632322D343644302D413938332D3331353338454246344243312F636E782E786D6CD593CD6EC32010845F0571AD6CE3D48AD20813A9873E410FBD12D82434182C7EAAE6EDBB2424CD25871E7B41D6EC30B3FA84F9E67BB2E40B4234DE8DB46F1925E094D7C6ED479AD3AE5951B2113C
310
789FEE6C943839C1488B4C05DF079FE72A69D8C96C13AAD6B8631503449F83828872B949AC57D26200B826A308D316B4064D6E46FCDA41C05550DC9E483A00797BFD207EFB092A45DE9514C1BBD22178396BD39D891265658C238DEA00936C654E5E433CB65A26D9F6EDB5EBC14EBF49A45CB856E66048291F6939A9A81BB5
310
C8917738143CA680F4AA299D66A042CEB3354A2684DC9D8D178FE0D9B8B41CAAD720F880EE7EF93C0C18769E099ECC04D5A102C8049A8A05632F4DDF376CF1DE0F6BB65C2F8627B65A33C6BB62177CEBBDAD973006829F89F22E814B54F4BC2BE347F8AA8F681390B50FA73F804400B5F542E796F19FF974E7F78DB802FE05
310
E207504B0304140006080800CC70623B16AB87BA640500003C100000340000006662782F39464131463745442D413632322D343644302D413938332D3331353338454246344243312F6F626A656374732E786D6CAD575B6FA33818FD2B887DE6924B3BED8A326A92B68A663B534DD4D13E548A0C38942D60649B369D5FBFC7
310
600890A493BDE42160637FD7F31D7FF63E6FB3D478A55C242CBF3247B66B1A340F5994E4F19559CA8D75611A9F7D8F33263BCB4C232719BD32D5B4E97B316765A1A722BA21652A07B3B7B33F0D11D29C9A46981221AE4C113ED38CD8A4942CA2E2C58E882476BCD9DA23BB5ED8171B73523C0F841684D35CC252CCE79062D4
310
468DFA43D7747CCF51DF7D4FFDEB5593E3AB9CCA9FBEFE241792E4E19EB28198C968BAB8199F5D5A67D3E9C49A9E8F47D6EC76B6B0469F26EEFC7C3EBFBCBEB98462213924694B38DD98FE1D62C393D073EA4FADC5DAF04326852CCF6958F90F0F2B9BB5C48816348F90C7840A68EB78EDF68723159BCEE7891A6B95DDE9D3
310
BCEAEEE8086A6C6F9E5D4B59F0175C10A7A0820BAA5055C7473B5AE3CFDD452D602CD5DF12616444529E90D448938013FE6EFA58AA96F85E4F8C42275708571E98FE6827AF6B2B4AE3D7D83D64E5A64C53054DD3AF90BD06FEA9149565C94FCA0F6B834DC85599E4F2423B24DF0B6AFA979E534DFA9E7A4CC6FA631D486393
310
921829879BF5D781A373557BCB85E97FB90DB62B558F8795179C15944B051F40AB495CF35451D26A4727654E6D8033BD98EF82F21D91FF8AF2DD9982BCF1643BDD4EB516C9492E368C67C88DED563FC36D5EACF66DFF057C3658BDBFA69DF9578B3DA735B64F18C7F20770A9D45CFCF7FCF563D6456A277DBEF78A02637CA2
310
43B90A490AEAB94F72244481D24819A6C0E59B606BFA4B3025981DBB48EAB701D97BF19C577CC77F2D1B6C55A9EF3C732474C0B727303F625995056C3B02963D9EAC146BE78EC5FCEC7FA999EBC5EACBAAE41B12D27B4D2C0BBA49F244E2ECDC81B76B502F113D8F5EE8FB1BE3111CDD4FC2AA9B844CAB1288B68AB90A7CDC
310
1C166AB0D3DC5310625FCC14E779BFD0709F8890A629C9292B1B2DED31A4B0DA928CEE135085754027E3018A397D4D5427D15BD1330B677DC8934285AC3DF45A9EB68FF8F2B8FC0A509AFEECFD0FF2DE25CC6047F7214B195F07EFEB9A094D800F7BFAE8FED187B78EA8A3A400F115961BCAD1215E47C966530AF0EE8128FE
310
58CEBB996A8964FFA529A046635D9353B0336A8F700DDF46271A024E70B0B37C9DE01847591E54DED53D54202AB947E4076556AC49C6CA5C9E1226B7F1A7B1BE15DEED62C41B91E1B3E9AFAAA735036547343A925075041DF0A9979E893B391F8FCFA6967B3EFB644DCF6E5CEBFAE272625DCC6FAF3FB93793C5F90CE1EF57
310
407342756B10D1C489E8953CD1617E5CEECAD6F4EF8914CE5D5D504E5C3F1F9736DA62CFC11E00BCDDB8CC8A9466349744C1F75EBDA4DF09BA8A9E8C7A7E9991989E20E5DBDD6A6003664ED8F7A04A8DBE0DF6EAD9B9AA858342E47399053949D2C146EDB85DE4B176BB0965FBAC19BD19AA918E27FA50C1D22402E144464C
310
59462568E704B6E71915404CB72B8FF4EDE184DDAF753F284990D2C6926782963815403548A70C657FDEF80D2D9CEAA2AE4C1C76F60BFE74219A06527D6582DF6412526107381E55E353090704D085B52408D0933C4ED159D79BDA71BB4BC506F4831350EB6F979CD22D69BF7AC49B91A2C0A9DDA3D5CA36AD20FC478E37E6
310
1844E2352865EBCB6EA275A652E3836BE04EFB400BF1A2556F515F1FBB35B2AB35BD889C744FFA1004B5544B121E57F70215746DD2F5E2C1412B602CBF19455AC6C8E5E9922C4E01E65215385004546899059180EAFCF7A707CE7017CD8CDB0410789AB32C63B91E5CEBBBACB17AC6CD347A022D5075FD106377347AAABA7E
310
7D11590744509B44E205134DC1290F06580320F78E537D3D73540E06CB970B431F185308AD40BBD794D6D77003C5A36E8EAA54BA64597CD8F83BD552A080A365F7FF06504B0304140006080000CC70623B000000000000000000000000350000006662782F39464131463745442D413632322D343644302D413938332D3331
310
353338454246344243312F76657274696365732E62696E504B0304140006080800CC70623BF270F1330600000004000000360000006662782F39464131463745442D413632322D343644302D413938332D3331353338454246344243312F747269616E676C65732E62696E636660600000504B0304140006080000CC70623B
310
000000000000000000000000370000006662782F39464131463745442D413632322D343644302D413938332D3331353338454246344243312F617474726962757465732E62696E504B0304140006080800CC70623B08DA0BD19000000041010000360000006662782F39464131463745442D413632322D343644302D413938
310
332D3331353338454246344243312F6469726563746F72792E786D6C858F410AC3201045AF22B36F53E9A60B35CBEEBAE80D244E44489C6234F4F835464A48035D0DF398FF9F8AF63D0E6CC63039F212F8F9020C7D47C6792B21C5FE7403D62A1188E2E60C98D7234A5830286103A55745067B9D86B8A3CF9C7F90C11DE607
310
FB144396D7B6A82D282E9A152AD114D5EF2CB866EEE831B8EEA07A7BB5A8D7D61A2BAAEB7FD5F70921FF497D00504B0304140006080800CC70623B0D6EF93BFE000000A00100003B0000006662782F39464131463745442D413632322D343644302D413938332D3331353338454246344243312F7265736F75726365732F63
310
6F72652E786D6C8D50596E833010BD0A9ADFCA60B334011947A8694ED00B586642AC041B79A97AFC9A40A5F6AF3F33A3B7689E1E3F7DCD8FEC139DD7D6F4C0720A191A65476DA61E62B892236427C19DB5E1970C322367EC618541F0C9D9B8EC90B226A009093576C41D94DE63804C3DD2D18357379C652E63480A7FCF17A9
310
EE72C29CE5894E3AC17D702940B63D59270887DE46A7D0F36263058F518FBB468FE9A7BE6A7420864373B8D4873369AA8691FA421B3294352543C5CAF65C0F6FEF43CB8BD52C78D0F34F46E550061C419494B6843142CB0F5677F4B52BEB177AEC28E5C52AFF638ACBF84F53D42654E51E77B379102C05791282176B5F693D
310
CB4C7BED567C03504B010214000A0000080000CC70623B3DEE336E79000000790000001B00000000000000000000000000000000006175746F6465736B2D64657369676E2D7061636B6167652E786D6C504B01021400140006080800CC70623BD486FD9CA0000000F40000001300000000000000000000000000B20000005B
310
436F6E74656E745F54797065735D2E786D6C504B01021400140006080800CC70623B1EC5D7A3EB0000007C010000080000000000000000000000000083010000636F72652E786D6C504B01021400140006080800CC70623B55019EA25F0000007C000000070000000000000000000000000094020000636E782E786D6C504B
310
01021400140006080800CC70623B8C9102E971010000D40300000C00000000000000000000000000180300006662782F636F72652E786D6C504B01021400140006080800CC70623BFFEA85907E0000009D0000000B00000000000000000000000000B30400006662782F636E782E786D6C504B01021400140006080800CC70
310
623B4FEEA4082C0100001202000031000000000000000000000000005A0500006662782F39464131463745442D413632322D343644302D413938332D3331353338454246344243312F636F72652E786D6C504B01021400140006080800CC70623BAD7543B64E010000330300003000000000000000000000000000D5060000
310
6662782F39464131463745442D413632322D343644302D413938332D3331353338454246344243312F636E782E786D6C504B01021400140006080800CC70623B16AB87BA640500003C1000003400000000000000000000000000710800006662782F39464131463745442D413632322D343644302D413938332D3331353338
310
454246344243312F6F626A656374732E786D6C504B01021400140006080000CC70623B0000000000000000000000003500000000000000000000000000270E00006662782F39464131463745442D413632322D343644302D413938332D3331353338454246344243312F76657274696365732E62696E504B01021400140006
310
080800CC70623BF270F133060000000400000036000000000000000000000000007A0E00006662782F39464131463745442D413632322D343644302D413938332D3331353338454246344243312F747269616E676C65732E62696E504B01021400140006080000CC70623B0000000000000000000000003700000000000000
310
000000000000D40E00006662782F39464131463745442D413632322D343644302D413938332D3331353338454246344243312F617474726962757465732E62696E504B01021400140006080800CC70623B08DA0BD190000000410100003600000000000000000000000000290F00006662782F39464131463745442D413632
310
322D343644302D413938332D3331353338454246344243312F6469726563746F72792E786D6C504B01021400140006080800CC70623B0D6EF93BFE000000A00100003B000000000000000000000000000D1000006662782F39464131463745442D413632322D343644302D413938332D3331353338454246344243312F7265
310
736F75726365732F636F72652E786D6C504B0506000000000E000E0080040000641100000000
  0
XRECORD
  5
C2E8
102
{ACAD_REACTORS
330
173
102
}
330
173
100
AcDbXrecord
280
     1
102
MATERIAL
148
0.0
149
0.0
149
0.0
 93
        0
 94
       63
282
     0
 72
     1
 77
     1
171
     1
175
     1
179
     1
273
     0
  0
XRECORD
  5
175
102
{ACAD_REACTORS
330
173
102
}
330
173
100
AcDbXrecord
280
     1
270
     1
271
     1
  0
XRECORD
  5
174
102
{ACAD_REACTORS
330
173
102
}
330
173
100
AcDbXrecord
280
     1
270
     1
271
     1
  0
XRECORD
  5
1FB
102
{ACAD_REACTORS
330
173
102
}
330
173
100
AcDbXrecord
280
     1
 70
     0
 90
1673772943
  1
ECE7A1D2-D628-4531-984C-D00F80459256
310
504B03040A0000080000CC70623B3DEE336E79000000790000001B0000006175746F6465736B2D64657369676E2D7061636B6167652E786D6C3C3F786D6C2076657273696F6E3D22312E302220656E636F64696E673D227574662D3822203F3E3C666F726D6174733E3C666F726D61743E687474703A2F2F736368656D612E
310
6175746F6465736B2E636F6D2F64657369676E2D7061636B6167652F323030393C2F666F726D61743E3C2F666F726D6174733E504B0304140006080800CC70623BD486FD9CA0000000F4000000130000005B436F6E74656E745F54797065735D2E786D6C7D8EC10E82300C865F65E91D8A1E8C310C0EEA1BF002731658846E
310
D98AC1B77784ABF1D8FE5FBFBF75BBCE937A534CCEB38643598122B6FEE978D0B0485F9C41B54DDD7D022595594E1A469170414C76A4D9A4D207E29CF43ECE46F218070CC6BECC4078ACAA135ACF422C856C0E68EA1BF5669944DDD7BCDE7B1F8E415D77AECB980613C2E4AC91FC167A2B244592486606FC29C8FD7F045B9A
310
EF7053A7E60B504B0304140006080800CC70623BD9DDAED0EC0000007C01000008000000636F72652E786D6C8D90416EC3201045AF82665B61836D9CD8C2444DD39CA01740405C94182C03558F5F9C3852BBEB6A467FFE9B197D7EF89E6EE8CB2CC17A37002D0820E394D7D68D03A478C17B4007C117EFE32F1B20272733C0
310
2A83E0E3E2D3BC49CABB685CCCAAF3DA6CA20CC14440EA969B0182FA34932C648AD911AEC52CD5558EA6A0CF2EC329598D1E47ACCEFBECC59A050463A7EA5833865FEBDD0E37353BE3EE8DBDE3F6786A48D375FBF6CC78B9C282473B3DEFABC5C86834888A900E538A49F5419B9EB47DD5BC907D4F082F57FB1F28CDFA9F50
310
B22ED6D5F6EE030B20687EE43E10BC5CB3C8E51E54AE6B6EE207504B0304140006080800CC70623B55019EA25F0000007C00000007000000636E782E786D6C4DCB3B0E80201045D1AD90E915ED2CF8AC45050C11660C8261F98AB1B07AC9C97D42D718D865D3E909258CFD00CCE24AC6E326A164D74DC0B4128928FF326038
310
472BA13128B1252AC747C6BAB984FC68F0B87FE8960A5C09FE86CFB69FBA01504B0304140006080800CC70623BA24EB22D72010000D40300000C0000006662782F636F72652E786D6CC5535B6E833010BC8AE5DF0A6C5E49888CA3A6694ED00B38E05014B091B1518EDFE511A5A9D228FD2A1F60CDEC7A67C6986DCE4D8D7A
310
69BA4AAB0C073EC548AA5C17952A33ECECD15B61B4E1CC686DBF9561A44423333CC098B3D268D7CE50AE9595CA02AA74216750749DB418E5352C32DCE59FB211BE70162ABA93DF8AFC244AE9073ED050C759670D0840D390E18DF9F1706664C23973AE2A66B62A605A75ACA4C13C4976E1364A12EF355A2EBD384AF65EFA96
310
BC7B8BED2EA6719AAE16FB8491A199335B351775B991C2CA02F390D2D40B028F861F41BCA68B7518BFD0D59A524686F29B26D7164F36B94AD9289CE54E6D1DE6010819891F6E21228B3AD1831EC219194284CF98F06DD01008846CC5A1BEF83801D4CBDC6A1303536877A57A513B0953A94FC707FDBE6064EA84A9E3E6E0FA
310
EE8CF0E9198F7784A316AA0413C2C2F2E0ECA0934D1AE6D05A69BCDE9E91D2A611F573361E38FC1375157F5752AE6B6DFE4B11990F88CCBF0719EE23FF02504B0304140006080800CC70623B408A7D3B7C0000009D0000000B0000006662782F636E782E786D6C4DCCD10A83201886E15B91FFDC552A92A0064DBC8F581632
310
D3703A76F9ABD1C18E3E78F878E5F0D9027ABBFCF2292AE86E2D20171F69F6715550CB827B40839639A5F2770314A7CD293819B45C73AAFB45B35BA61ACAA1C1C7E7855C58C15BC331339661262CC762340413D68D77DA5B42298546CBE6573AF60CEB2F504B0304140006080800CC70623B449FB9BD290100001202000031
310
0000006662782F36394639363044362D344446342D343946362D394244322D3234314243333846323333332F636F72652E786D6C8D515B6EC32010BC0AE22B55850D98B871848994463E412FE002495162B07854397EA176A4F62F3F2C9A9D991D587EB84F37F0AD7D30CEF6905418026DA553C65E7A98E219ED203808EE9D
310
8B7F6810D871D23D2C3014FCE25D9A57483A1BB58D19B54EE9151C43D0110279CB971E06F9A5A7B11A53CC8C70ADE6515EC78BAE4895DB992778883E0700CB907242D17643D7E2538BD869608875438BBAE38922CAC8F1BDD90DB4691A5E2F42C153326A951B95E398B3D1FE599322163C9AE9115F7A3D46ADA0A018778810
310
84E907617BDCEE297BC5BB3DC6BC2EF47FA234AB2745C9D8D8D035EE220B50105E2F0DC1954B9FB747187D9F9D8FA0CCDB042D5FA0C015C65B42DF78BD10F3F3B363CB56C7109DCFDFBBB97E662ED92EB62D13BC2E1BCAE5777DB9966D8A1F504B0304140006080800CC70623BAD7543B64E01000033030000300000006662
310
782F36394639363044362D344446342D343946362D394244322D3234314243333846323333332F636E782E786D6CD593CD6EC32010845F0571AD6CE3D48AD20813A9873E410FBD12D82434182C7EAAE6EDBB2424CD25871E7B41D6EC30B3FA84F9E67BB2E40B4234DE8DB46F1925E094D7C6ED479AD3AE5951B2113C789FEE
310
6C943839C1488B4C05DF079FE72A69D8C96C13AAD6B8631503449F83828872B949AC57D26200B826A308D316B4064D6E46FCDA41C05550DC9E483A00797BFD207EFB092A45DE9514C1BBD22178396BD39D891265658C238DEA00936C654E5E433CB65A26D9F6EDB5EBC14EBF49A45CB856E66048291F6939A9A81BB5C89177
310
38143CA680F4AA299D66A042CEB3354A2684DC9D8D178FE0D9B8B41CAAD720F880EE7EF93C0C18769E099ECC04D5A102C8049A8A05632F4DDF376CF1DE0F6BB65C2F8627B65A33C6BB62177CEBBDAD973006829F89F22E814B54F4BC2BE347F8AA8F681390B50FA73F804400B5F542E796F19FF974E7F78DB802FE05E20750
310
4B0304140006080800CC70623B8D05915C650500003B100000340000006662782F36394639363044362D344446342D343946362D394244322D3234314243333846323333332F6F626A656374732E786D6CAD575B6FA33814FE2B887D06429276DA1565D4266D158D3A339A6846FB502932E050B66023DB74D2FDF5FB190C01
310
9276B2973C046C8ECFF53B17071F77456EBD502133CEAE6CDF9DD81665314F32965ED995DA3A17B6F5310C04E7AA47665B8C14F4CAD6DB7618A48257A5D94AE89654B91AEDDEDDFC61C998326A5B714EA4BCB265FC440BE2924AF184CA6737218AB8E976E7FA6E4338649B0A523E8D98964450A6A029F619B8588D52FE7039
310
B1BD30F0F4F730D0FF866AF6369557DB33949F31A9088B0F848DD8CCFCF9F2767A76E99CCDE733677E3EF59D9BBB9BA5E37F984D16E78BC5E5F5ED25044B25C0C96822E8D60EEFE11B91C581D77CEA34368A1F5329E68CD1B8B61F16D63A1B8E092D294B10C78C4A48EB593D192E7DED9BDEE7995E1B91FDEDD3ACEA9FE831
310
6A756F9F7D4D79F4274C90A7A04248AA51D5F8C718DAE06FB2F75AC4796EBE65D22A88A22223B995679120E2D50E41AA49C260C046A35368846B0BECD0DFF3EBEB8AD4F835768F69B9ADF25C43D30E6B646F807FAA64AD59F61715C7A54127C4AACA98BA3006A9D792DAE165E0D59B61A01FB3A9F9D838D2DAE62445C86166
310
F37564E842E7DE6A69879FEEA2DD5AE7E371E1A5E025154AC307D06A03D73EB5978C58FFA4C8E9033066E0F3BD53BEC1F39F91BE7B55103791EDE6BBB991A2046172CB4581D8B893FA674DDA17A77B3B7C413D1B511FD2743BFF8A38F03A658705E3ADF8015C3A3417FF3D7E439FF591DA0B5F18BC20C1B8981957AE6392A3
310
F43C640C01D1A0B4728E2DD4F26DB4B3C3152A252A3B4E913CEC1C72F012782FF88EFF8637AA552DBEF76408E8A8DE9E50F9E1CB3A2DA0DB1B6039A893B56063DC5B3E3FFB5F72E67AB9FEB4AEC496C4F4C1149625DD662C53E89D7BF0F6151A046260D1337DFDC94502430F83B0EE07A130A224BCAD7DAE1D9FB6CD422FF6
310
920702629C4BB9AE79C12F243C6432A6794E18E5552BA56B431AAB5D91317302B2B071E86C3A42B1A02F999E24061403B5D0EB639195DA655DD3EBEAB4FB862DDF579F014AD0E73C22F99E28DA57FB98E75C6CA2D74D53086D600F4786E0FE3144B771A8A7B900F03594DB8A633CBC49B2EDB69228BB479CF863B5E807AAAB
310
23872F6DFEB4129B949CA33823F58830E86D65621E10047D9DB34D862E8EAC3C2ABC2F7B2C40D67CDFE01F5545B92105AF983AC54D93D69E56FB8E797F88913F898A9FEC705D3F9D1B54EC8426FB500D40A03BD0119B06E1B95DDC7EB8F6975367793EBD70E66733DFB9BC982F9CE564727731999F5D4ECFCE3B8D6A4DC2A0
310
6D50FD148437D110834A64C6CDDF57FBACB5C307A2A477DFE4939736CFEF2B175371E0E10CF0DD1D5C15654E0BCA14D1E87DD02FF93782A162C0A3D95F1524A52770F972BF1EE9809D13CE7DD599467F8ECE9ADD85CE85A34CD45355448C64F9E8A031DC2D596ACC6E5DD93D9B82DE2EF5CAF81363A8E47996A0DE24564A79
310
4115AACE09C55E14540231FDA13C319787134EBF34E3A022514E5B4D9E0826E25C02D5805B15ABE1BEF51B26383D445DD9E875EE33FE4C22DA16427D65A3BCA92CA6D28DD01DF5DC53330704308475351050232CCD31583787BA75774AFB06E5070DD0C8EF484E19968C5D83BA5B90B244D31E54D55A372320FE4786B7EA58
310
44E135AA5467CB7EA333A61683CC6A8C3257034C10CF46F40EF9F5BE59BE5BD30C3C72D235E95D10345C1D45445A5F0BB47E46A5EBE5570F9380B5FA629579952296A773720405982B9DE04011506178964401AA8BDF1FBF0A8EAB6861DD6580C0E38217056766716DAEB2D6FA0917D3E4116581EADB879C4E7CFFB11EFACD
310
3D641311495D92C8676CB409A72D18610D803CE8A626049E8EC1887CB5B44CC39883690DDA8399B4B9855B481E7D71D4A9D22F96E5BB73BF5793020C02137BF837504B0304140006080000CC70623B000000000000000000000000350000006662782F36394639363044362D344446342D343946362D394244322D32343142
310
43333846323333332F76657274696365732E62696E504B0304140006080800CC70623BF270F1330600000004000000360000006662782F36394639363044362D344446342D343946362D394244322D3234314243333846323333332F747269616E676C65732E62696E636660600000504B0304140006080000CC70623B0000
310
00000000000000000000370000006662782F36394639363044362D344446342D343946362D394244322D3234314243333846323333332F617474726962757465732E62696E504B0304140006080800CC70623B08DA0BD19000000041010000360000006662782F36394639363044362D344446342D343946362D394244322D
310
3234314243333846323333332F6469726563746F72792E786D6C858F410AC3201045AF22B36F53E9A60B35CBEEBAE80D244E44489C6234F4F835464A48035D0DF398FF9F8AF63D0E6CC63039F212F8F9020C7D47C6792B21C5FE7403D62A1188E2E60C98D7234A5830286103A55745067B9D86B8A3CF9C7F90C11DE607FB14
310
4396D7B6A82D282E9A152AD114D5EF2CB866EEE831B8EEA07A7BB5A8D7D61A2BAAEB7FD5F70921FF497D00504B0304140006080800CC70623BCA768048FE000000A00100003B0000006662782F36394639363044362D344446342D343946362D394244322D3234314243333846323333332F7265736F75726365732F636F72
310
652E786D6C8D50596E833010BD0A9ADFCA60D600328E9AA639412F609909B1126CE4A5EAF16B0295DABFFECC8CDEA2797AECF8353F924FB44E193D409E5248504B332A3D0D10FC95B4901C39B3C6F85F3248B49871801506CE266BC2B243D2688FDA47549B11775038871E12F988C7004EDE7016A9083E2ADC3D5D84BC8B09
310
D33C8D74D471E6BC8D0192EDC93A815B742658898E651BCB59086ADC356A8C3FD555A1055ED7E7E254D615792D0F075295F585746FF53B694EE78A565DD736979A65AB9933AFE69F8CD2A2F038022F28ED489E135A7CE4554F9BBEA85E68DB53CAB255FEC71496F19FA6A0B42F8B3DEE6673C0F318E4497096AD7DC5F52C33
310
EEB55BFE0D504B010214000A0000080000CC70623B3DEE336E79000000790000001B00000000000000000000000000000000006175746F6465736B2D64657369676E2D7061636B6167652E786D6C504B01021400140006080800CC70623BD486FD9CA0000000F40000001300000000000000000000000000B20000005B436F
310
6E74656E745F54797065735D2E786D6C504B01021400140006080800CC70623BD9DDAED0EC0000007C010000080000000000000000000000000083010000636F72652E786D6C504B01021400140006080800CC70623B55019EA25F0000007C000000070000000000000000000000000095020000636E782E786D6C504B0102
310
1400140006080800CC70623BA24EB22D72010000D40300000C00000000000000000000000000190300006662782F636F72652E786D6C504B01021400140006080800CC70623B408A7D3B7C0000009D0000000B00000000000000000000000000B50400006662782F636E782E786D6C504B01021400140006080800CC70623B
310
449FB9BD290100001202000031000000000000000000000000005A0500006662782F36394639363044362D344446342D343946362D394244322D3234314243333846323333332F636F72652E786D6C504B01021400140006080800CC70623BAD7543B64E010000330300003000000000000000000000000000D20600006662
310
782F36394639363044362D344446342D343946362D394244322D3234314243333846323333332F636E782E786D6C504B01021400140006080800CC70623B8D05915C650500003B10000034000000000000000000000000006E0800006662782F36394639363044362D344446342D343946362D394244322D32343142433338
310
46323333332F6F626A656374732E786D6C504B01021400140006080000CC70623B0000000000000000000000003500000000000000000000000000250E00006662782F36394639363044362D344446342D343946362D394244322D3234314243333846323333332F76657274696365732E62696E504B010214001400060808
310
00CC70623BF270F13306000000040000003600000000000000000000000000780E00006662782F36394639363044362D344446342D343946362D394244322D3234314243333846323333332F747269616E676C65732E62696E504B01021400140006080000CC70623B00000000000000000000000037000000000000000000
310
00000000D20E00006662782F36394639363044362D344446342D343946362D394244322D3234314243333846323333332F617474726962757465732E62696E504B01021400140006080800CC70623B08DA0BD190000000410100003600000000000000000000000000270F00006662782F36394639363044362D344446342D
310
343946362D394244322D3234314243333846323333332F6469726563746F72792E786D6C504B01021400140006080800CC70623BCA768048FE000000A00100003B000000000000000000000000000B1000006662782F36394639363044362D344446342D343946362D394244322D3234314243333846323333332F7265736F
310
75726365732F636F72652E786D6C504B0506000000000E000E0080040000621100000000
  0
XRECORD
  5
176
102
{ACAD_REACTORS
330
173
102
}
330
173
100
AcDbXrecord
280
     1
270
     1
271
     1
  0
XRECORD
  5
177
102
{ACAD_REACTORS
330
173
102
}
330
173
100
AcDbXrecord
280
     1
270
     1
271
     1
  0
XRECORD
  5
C30A
102
{ACAD_REACTORS
330
C309
102
}
330
C309
100
AcDbXrecord
280
     1
102
ACAD_ROUNDTRIP_2012_MLEADER_STYLE
298
     1
  0
XRECORD
  5
C31C
102
{ACAD_REACTORS
330
C31B
102
}
330
C31B
100
AcDbXrecord
280
     1
102
DISPLAYNAME
  1
Metric50
102
FLAGS
 90
        0
  0
CELLSTYLEMAP
  5
C2DC
102
{ACAD_REACTORS
330
162
102
}
330
162
100
AcDbCellStyleMap
 90
        3
300
CELLSTYLE
  1
TABLEFORMAT_BEGIN
 90
        5
170
     1
 91
        0
 92
    32768
 62
   257
 93
        1
300
CONTENTFORMAT
  1
CONTENTFORMAT_BEGIN
 90
        0
 91
        0
 92
      512
 93
        0
300

 40
0.0
140
1.0
 94
        5
 62
     0
340
11
144
6.0
309
CONTENTFORMAT_END
171
     1
301
MARGIN
  1
CELLMARGIN_BEGIN
 40
1.5
 40
1.5
 40
1.5
 40
1.5
 40
4.5
 40
4.5
309
CELLMARGIN_END
 94
        6
 95
        1
302
GRIDFORMAT
  1
GRIDFORMAT_BEGIN
 90
        0
 91
        1
 62
     0
 92
       -2
340
14
 93
        0
 40
1.125
309
GRIDFORMAT_END
 95
        2
302
GRIDFORMAT
  1
GRIDFORMAT_BEGIN
 90
        0
 91
        1
 62
     0
 92
       -2
340
14
 93
        0
 40
1.125
309
GRIDFORMAT_END
 95
        4
302
GRIDFORMAT
  1
GRIDFORMAT_BEGIN
 90
        0
 91
        1
 62
     0
 92
       -2
340
14
 93
        0
 40
1.125
309
GRIDFORMAT_END
 95
        8
302
GRIDFORMAT
  1
GRIDFORMAT_BEGIN
 90
        0
 91
        1
 62
     0
 92
       -2
340
14
 93
        0
 40
1.125
309
GRIDFORMAT_END
 95
       16
302
GRIDFORMAT
  1
GRIDFORMAT_BEGIN
 90
        0
 91
        1
 62
     0
 92
       -2
340
14
 93
        0
 40
1.125
309
GRIDFORMAT_END
 95
       32
302
GRIDFORMAT
  1
GRIDFORMAT_BEGIN
 90
        0
 91
        1
 62
     0
 92
       -2
340
14
 93
        0
 40
1.125
309
GRIDFORMAT_END
309
TABLEFORMAT_END
  1
CELLSTYLE_BEGIN
 90
        1
 91
        1
300
_TITLE
309
CELLSTYLE_END
300
CELLSTYLE
  1
TABLEFORMAT_BEGIN
 90
        5
170
     1
 91
        0
 92
        0
 62
   257
 93
        1
300
CONTENTFORMAT
  1
CONTENTFORMAT_BEGIN
 90
        0
 91
        0
 92
      512
 93
        0
300

 40
0.0
140
1.0
 94
        5
 62
     0
340
11
144
4.5
309
CONTENTFORMAT_END
171
     1
301
MARGIN
  1
CELLMARGIN_BEGIN
 40
1.5
 40
1.5
 40
1.5
 40
1.5
 40
4.5
 40
4.5
309
CELLMARGIN_END
 94
        6
 95
        1
302
GRIDFORMAT
  1
GRIDFORMAT_BEGIN
 90
        0
 91
        1
 62
     0
 92
       -2
340
14
 93
        0
 40
1.125
309
GRIDFORMAT_END
 95
        2
302
GRIDFORMAT
  1
GRIDFORMAT_BEGIN
 90
        0
 91
        1
 62
     0
 92
       -2
340
14
 93
        0
 40
1.125
309
GRIDFORMAT_END
 95
        4
302
GRIDFORMAT
  1
GRIDFORMAT_BEGIN
 90
        0
 91
        1
 62
     0
 92
       -2
340
14
 93
        0
 40
1.125
309
GRIDFORMAT_END
 95
        8
302
GRIDFORMAT
  1
GRIDFORMAT_BEGIN
 90
        0
 91
        1
 62
     0
 92
       -2
340
14
 93
        0
 40
1.125
309
GRIDFORMAT_END
 95
       16
302
GRIDFORMAT
  1
GRIDFORMAT_BEGIN
 90
        0
 91
        1
 62
     0
 92
       -2
340
14
 93
        0
 40
1.125
309
GRIDFORMAT_END
 95
       32
302
GRIDFORMAT
  1
GRIDFORMAT_BEGIN
 90
        0
 91
        1
 62
     0
 92
       -2
340
14
 93
        0
 40
1.125
309
GRIDFORMAT_END
309
TABLEFORMAT_END
  1
CELLSTYLE_BEGIN
 90
        2
 91
        1
300
_HEADER
309
CELLSTYLE_END
300
CELLSTYLE
  1
TABLEFORMAT_BEGIN
 90
        5
170
     1
 91
        0
 92
        0
 62
   257
 93
        1
300
CONTENTFORMAT
  1
CONTENTFORMAT_BEGIN
 90
        0
 91
        0
 92
      512
 93
        0
300

 40
0.0
140
1.0
 94
        2
 62
     0
340
11
144
4.5
309
CONTENTFORMAT_END
171
     1
301
MARGIN
  1
CELLMARGIN_BEGIN
 40
1.5
 40
1.5
 40
1.5
 40
1.5
 40
4.5
 40
4.5
309
CELLMARGIN_END
 94
        6
 95
        1
302
GRIDFORMAT
  1
GRIDFORMAT_BEGIN
 90
        0
 91
        1
 62
     0
 92
       -2
340
14
 93
        0
 40
1.125
309
GRIDFORMAT_END
 95
        2
302
GRIDFORMAT
  1
GRIDFORMAT_BEGIN
 90
        0
 91
        1
 62
     0
 92
       -2
340
14
 93
        0
 40
1.125
309
GRIDFORMAT_END
 95
        4
302
GRIDFORMAT
  1
GRIDFORMAT_BEGIN
 90
        0
 91
        1
 62
     0
 92
       -2
340
14
 93
        0
 40
1.125
309
GRIDFORMAT_END
 95
        8
302
GRIDFORMAT
  1
GRIDFORMAT_BEGIN
 90
        0
 91
        1
 62
     0
 92
       -2
340
14
 93
        0
 40
1.125
309
GRIDFORMAT_END
 95
       16
302
GRIDFORMAT
  1
GRIDFORMAT_BEGIN
 90
        0
 91
        1
 62
     0
 92
       -2
340
14
 93
        0
 40
1.125
309
GRIDFORMAT_END
 95
       32
302
GRIDFORMAT
  1
GRIDFORMAT_BEGIN
 90
        0
 91
        1
 62
     0
 92
       -2
340
14
 93
        0
 40
1.125
309
GRIDFORMAT_END
309
TABLEFORMAT_END
  1
CELLSTYLE_BEGIN
 90
        3
 91
        2
300
_DATA
309
CELLSTYLE_END
  0
XRECORD
  5
C2E1
102
{ACAD_REACTORS
330
162
102
}
330
162
100
AcDbXrecord
280
     1
102
ACAD_ROUNDTRIP_PRE2007_TABLESTYLE
 90
      512
 91
        0
  1

 92
      512
 93
        0
  2

 94
      512
 95
        0
  3

  0
XRECORD
  5
C2F4
102
{ACAD_REACTORS
330
C2F3
102
}
330
C2F3
100
AcDbXrecord
280
     1
102
RTVSPost2010Prop28
280
     1
102
RTVSPost2010PropOp28
 70
     1
102
RTVSPost2010Prop29
280
     1
102
RTVSPost2010PropOp29
 70
     1
102
RTVSPost2010Prop30
280
     0
102
RTVSPost2010PropOp30
 70
     1
102
RTVSPost2010Prop31
280
     0
102
RTVSPost2010PropOp31
 70
     1
102
RTVSPost2010Prop32
280
     0
102
RTVSPost2010PropOp32
 70
     1
102
RTVSPost2010Prop33
280
     0
102
RTVSPost2010PropOp33
 70
     1
102
RTVSPost2010Prop34
280
     0
102
RTVSPost2010PropOp34
 70
     1
102
RTVSPost2010Prop35
280
     0
102
RTVSPost2010PropOp35
 70
     1
102
RTVSPost2010Prop36
280
     0
102
RTVSPost2010PropOp36
 70
     1
102
RTVSPost2010Prop37
 90
       50
102
RTVSPost2010PropOp37
 70
     1
102
RTVSPost2010Prop38
140
0.0
102
RTVSPost2010PropOp38
 70
     1
102
RTVSPost2010Prop39
140
1.0
102
RTVSPost2010PropOp39
 70
     1
102
RTVSPost2010Prop40
 90
        0
102
RTVSPost2010PropOp40
 70
     1
102
RTVSPost2010Prop41ColorIndex
 90
       18
102
RTVSPost2010Prop41ColorRGB
 90
        0
102
RTVSPost2010PropOp41
 70
     1
102
RTVSPost2010Prop42
 90
       50
102
RTVSPost2010PropOp42
 70
     1
102
RTVSPost2010Prop43
 90
        3
102
RTVSPost2010PropOp43
 70
     1
102
RTVSPost2010Prop44ColorIndex
 90
        5
102
RTVSPost2010Prop44ColorRGB
 90
      255
102
RTVSPost2010PropOp44
 70
     1
102
RTVSPost2010Prop45
280
     0
102
RTVSPost2010PropOp45
 70
     1
102
RTVSPost2010Prop46
 90
       50
102
RTVSPost2010PropOp46
 70
     1
102
RTVSPost2010Prop47
 90
       50
102
RTVSPost2010PropOp47
 70
     1
102
RTVSPost2010Prop48
 90
       50
102
RTVSPost2010PropOp48
 70
     1
102
RTVSPost2010Prop49
280
     0
102
RTVSPost2010PropOp49
 70
     1
102
RTVSPost2010Prop50
 90
       50
102
RTVSPost2010PropOp50
 70
     1
102
RTVSPost2010Prop51ColorIndex
 90
      256
102
RTVSPost2010Prop51ColorRGB
 90
-16777216
102
RTVSPost2010PropOp51
 70
     0
102
RTVSPost2010Prop52
140
1.0
102
RTVSPost2010PropOp52
 70
     0
102
RTVSPost2010Prop53
 90
        2
102
RTVSPost2010PropOp53
 70
     1
102
RTVSPost2010Prop54
  1
strokes_ogs.tif
102
RTVSPost2010PropOp54
 70
     1
102
RTVSPost2010Prop55
280
     0
102
RTVSPost2010PropOp55
 70
     1
102
RTVSPost2010Prop56
140
1.0
102
RTVSPost2010PropOp56
 70
     1
102
RTVSPost2010Prop57
140
1.0
102
RTVSPost2010PropOp57
 70
     1
102
RTVSPropertyOp0
 70
     1
102
RTVSPropertyOp1
 70
     1
102
RTVSPropertyOp2
 70
     1
102
RTVSPropertyOp3
 70
     1
102
RTVSPropertyOp4
 70
     1
102
RTVSPropertyOp5
 70
     1
102
RTVSPropertyOp6
 70
     1
102
RTVSPropertyOp7
 70
     1
102
RTVSPropertyOp8
 70
     1
102
RTVSPropertyOp9
 70
     1
102
RTVSPropertyOp10
 70
     1
102
RTVSPropertyOp11
 70
     1
102
RTVSPropertyOp12
 70
     1
102
RTVSPropertyOp13
 70
     1
102
RTVSPropertyOp14
 70
     1
102
RTVSPropertyOp15
 70
     1
102
RTVSPropertyOp16
 70
     1
102
RTVSPropertyOp17
 70
     1
102
RTVSPropertyOp18
 70
     1
102
RTVSPropertyOp19
 70
     1
102
RTVSPropertyOp20
 70
     1
102
RTVSPropertyOp21
 70
     1
102
RTVSPropertyOp22
 70
     1
102
RTVSPropertyOp23
 70
     1
102
RTVSPropertyOp24
 70
     1
102
RTVSPropertyOp25
 70
     1
102
RTVSPropertyOp26
 70
     1
102
RTVSPropertyOp27
 70
     1
102
RTVSPropertyOp28
 70
     1
102
RTVSPropertyOp29
 70
     1
102
RTVSPropertyOp30
 70
     1
102
RTVSPropertyOp31
 70
     1
102
RTVSPropertyOp32
 70
     1
102
RTVSPropertyOp33
 70
     1
102
RTVSPropertyOp34
 70
     1
102
RTVSPropertyOp35
 70
     1
102
RTVSPropertyOp36
 70
     1
102
RTVSPropertyOp37
 70
     1
102
RTVSPropertyOp38
 70
     1
102
RTVSPropertyOp39
 70
     1
102
RTVSPropertyOp40
 70
     1
102
RTVSPropertyOp41
 70
     1
102
RTVSPropertyOp42
 70
     1
102
RTVSPropertyOp43
 70
     1
102
RTVSPropertyOp44
 70
     1
102
RTVSPropertyOp45
 70
     1
102
RTVSPropertyOp46
 70
     1
102
RTVSPropertyOp47
 70
     1
102
RTVSPropertyOp48
 70
     1
102
RTVSPropertyOp49
 70
     1
102
RTVSPropertyOp50
 70
     1
102
RTVSPropertyOp51
 70
     0
102
RTVSPropertyOp52
 70
     0
102
RTVSPropertyOp53
 70
     1
102
RTVSPropertyOp54
 70
     1
102
RTVSPropertyOp55
 70
     1
102
RTVSPropertyOp56
 70
     1
102
RTVSPropertyOp57
 70
     1
102
RTVSPropertyOp58
 70
     1
102
RTVSPropertyOp59
 70
     1
102
RTVSPropertyOp60
 70
     1
102
RTVSPropertyOp61
 70
     1
102
RTVSPropertyOp62
 70
     1
  0
XRECORD
  5
C2F2
102
{ACAD_REACTORS
330
C2F1
102
}
330
C2F1
100
AcDbXrecord
280
     1
102
RTVSPost2010Prop28
280
     0
102
RTVSPost2010PropOp28
 70
     1
102
RTVSPost2010Prop29
280
     1
102
RTVSPost2010PropOp29
 70
     1
102
RTVSPost2010Prop30
280
     1
102
RTVSPost2010PropOp30
 70
     1
102
RTVSPost2010Prop31
280
     0
102
RTVSPost2010PropOp31
 70
     1
102
RTVSPost2010Prop32
280
     0
102
RTVSPost2010PropOp32
 70
     1
102
RTVSPost2010Prop33
280
     0
102
RTVSPost2010PropOp33
 70
     1
102
RTVSPost2010Prop34
280
     0
102
RTVSPost2010PropOp34
 70
     1
102
RTVSPost2010Prop35
280
     0
102
RTVSPost2010PropOp35
 70
     1
102
RTVSPost2010Prop36
280
     0
102
RTVSPost2010PropOp36
 70
     1
102
RTVSPost2010Prop37
 90
       50
102
RTVSPost2010PropOp37
 70
     1
102
RTVSPost2010Prop38
140
0.0
102
RTVSPost2010PropOp38
 70
     1
102
RTVSPost2010Prop39
140
1.0
102
RTVSPost2010PropOp39
 70
     1
102
RTVSPost2010Prop40
 90
        0
102
RTVSPost2010PropOp40
 70
     1
102
RTVSPost2010Prop41ColorIndex
 90
       18
102
RTVSPost2010Prop41ColorRGB
 90
        0
102
RTVSPost2010PropOp41
 70
     1
102
RTVSPost2010Prop42
 90
       50
102
RTVSPost2010PropOp42
 70
     1
102
RTVSPost2010Prop43
 90
        3
102
RTVSPost2010PropOp43
 70
     1
102
RTVSPost2010Prop44ColorIndex
 90
        5
102
RTVSPost2010Prop44ColorRGB
 90
      255
102
RTVSPost2010PropOp44
 70
     1
102
RTVSPost2010Prop45
280
     0
102
RTVSPost2010PropOp45
 70
     1
102
RTVSPost2010Prop46
 90
       50
102
RTVSPost2010PropOp46
 70
     1
102
RTVSPost2010Prop47
 90
       50
102
RTVSPost2010PropOp47
 70
     1
102
RTVSPost2010Prop48
 90
       50
102
RTVSPost2010PropOp48
 70
     1
102
RTVSPost2010Prop49
280
     0
102
RTVSPost2010PropOp49
 70
     1
102
RTVSPost2010Prop50
 90
       50
102
RTVSPost2010PropOp50
 70
     1
102
RTVSPost2010Prop51ColorIndex
 90
      256
102
RTVSPost2010Prop51ColorRGB
 90
-16777216
102
RTVSPost2010PropOp51
 70
     0
102
RTVSPost2010Prop52
140
1.0
102
RTVSPost2010PropOp52
 70
     0
102
RTVSPost2010Prop53
 90
        2
102
RTVSPost2010PropOp53
 70
     1
102
RTVSPost2010Prop54
  1
strokes_ogs.tif
102
RTVSPost2010PropOp54
 70
     1
102
RTVSPost2010Prop55
280
     0
102
RTVSPost2010PropOp55
 70
     1
102
RTVSPost2010Prop56
140
1.0
102
RTVSPost2010PropOp56
 70
     1
102
RTVSPost2010Prop57
140
1.0
102
RTVSPost2010PropOp57
 70
     1
102
RTVSPropertyOp0
 70
     1
102
RTVSPropertyOp1
 70
     1
102
RTVSPropertyOp2
 70
     1
102
RTVSPropertyOp3
 70
     1
102
RTVSPropertyOp4
 70
     1
102
RTVSPropertyOp5
 70
     1
102
RTVSPropertyOp6
 70
     1
102
RTVSPropertyOp7
 70
     1
102
RTVSPropertyOp8
 70
     1
102
RTVSPropertyOp9
 70
     1
102
RTVSPropertyOp10
 70
     1
102
RTVSPropertyOp11
 70
     1
102
RTVSPropertyOp12
 70
     1
102
RTVSPropertyOp13
 70
     1
102
RTVSPropertyOp14
 70
     1
102
RTVSPropertyOp15
 70
     1
102
RTVSPropertyOp16
 70
     1
102
RTVSPropertyOp17
 70
     1
102
RTVSPropertyOp18
 70
     1
102
RTVSPropertyOp19
 70
     1
102
RTVSPropertyOp20
 70
     1
102
RTVSPropertyOp21
 70
     1
102
RTVSPropertyOp22
 70
     1
102
RTVSPropertyOp23
 70
     1
102
RTVSPropertyOp24
 70
     1
102
RTVSPropertyOp25
 70
     1
102
RTVSPropertyOp26
 70
     1
102
RTVSPropertyOp27
 70
     1
102
RTVSPropertyOp28
 70
     1
102
RTVSPropertyOp29
 70
     1
102
RTVSPropertyOp30
 70
     1
102
RTVSPropertyOp31
 70
     1
102
RTVSPropertyOp32
 70
     1
102
RTVSPropertyOp33
 70
     1
102
RTVSPropertyOp34
 70
     1
102
RTVSPropertyOp35
 70
     1
102
RTVSPropertyOp36
 70
     1
102
RTVSPropertyOp37
 70
     1
102
RTVSPropertyOp38
 70
     1
102
RTVSPropertyOp39
 70
     1
102
RTVSPropertyOp40
 70
     1
102
RTVSPropertyOp41
 70
     1
102
RTVSPropertyOp42
 70
     1
102
RTVSPropertyOp43
 70
     1
102
RTVSPropertyOp44
 70
     1
102
RTVSPropertyOp45
 70
     1
102
RTVSPropertyOp46
 70
     1
102
RTVSPropertyOp47
 70
     1
102
RTVSPropertyOp48
 70
     1
102
RTVSPropertyOp49
 70
     1
102
RTVSPropertyOp50
 70
     1
102
RTVSPropertyOp51
 70
     0
102
RTVSPropertyOp52
 70
     0
102
RTVSPropertyOp53
 70
     1
102
RTVSPropertyOp54
 70
     1
102
RTVSPropertyOp55
 70
     1
102
RTVSPropertyOp56
 70
     1
102
RTVSPropertyOp57
 70
     1
102
RTVSPropertyOp58
 70
     1
102
RTVSPropertyOp59
 70
     1
102
RTVSPropertyOp60
 70
     1
102
RTVSPropertyOp61
 70
     1
102
RTVSPropertyOp62
 70
     1
  0
XRECORD
  5
C300
102
{ACAD_REACTORS
330
C2FF
102
}
330
C2FF
100
AcDbXrecord
280
     1
102
RTVSPost2010Prop28
280
     0
102
RTVSPost2010PropOp28
 70
     1
102
RTVSPost2010Prop29
280
     1
102
RTVSPost2010PropOp29
 70
     1
102
RTVSPost2010Prop30
280
     1
102
RTVSPost2010PropOp30
 70
     1
102
RTVSPost2010Prop31
280
     0
102
RTVSPost2010PropOp31
 70
     1
102
RTVSPost2010Prop32
280
     0
102
RTVSPost2010PropOp32
 70
     1
102
RTVSPost2010Prop33
280
     0
102
RTVSPost2010PropOp33
 70
     1
102
RTVSPost2010Prop34
280
     0
102
RTVSPost2010PropOp34
 70
     1
102
RTVSPost2010Prop35
280
     0
102
RTVSPost2010PropOp35
 70
     1
102
RTVSPost2010Prop36
280
     0
102
RTVSPost2010PropOp36
 70
     1
102
RTVSPost2010Prop37
 90
       50
102
RTVSPost2010PropOp37
 70
     1
102
RTVSPost2010Prop38
140
0.0
102
RTVSPost2010PropOp38
 70
     1
102
RTVSPost2010Prop39
140
1.0
102
RTVSPost2010PropOp39
 70
     1
102
RTVSPost2010Prop40
 90
        0
102
RTVSPost2010PropOp40
 70
     1
102
RTVSPost2010Prop41ColorIndex
 90
       18
102
RTVSPost2010Prop41ColorRGB
 90
        0
102
RTVSPost2010PropOp41
 70
     1
102
RTVSPost2010Prop42
 90
       50
102
RTVSPost2010PropOp42
 70
     1
102
RTVSPost2010Prop43
 90
        3
102
RTVSPost2010PropOp43
 70
     1
102
RTVSPost2010Prop44ColorIndex
 90
        5
102
RTVSPost2010Prop44ColorRGB
 90
      255
102
RTVSPost2010PropOp44
 70
     1
102
RTVSPost2010Prop45
280
     0
102
RTVSPost2010PropOp45
 70
     1
102
RTVSPost2010Prop46
 90
       50
102
RTVSPost2010PropOp46
 70
     1
102
RTVSPost2010Prop47
 90
       50
102
RTVSPost2010PropOp47
 70
     1
102
RTVSPost2010Prop48
 90
       50
102
RTVSPost2010PropOp48
 70
     1
102
RTVSPost2010Prop49
280
     0
102
RTVSPost2010PropOp49
 70
     1
102
RTVSPost2010Prop50
 90
       50
102
RTVSPost2010PropOp50
 70
     1
102
RTVSPost2010Prop51ColorIndex
 90
      256
102
RTVSPost2010Prop51ColorRGB
 90
-16777216
102
RTVSPost2010PropOp51
 70
     0
102
RTVSPost2010Prop52
140
1.0
102
RTVSPost2010PropOp52
 70
     0
102
RTVSPost2010Prop53
 90
        2
102
RTVSPost2010PropOp53
 70
     1
102
RTVSPost2010Prop54
  1
strokes_ogs.tif
102
RTVSPost2010PropOp54
 70
     1
102
RTVSPost2010Prop55
280
     0
102
RTVSPost2010PropOp55
 70
     1
102
RTVSPost2010Prop56
140
1.0
102
RTVSPost2010PropOp56
 70
     1
102
RTVSPost2010Prop57
140
1.0
102
RTVSPost2010PropOp57
 70
     1
102
RTVSPropertyOp0
 70
     1
102
RTVSPropertyOp1
 70
     1
102
RTVSPropertyOp2
 70
     1
102
RTVSPropertyOp3
 70
     1
102
RTVSPropertyOp4
 70
     1
102
RTVSPropertyOp5
 70
     1
102
RTVSPropertyOp6
 70
     1
102
RTVSPropertyOp7
 70
     1
102
RTVSPropertyOp8
 70
     1
102
RTVSPropertyOp9
 70
     1
102
RTVSPropertyOp10
 70
     1
102
RTVSPropertyOp11
 70
     1
102
RTVSPropertyOp12
 70
     1
102
RTVSPropertyOp13
 70
     1
102
RTVSPropertyOp14
 70
     1
102
RTVSPropertyOp15
 70
     1
102
RTVSPropertyOp16
 70
     1
102
RTVSPropertyOp17
 70
     1
102
RTVSPropertyOp18
 70
     1
102
RTVSPropertyOp19
 70
     1
102
RTVSPropertyOp20
 70
     1
102
RTVSPropertyOp21
 70
     1
102
RTVSPropertyOp22
 70
     1
102
RTVSPropertyOp23
 70
     1
102
RTVSPropertyOp24
 70
     1
102
RTVSPropertyOp25
 70
     1
102
RTVSPropertyOp26
 70
     1
102
RTVSPropertyOp27
 70
     1
102
RTVSPropertyOp28
 70
     1
102
RTVSPropertyOp29
 70
     1
102
RTVSPropertyOp30
 70
     1
102
RTVSPropertyOp31
 70
     1
102
RTVSPropertyOp32
 70
     1
102
RTVSPropertyOp33
 70
     1
102
RTVSPropertyOp34
 70
     1
102
RTVSPropertyOp35
 70
     1
102
RTVSPropertyOp36
 70
     1
102
RTVSPropertyOp37
 70
     1
102
RTVSPropertyOp38
 70
     1
102
RTVSPropertyOp39
 70
     1
102
RTVSPropertyOp40
 70
     1
102
RTVSPropertyOp41
 70
     1
102
RTVSPropertyOp42
 70
     1
102
RTVSPropertyOp43
 70
     1
102
RTVSPropertyOp44
 70
     1
102
RTVSPropertyOp45
 70
     1
102
RTVSPropertyOp46
 70
     1
102
RTVSPropertyOp47
 70
     1
102
RTVSPropertyOp48
 70
     1
102
RTVSPropertyOp49
 70
     1
102
RTVSPropertyOp50
 70
     1
102
RTVSPropertyOp51
 70
     0
102
RTVSPropertyOp52
 70
     0
102
RTVSPropertyOp53
 70
     1
102
RTVSPropertyOp54
 70
     1
102
RTVSPropertyOp55
 70
     1
102
RTVSPropertyOp56
 70
     1
102
RTVSPropertyOp57
 70
     1
102
RTVSPropertyOp58
 70
     1
102
RTVSPropertyOp59
 70
     1
102
RTVSPropertyOp60
 70
     1
102
RTVSPropertyOp61
 70
     1
102
RTVSPropertyOp62
 70
     1
  0
XRECORD
  5
C308
102
{ACAD_REACTORS
330
C307
102
}
330
C307
100
AcDbXrecord
280
     1
102
RTVSPost2010Prop28
280
     0
102
RTVSPost2010PropOp28
 70
     1
102
RTVSPost2010Prop29
280
     1
102
RTVSPost2010PropOp29
 70
     1
102
RTVSPost2010Prop30
280
     1
102
RTVSPost2010PropOp30
 70
     1
102
RTVSPost2010Prop31
280
     0
102
RTVSPost2010PropOp31
 70
     1
102
RTVSPost2010Prop32
280
     0
102
RTVSPost2010PropOp32
 70
     1
102
RTVSPost2010Prop33
280
     0
102
RTVSPost2010PropOp33
 70
     1
102
RTVSPost2010Prop34
280
     0
102
RTVSPost2010PropOp34
 70
     1
102
RTVSPost2010Prop35
280
     0
102
RTVSPost2010PropOp35
 70
     1
102
RTVSPost2010Prop36
280
     0
102
RTVSPost2010PropOp36
 70
     1
102
RTVSPost2010Prop37
 90
       50
102
RTVSPost2010PropOp37
 70
     1
102
RTVSPost2010Prop38
140
0.0
102
RTVSPost2010PropOp38
 70
     1
102
RTVSPost2010Prop39
140
1.0
102
RTVSPost2010PropOp39
 70
     1
102
RTVSPost2010Prop40
 90
        0
102
RTVSPost2010PropOp40
 70
     1
102
RTVSPost2010Prop41ColorIndex
 90
       18
102
RTVSPost2010Prop41ColorRGB
 90
        0
102
RTVSPost2010PropOp41
 70
     1
102
RTVSPost2010Prop42
 90
       50
102
RTVSPost2010PropOp42
 70
     1
102
RTVSPost2010Prop43
 90
        3
102
RTVSPost2010PropOp43
 70
     1
102
RTVSPost2010Prop44ColorIndex
 90
        5
102
RTVSPost2010Prop44ColorRGB
 90
      255
102
RTVSPost2010PropOp44
 70
     1
102
RTVSPost2010Prop45
280
     0
102
RTVSPost2010PropOp45
 70
     1
102
RTVSPost2010Prop46
 90
       50
102
RTVSPost2010PropOp46
 70
     1
102
RTVSPost2010Prop47
 90
       50
102
RTVSPost2010PropOp47
 70
     1
102
RTVSPost2010Prop48
 90
       50
102
RTVSPost2010PropOp48
 70
     1
102
RTVSPost2010Prop49
280
     0
102
RTVSPost2010PropOp49
 70
     1
102
RTVSPost2010Prop50
 90
       50
102
RTVSPost2010PropOp50
 70
     1
102
RTVSPost2010Prop51ColorIndex
 90
      256
102
RTVSPost2010Prop51ColorRGB
 90
-16777216
102
RTVSPost2010PropOp51
 70
     0
102
RTVSPost2010Prop52
140
1.0
102
RTVSPost2010PropOp52
 70
     0
102
RTVSPost2010Prop53
 90
        2
102
RTVSPost2010PropOp53
 70
     1
102
RTVSPost2010Prop54
  1
strokes_ogs.tif
102
RTVSPost2010PropOp54
 70
     1
102
RTVSPost2010Prop55
280
     0
102
RTVSPost2010PropOp55
 70
     1
102
RTVSPost2010Prop56
140
1.0
102
RTVSPost2010PropOp56
 70
     1
102
RTVSPost2010Prop57
140
1.0
102
RTVSPost2010PropOp57
 70
     1
102
RTVSPropertyOp0
 70
     1
102
RTVSPropertyOp1
 70
     1
102
RTVSPropertyOp2
 70
     1
102
RTVSPropertyOp3
 70
     1
102
RTVSPropertyOp4
 70
     1
102
RTVSPropertyOp5
 70
     1
102
RTVSPropertyOp6
 70
     1
102
RTVSPropertyOp7
 70
     1
102
RTVSPropertyOp8
 70
     1
102
RTVSPropertyOp9
 70
     1
102
RTVSPropertyOp10
 70
     1
102
RTVSPropertyOp11
 70
     1
102
RTVSPropertyOp12
 70
     1
102
RTVSPropertyOp13
 70
     1
102
RTVSPropertyOp14
 70
     1
102
RTVSPropertyOp15
 70
     1
102
RTVSPropertyOp16
 70
     1
102
RTVSPropertyOp17
 70
     1
102
RTVSPropertyOp18
 70
     1
102
RTVSPropertyOp19
 70
     1
102
RTVSPropertyOp20
 70
     1
102
RTVSPropertyOp21
 70
     1
102
RTVSPropertyOp22
 70
     1
102
RTVSPropertyOp23
 70
     1
102
RTVSPropertyOp24
 70
     1
102
RTVSPropertyOp25
 70
     1
102
RTVSPropertyOp26
 70
     1
102
RTVSPropertyOp27
 70
     1
102
RTVSPropertyOp28
 70
     1
102
RTVSPropertyOp29
 70
     1
102
RTVSPropertyOp30
 70
     1
102
RTVSPropertyOp31
 70
     1
102
RTVSPropertyOp32
 70
     1
102
RTVSPropertyOp33
 70
     1
102
RTVSPropertyOp34
 70
     1
102
RTVSPropertyOp35
 70
     1
102
RTVSPropertyOp36
 70
     1
102
RTVSPropertyOp37
 70
     1
102
RTVSPropertyOp38
 70
     1
102
RTVSPropertyOp39
 70
     1
102
RTVSPropertyOp40
 70
     1
102
RTVSPropertyOp41
 70
     1
102
RTVSPropertyOp42
 70
     1
102
RTVSPropertyOp43
 70
     1
102
RTVSPropertyOp44
 70
     1
102
RTVSPropertyOp45
 70
     1
102
RTVSPropertyOp46
 70
     1
102
RTVSPropertyOp47
 70
     1
102
RTVSPropertyOp48
 70
     1
102
RTVSPropertyOp49
 70
     1
102
RTVSPropertyOp50
 70
     1
102
RTVSPropertyOp51
 70
     0
102
RTVSPropertyOp52
 70
     0
102
RTVSPropertyOp53
 70
     1
102
RTVSPropertyOp54
 70
     1
102
RTVSPropertyOp55
 70
     1
102
RTVSPropertyOp56
 70
     1
102
RTVSPropertyOp57
 70
     1
102
RTVSPropertyOp58
 70
     1
102
RTVSPropertyOp59
 70
     1
102
RTVSPropertyOp60
 70
     1
102
RTVSPropertyOp61
 70
     1
102
RTVSPropertyOp62
 70
     1
  0
XRECORD
  5
C2FA
102
{ACAD_REACTORS
330
C2F9
102
}
330
C2F9
100
AcDbXrecord
280
     1
102
RTVSPost2010Prop28
280
     0
102
RTVSPost2010PropOp28
 70
     1
102
RTVSPost2010Prop29
280
     1
102
RTVSPost2010PropOp29
 70
     1
102
RTVSPost2010Prop30
280
     1
102
RTVSPost2010PropOp30
 70
     1
102
RTVSPost2010Prop31
280
     0
102
RTVSPost2010PropOp31
 70
     1
102
RTVSPost2010Prop32
280
     0
102
RTVSPost2010PropOp32
 70
     1
102
RTVSPost2010Prop33
280
     0
102
RTVSPost2010PropOp33
 70
     1
102
RTVSPost2010Prop34
280
     0
102
RTVSPost2010PropOp34
 70
     1
102
RTVSPost2010Prop35
280
     0
102
RTVSPost2010PropOp35
 70
     1
102
RTVSPost2010Prop36
280
     0
102
RTVSPost2010PropOp36
 70
     1
102
RTVSPost2010Prop37
 90
       50
102
RTVSPost2010PropOp37
 70
     1
102
RTVSPost2010Prop38
140
0.0
102
RTVSPost2010PropOp38
 70
     1
102
RTVSPost2010Prop39
140
1.0
102
RTVSPost2010PropOp39
 70
     1
102
RTVSPost2010Prop40
 90
        0
102
RTVSPost2010PropOp40
 70
     1
102
RTVSPost2010Prop41ColorIndex
 90
       18
102
RTVSPost2010Prop41ColorRGB
 90
        0
102
RTVSPost2010PropOp41
 70
     1
102
RTVSPost2010Prop42
 90
       50
102
RTVSPost2010PropOp42
 70
     1
102
RTVSPost2010Prop43
 90
        3
102
RTVSPost2010PropOp43
 70
     1
102
RTVSPost2010Prop44ColorIndex
 90
        5
102
RTVSPost2010Prop44ColorRGB
 90
      255
102
RTVSPost2010PropOp44
 70
     1
102
RTVSPost2010Prop45
280
     0
102
RTVSPost2010PropOp45
 70
     1
102
RTVSPost2010Prop46
 90
       50
102
RTVSPost2010PropOp46
 70
     1
102
RTVSPost2010Prop47
 90
       50
102
RTVSPost2010PropOp47
 70
     1
102
RTVSPost2010Prop48
 90
       50
102
RTVSPost2010PropOp48
 70
     1
102
RTVSPost2010Prop49
280
     0
102
RTVSPost2010PropOp49
 70
     1
102
RTVSPost2010Prop50
 90
       50
102
RTVSPost2010PropOp50
 70
     1
102
RTVSPost2010Prop51ColorIndex
 90
      256
102
RTVSPost2010Prop51ColorRGB
 90
-16777216
102
RTVSPost2010PropOp51
 70
     0
102
RTVSPost2010Prop52
140
1.0
102
RTVSPost2010PropOp52
 70
     0
102
RTVSPost2010Prop53
 90
        2
102
RTVSPost2010PropOp53
 70
     1
102
RTVSPost2010Prop54
  1
strokes_ogs.tif
102
RTVSPost2010PropOp54
 70
     1
102
RTVSPost2010Prop55
280
     0
102
RTVSPost2010PropOp55
 70
     1
102
RTVSPost2010Prop56
140
1.0
102
RTVSPost2010PropOp56
 70
     1
102
RTVSPost2010Prop57
140
1.0
102
RTVSPost2010PropOp57
 70
     1
102
RTVSPropertyOp0
 70
     1
102
RTVSPropertyOp1
 70
     1
102
RTVSPropertyOp2
 70
     1
102
RTVSPropertyOp3
 70
     1
102
RTVSPropertyOp4
 70
     1
102
RTVSPropertyOp5
 70
     1
102
RTVSPropertyOp6
 70
     1
102
RTVSPropertyOp7
 70
     1
102
RTVSPropertyOp8
 70
     1
102
RTVSPropertyOp9
 70
     1
102
RTVSPropertyOp10
 70
     1
102
RTVSPropertyOp11
 70
     1
102
RTVSPropertyOp12
 70
     1
102
RTVSPropertyOp13
 70
     1
102
RTVSPropertyOp14
 70
     1
102
RTVSPropertyOp15
 70
     1
102
RTVSPropertyOp16
 70
     1
102
RTVSPropertyOp17
 70
     1
102
RTVSPropertyOp18
 70
     1
102
RTVSPropertyOp19
 70
     1
102
RTVSPropertyOp20
 70
     1
102
RTVSPropertyOp21
 70
     1
102
RTVSPropertyOp22
 70
     1
102
RTVSPropertyOp23
 70
     1
102
RTVSPropertyOp24
 70
     1
102
RTVSPropertyOp25
 70
     1
102
RTVSPropertyOp26
 70
     1
102
RTVSPropertyOp27
 70
     1
102
RTVSPropertyOp28
 70
     1
102
RTVSPropertyOp29
 70
     1
102
RTVSPropertyOp30
 70
     1
102
RTVSPropertyOp31
 70
     1
102
RTVSPropertyOp32
 70
     1
102
RTVSPropertyOp33
 70
     1
102
RTVSPropertyOp34
 70
     1
102
RTVSPropertyOp35
 70
     1
102
RTVSPropertyOp36
 70
     1
102
RTVSPropertyOp37
 70
     1
102
RTVSPropertyOp38
 70
     1
102
RTVSPropertyOp39
 70
     1
102
RTVSPropertyOp40
 70
     1
102
RTVSPropertyOp41
 70
     1
102
RTVSPropertyOp42
 70
     1
102
RTVSPropertyOp43
 70
     1
102
RTVSPropertyOp44
 70
     1
102
RTVSPropertyOp45
 70
     1
102
RTVSPropertyOp46
 70
     1
102
RTVSPropertyOp47
 70
     1
102
RTVSPropertyOp48
 70
     1
102
RTVSPropertyOp49
 70
     1
102
RTVSPropertyOp50
 70
     1
102
RTVSPropertyOp51
 70
     0
102
RTVSPropertyOp52
 70
     0
102
RTVSPropertyOp53
 70
     1
102
RTVSPropertyOp54
 70
     1
102
RTVSPropertyOp55
 70
     1
102
RTVSPropertyOp56
 70
     1
102
RTVSPropertyOp57
 70
     1
102
RTVSPropertyOp58
 70
     1
102
RTVSPropertyOp59
 70
     1
102
RTVSPropertyOp60
 70
     1
102
RTVSPropertyOp61
 70
     1
102
RTVSPropertyOp62
 70
     1
  0
XRECORD
  5
C2FE
102
{ACAD_REACTORS
330
C2FD
102
}
330
C2FD
100
AcDbXrecord
280
     1
102
RTVSPost2010Prop28
280
     0
102
RTVSPost2010PropOp28
 70
     1
102
RTVSPost2010Prop29
280
     1
102
RTVSPost2010PropOp29
 70
     1
102
RTVSPost2010Prop30
280
     1
102
RTVSPost2010PropOp30
 70
     1
102
RTVSPost2010Prop31
280
     0
102
RTVSPost2010PropOp31
 70
     1
102
RTVSPost2010Prop32
280
     0
102
RTVSPost2010PropOp32
 70
     1
102
RTVSPost2010Prop33
280
     0
102
RTVSPost2010PropOp33
 70
     1
102
RTVSPost2010Prop34
280
     0
102
RTVSPost2010PropOp34
 70
     1
102
RTVSPost2010Prop35
280
     0
102
RTVSPost2010PropOp35
 70
     1
102
RTVSPost2010Prop36
280
     0
102
RTVSPost2010PropOp36
 70
     1
102
RTVSPost2010Prop37
 90
       50
102
RTVSPost2010PropOp37
 70
     1
102
RTVSPost2010Prop38
140
0.0
102
RTVSPost2010PropOp38
 70
     1
102
RTVSPost2010Prop39
140
1.0
102
RTVSPost2010PropOp39
 70
     1
102
RTVSPost2010Prop40
 90
        0
102
RTVSPost2010PropOp40
 70
     1
102
RTVSPost2010Prop41ColorIndex
 90
       18
102
RTVSPost2010Prop41ColorRGB
 90
        0
102
RTVSPost2010PropOp41
 70
     1
102
RTVSPost2010Prop42
 90
       50
102
RTVSPost2010PropOp42
 70
     1
102
RTVSPost2010Prop43
 90
        3
102
RTVSPost2010PropOp43
 70
     1
102
RTVSPost2010Prop44ColorIndex
 90
        5
102
RTVSPost2010Prop44ColorRGB
 90
      255
102
RTVSPost2010PropOp44
 70
     1
102
RTVSPost2010Prop45
280
     0
102
RTVSPost2010PropOp45
 70
     1
102
RTVSPost2010Prop46
 90
       50
102
RTVSPost2010PropOp46
 70
     1
102
RTVSPost2010Prop47
 90
       50
102
RTVSPost2010PropOp47
 70
     1
102
RTVSPost2010Prop48
 90
       50
102
RTVSPost2010PropOp48
 70
     1
102
RTVSPost2010Prop49
280
     0
102
RTVSPost2010PropOp49
 70
     1
102
RTVSPost2010Prop50
 90
       50
102
RTVSPost2010PropOp50
 70
     1
102
RTVSPost2010Prop51ColorIndex
 90
      256
102
RTVSPost2010Prop51ColorRGB
 90
-16777216
102
RTVSPost2010PropOp51
 70
     0
102
RTVSPost2010Prop52
140
1.0
102
RTVSPost2010PropOp52
 70
     0
102
RTVSPost2010Prop53
 90
        2
102
RTVSPost2010PropOp53
 70
     1
102
RTVSPost2010Prop54
  1
strokes_ogs.tif
102
RTVSPost2010PropOp54
 70
     1
102
RTVSPost2010Prop55
280
     0
102
RTVSPost2010PropOp55
 70
     1
102
RTVSPost2010Prop56
140
1.0
102
RTVSPost2010PropOp56
 70
     1
102
RTVSPost2010Prop57
140
1.0
102
RTVSPost2010PropOp57
 70
     1
102
RTVSPropertyOp0
 70
     1
102
RTVSPropertyOp1
 70
     1
102
RTVSPropertyOp2
 70
     1
102
RTVSPropertyOp3
 70
     1
102
RTVSPropertyOp4
 70
     1
102
RTVSPropertyOp5
 70
     1
102
RTVSPropertyOp6
 70
     1
102
RTVSPropertyOp7
 70
     1
102
RTVSPropertyOp8
 70
     1
102
RTVSPropertyOp9
 70
     1
102
RTVSPropertyOp10
 70
     1
102
RTVSPropertyOp11
 70
     1
102
RTVSPropertyOp12
 70
     1
102
RTVSPropertyOp13
 70
     1
102
RTVSPropertyOp14
 70
     1
102
RTVSPropertyOp15
 70
     1
102
RTVSPropertyOp16
 70
     1
102
RTVSPropertyOp17
 70
     1
102
RTVSPropertyOp18
 70
     1
102
RTVSPropertyOp19
 70
     1
102
RTVSPropertyOp20
 70
     1
102
RTVSPropertyOp21
 70
     1
102
RTVSPropertyOp22
 70
     1
102
RTVSPropertyOp23
 70
     1
102
RTVSPropertyOp24
 70
     1
102
RTVSPropertyOp25
 70
     1
102
RTVSPropertyOp26
 70
     1
102
RTVSPropertyOp27
 70
     1
102
RTVSPropertyOp28
 70
     1
102
RTVSPropertyOp29
 70
     1
102
RTVSPropertyOp30
 70
     1
102
RTVSPropertyOp31
 70
     1
102
RTVSPropertyOp32
 70
     1
102
RTVSPropertyOp33
 70
     1
102
RTVSPropertyOp34
 70
     1
102
RTVSPropertyOp35
 70
     1
102
RTVSPropertyOp36
 70
     1
102
RTVSPropertyOp37
 70
     1
102
RTVSPropertyOp38
 70
     1
102
RTVSPropertyOp39
 70
     1
102
RTVSPropertyOp40
 70
     1
102
RTVSPropertyOp41
 70
     1
102
RTVSPropertyOp42
 70
     1
102
RTVSPropertyOp43
 70
     1
102
RTVSPropertyOp44
 70
     1
102
RTVSPropertyOp45
 70
     1
102
RTVSPropertyOp46
 70
     1
102
RTVSPropertyOp47
 70
     1
102
RTVSPropertyOp48
 70
     1
102
RTVSPropertyOp49
 70
     1
102
RTVSPropertyOp50
 70
     1
102
RTVSPropertyOp51
 70
     0
102
RTVSPropertyOp52
 70
     0
102
RTVSPropertyOp53
 70
     1
102
RTVSPropertyOp54
 70
     1
102
RTVSPropertyOp55
 70
     1
102
RTVSPropertyOp56
 70
     1
102
RTVSPropertyOp57
 70
     1
102
RTVSPropertyOp58
 70
     1
102
RTVSPropertyOp59
 70
     1
102
RTVSPropertyOp60
 70
     1
102
RTVSPropertyOp61
 70
     1
102
RTVSPropertyOp62
 70
     1
  0
XRECORD
  5
C310
102
{ACAD_REACTORS
330
C30F
102
}
330
C30F
100
AcDbXrecord
280
     1
102
RTVSPost2010Prop28
280
     0
102
RTVSPost2010PropOp28
 70
     1
102
RTVSPost2010Prop29
280
     1
102
RTVSPost2010PropOp29
 70
     1
102
RTVSPost2010Prop30
280
     1
102
RTVSPost2010PropOp30
 70
     1
102
RTVSPost2010Prop31
280
     0
102
RTVSPost2010PropOp31
 70
     1
102
RTVSPost2010Prop32
280
     0
102
RTVSPost2010PropOp32
 70
     1
102
RTVSPost2010Prop33
280
     0
102
RTVSPost2010PropOp33
 70
     1
102
RTVSPost2010Prop34
280
     0
102
RTVSPost2010PropOp34
 70
     1
102
RTVSPost2010Prop35
280
     0
102
RTVSPost2010PropOp35
 70
     1
102
RTVSPost2010Prop36
280
     0
102
RTVSPost2010PropOp36
 70
     1
102
RTVSPost2010Prop37
 90
       50
102
RTVSPost2010PropOp37
 70
     1
102
RTVSPost2010Prop38
140
0.0
102
RTVSPost2010PropOp38
 70
     1
102
RTVSPost2010Prop39
140
1.0
102
RTVSPost2010PropOp39
 70
     1
102
RTVSPost2010Prop40
 90
        0
102
RTVSPost2010PropOp40
 70
     1
102
RTVSPost2010Prop41ColorIndex
 90
       18
102
RTVSPost2010Prop41ColorRGB
 90
        0
102
RTVSPost2010PropOp41
 70
     1
102
RTVSPost2010Prop42
 90
       50
102
RTVSPost2010PropOp42
 70
     1
102
RTVSPost2010Prop43
 90
        3
102
RTVSPost2010PropOp43
 70
     1
102
RTVSPost2010Prop44ColorIndex
 90
        5
102
RTVSPost2010Prop44ColorRGB
 90
      255
102
RTVSPost2010PropOp44
 70
     1
102
RTVSPost2010Prop45
280
     0
102
RTVSPost2010PropOp45
 70
     1
102
RTVSPost2010Prop46
 90
       50
102
RTVSPost2010PropOp46
 70
     1
102
RTVSPost2010Prop47
 90
       50
102
RTVSPost2010PropOp47
 70
     1
102
RTVSPost2010Prop48
 90
       50
102
RTVSPost2010PropOp48
 70
     1
102
RTVSPost2010Prop49
280
     0
102
RTVSPost2010PropOp49
 70
     1
102
RTVSPost2010Prop50
 90
       50
102
RTVSPost2010PropOp50
 70
     1
102
RTVSPost2010Prop51ColorIndex
 90
      256
102
RTVSPost2010Prop51ColorRGB
 90
-16777216
102
RTVSPost2010PropOp51
 70
     0
102
RTVSPost2010Prop52
140
1.0
102
RTVSPost2010PropOp52
 70
     0
102
RTVSPost2010Prop53
 90
        2
102
RTVSPost2010PropOp53
 70
     1
102
RTVSPost2010Prop54
  1
strokes_ogs.tif
102
RTVSPost2010PropOp54
 70
     1
102
RTVSPost2010Prop55
280
     0
102
RTVSPost2010PropOp55
 70
     1
102
RTVSPost2010Prop56
140
1.0
102
RTVSPost2010PropOp56
 70
     1
102
RTVSPost2010Prop57
140
1.0
102
RTVSPost2010PropOp57
 70
     1
102
RTVSPropertyOp0
 70
     0
102
RTVSPropertyOp1
 70
     0
102
RTVSPropertyOp2
 70
     0
102
RTVSPropertyOp3
 70
     0
102
RTVSPropertyOp4
 70
     0
102
RTVSPropertyOp5
 70
     0
102
RTVSPropertyOp6
 70
     0
102
RTVSPropertyOp7
 70
     0
102
RTVSPropertyOp8
 70
     0
102
RTVSPropertyOp9
 70
     0
102
RTVSPropertyOp10
 70
     0
102
RTVSPropertyOp11
 70
     0
102
RTVSPropertyOp12
 70
     0
102
RTVSPropertyOp13
 70
     0
102
RTVSPropertyOp14
 70
     2
102
RTVSPropertyOp15
 70
     0
102
RTVSPropertyOp16
 70
     0
102
RTVSPropertyOp17
 70
     0
102
RTVSPropertyOp18
 70
     0
102
RTVSPropertyOp19
 70
     0
102
RTVSPropertyOp20
 70
     0
102
RTVSPropertyOp21
 70
     0
102
RTVSPropertyOp22
 70
     0
102
RTVSPropertyOp23
 70
     0
102
RTVSPropertyOp24
 70
     0
102
RTVSPropertyOp25
 70
     0
102
RTVSPropertyOp26
 70
     0
102
RTVSPropertyOp27
 70
     0
102
RTVSPropertyOp28
 70
     1
102
RTVSPropertyOp29
 70
     1
102
RTVSPropertyOp30
 70
     1
102
RTVSPropertyOp31
 70
     1
102
RTVSPropertyOp32
 70
     1
102
RTVSPropertyOp33
 70
     1
102
RTVSPropertyOp34
 70
     1
102
RTVSPropertyOp35
 70
     1
102
RTVSPropertyOp36
 70
     1
102
RTVSPropertyOp37
 70
     1
102
RTVSPropertyOp38
 70
     1
102
RTVSPropertyOp39
 70
     1
102
RTVSPropertyOp40
 70
     1
102
RTVSPropertyOp41
 70
     1
102
RTVSPropertyOp42
 70
     1
102
RTVSPropertyOp43
 70
     1
102
RTVSPropertyOp44
 70
     1
102
RTVSPropertyOp45
 70
     1
102
RTVSPropertyOp46
 70
     1
102
RTVSPropertyOp47
 70
     1
102
RTVSPropertyOp48
 70
     1
102
RTVSPropertyOp49
 70
     1
102
RTVSPropertyOp50
 70
     1
102
RTVSPropertyOp51
 70
     0
102
RTVSPropertyOp52
 70
     0
102
RTVSPropertyOp53
 70
     1
102
RTVSPropertyOp54
 70
     1
102
RTVSPropertyOp55
 70
     1
102
RTVSPropertyOp56
 70
     1
102
RTVSPropertyOp57
 70
     1
102
RTVSPropertyOp58
 70
     1
102
RTVSPropertyOp59
 70
     1
102
RTVSPropertyOp60
 70
     1
102
RTVSPropertyOp61
 70
     1
102
RTVSPropertyOp62
 70
     1
  0
XRECORD
  5
C306
102
{ACAD_REACTORS
330
C305
102
}
330
C305
100
AcDbXrecord
280
     1
102
RTVSPost2010Prop28
280
     0
102
RTVSPost2010PropOp28
 70
     1
102
RTVSPost2010Prop29
280
     1
102
RTVSPost2010PropOp29
 70
     1
102
RTVSPost2010Prop30
280
     1
102
RTVSPost2010PropOp30
 70
     1
102
RTVSPost2010Prop31
280
     0
102
RTVSPost2010PropOp31
 70
     1
102
RTVSPost2010Prop32
280
     0
102
RTVSPost2010PropOp32
 70
     1
102
RTVSPost2010Prop33
280
     0
102
RTVSPost2010PropOp33
 70
     1
102
RTVSPost2010Prop34
280
     0
102
RTVSPost2010PropOp34
 70
     1
102
RTVSPost2010Prop35
280
     0
102
RTVSPost2010PropOp35
 70
     1
102
RTVSPost2010Prop36
280
     0
102
RTVSPost2010PropOp36
 70
     1
102
RTVSPost2010Prop37
 90
       50
102
RTVSPost2010PropOp37
 70
     1
102
RTVSPost2010Prop38
140
0.0
102
RTVSPost2010PropOp38
 70
     1
102
RTVSPost2010Prop39
140
1.0
102
RTVSPost2010PropOp39
 70
     1
102
RTVSPost2010Prop40
 90
        0
102
RTVSPost2010PropOp40
 70
     1
102
RTVSPost2010Prop41ColorIndex
 90
       18
102
RTVSPost2010Prop41ColorRGB
 90
        0
102
RTVSPost2010PropOp41
 70
     1
102
RTVSPost2010Prop42
 90
       50
102
RTVSPost2010PropOp42
 70
     1
102
RTVSPost2010Prop43
 90
        3
102
RTVSPost2010PropOp43
 70
     1
102
RTVSPost2010Prop44ColorIndex
 90
        5
102
RTVSPost2010Prop44ColorRGB
 90
      255
102
RTVSPost2010PropOp44
 70
     1
102
RTVSPost2010Prop45
280
     0
102
RTVSPost2010PropOp45
 70
     1
102
RTVSPost2010Prop46
 90
       50
102
RTVSPost2010PropOp46
 70
     1
102
RTVSPost2010Prop47
 90
       50
102
RTVSPost2010PropOp47
 70
     1
102
RTVSPost2010Prop48
 90
       50
102
RTVSPost2010PropOp48
 70
     1
102
RTVSPost2010Prop49
280
     0
102
RTVSPost2010PropOp49
 70
     1
102
RTVSPost2010Prop50
 90
       50
102
RTVSPost2010PropOp50
 70
     1
102
RTVSPost2010Prop51ColorIndex
 90
      256
102
RTVSPost2010Prop51ColorRGB
 90
-16777216
102
RTVSPost2010PropOp51
 70
     0
102
RTVSPost2010Prop52
140
1.0
102
RTVSPost2010PropOp52
 70
     0
102
RTVSPost2010Prop53
 90
        2
102
RTVSPost2010PropOp53
 70
     1
102
RTVSPost2010Prop54
  1
strokes_ogs.tif
102
RTVSPost2010PropOp54
 70
     1
102
RTVSPost2010Prop55
280
     0
102
RTVSPost2010PropOp55
 70
     1
102
RTVSPost2010Prop56
140
1.0
102
RTVSPost2010PropOp56
 70
     1
102
RTVSPost2010Prop57
140
1.0
102
RTVSPost2010PropOp57
 70
     1
102
RTVSPropertyOp0
 70
     1
102
RTVSPropertyOp1
 70
     1
102
RTVSPropertyOp2
 70
     1
102
RTVSPropertyOp3
 70
     1
102
RTVSPropertyOp4
 70
     1
102
RTVSPropertyOp5
 70
     1
102
RTVSPropertyOp6
 70
     1
102
RTVSPropertyOp7
 70
     1
102
RTVSPropertyOp8
 70
     1
102
RTVSPropertyOp9
 70
     1
102
RTVSPropertyOp10
 70
     1
102
RTVSPropertyOp11
 70
     1
102
RTVSPropertyOp12
 70
     1
102
RTVSPropertyOp13
 70
     1
102
RTVSPropertyOp14
 70
     1
102
RTVSPropertyOp15
 70
     1
102
RTVSPropertyOp16
 70
     1
102
RTVSPropertyOp17
 70
     1
102
RTVSPropertyOp18
 70
     1
102
RTVSPropertyOp19
 70
     1
102
RTVSPropertyOp20
 70
     1
102
RTVSPropertyOp21
 70
     1
102
RTVSPropertyOp22
 70
     1
102
RTVSPropertyOp23
 70
     1
102
RTVSPropertyOp24
 70
     1
102
RTVSPropertyOp25
 70
     1
102
RTVSPropertyOp26
 70
     1
102
RTVSPropertyOp27
 70
     1
102
RTVSPropertyOp28
 70
     1
102
RTVSPropertyOp29
 70
     1
102
RTVSPropertyOp30
 70
     1
102
RTVSPropertyOp31
 70
     1
102
RTVSPropertyOp32
 70
     1
102
RTVSPropertyOp33
 70
     1
102
RTVSPropertyOp34
 70
     1
102
RTVSPropertyOp35
 70
     1
102
RTVSPropertyOp36
 70
     1
102
RTVSPropertyOp37
 70
     1
102
RTVSPropertyOp38
 70
     1
102
RTVSPropertyOp39
 70
     1
102
RTVSPropertyOp40
 70
     1
102
RTVSPropertyOp41
 70
     1
102
RTVSPropertyOp42
 70
     1
102
RTVSPropertyOp43
 70
     1
102
RTVSPropertyOp44
 70
     1
102
RTVSPropertyOp45
 70
     1
102
RTVSPropertyOp46
 70
     1
102
RTVSPropertyOp47
 70
     1
102
RTVSPropertyOp48
 70
     1
102
RTVSPropertyOp49
 70
     1
102
RTVSPropertyOp50
 70
     1
102
RTVSPropertyOp51
 70
     0
102
RTVSPropertyOp52
 70
     0
102
RTVSPropertyOp53
 70
     1
102
RTVSPropertyOp54
 70
     1
102
RTVSPropertyOp55
 70
     1
102
RTVSPropertyOp56
 70
     1
102
RTVSPropertyOp57
 70
     1
102
RTVSPropertyOp58
 70
     1
102
RTVSPropertyOp59
 70
     1
102
RTVSPropertyOp60
 70
     1
102
RTVSPropertyOp61
 70
     1
102
RTVSPropertyOp62
 70
     1
  0
XRECORD
  5
C2EA
102
{ACAD_REACTORS
330
C2E9
102
}
330
C2E9
100
AcDbXrecord
280
     1
102
RTVSPost2010Prop28
280
     0
102
RTVSPost2010PropOp28
 70
     1
102
RTVSPost2010Prop29
280
     1
102
RTVSPost2010PropOp29
 70
     1
102
RTVSPost2010Prop30
280
     1
102
RTVSPost2010PropOp30
 70
     1
102
RTVSPost2010Prop31
280
     0
102
RTVSPost2010PropOp31
 70
     1
102
RTVSPost2010Prop32
280
     0
102
RTVSPost2010PropOp32
 70
     1
102
RTVSPost2010Prop33
280
     0
102
RTVSPost2010PropOp33
 70
     1
102
RTVSPost2010Prop34
280
     0
102
RTVSPost2010PropOp34
 70
     1
102
RTVSPost2010Prop35
280
     0
102
RTVSPost2010PropOp35
 70
     1
102
RTVSPost2010Prop36
280
     0
102
RTVSPost2010PropOp36
 70
     1
102
RTVSPost2010Prop37
 90
       50
102
RTVSPost2010PropOp37
 70
     1
102
RTVSPost2010Prop38
140
0.0
102
RTVSPost2010PropOp38
 70
     1
102
RTVSPost2010Prop39
140
1.0
102
RTVSPost2010PropOp39
 70
     1
102
RTVSPost2010Prop40
 90
        0
102
RTVSPost2010PropOp40
 70
     1
102
RTVSPost2010Prop41ColorIndex
 90
       18
102
RTVSPost2010Prop41ColorRGB
 90
        0
102
RTVSPost2010PropOp41
 70
     1
102
RTVSPost2010Prop42
 90
       50
102
RTVSPost2010PropOp42
 70
     1
102
RTVSPost2010Prop43
 90
        3
102
RTVSPost2010PropOp43
 70
     1
102
RTVSPost2010Prop44ColorIndex
 90
        5
102
RTVSPost2010Prop44ColorRGB
 90
      255
102
RTVSPost2010PropOp44
 70
     1
102
RTVSPost2010Prop45
280
     0
102
RTVSPost2010PropOp45
 70
     1
102
RTVSPost2010Prop46
 90
       50
102
RTVSPost2010PropOp46
 70
     1
102
RTVSPost2010Prop47
 90
       50
102
RTVSPost2010PropOp47
 70
     1
102
RTVSPost2010Prop48
 90
       50
102
RTVSPost2010PropOp48
 70
     1
102
RTVSPost2010Prop49
280
     0
102
RTVSPost2010PropOp49
 70
     1
102
RTVSPost2010Prop50
 90
       50
102
RTVSPost2010PropOp50
 70
     1
102
RTVSPost2010Prop51ColorIndex
 90
      256
102
RTVSPost2010Prop51ColorRGB
 90
-16777216
102
RTVSPost2010PropOp51
 70
     0
102
RTVSPost2010Prop52
140
1.0
102
RTVSPost2010PropOp52
 70
     0
102
RTVSPost2010Prop53
 90
        2
102
RTVSPost2010PropOp53
 70
     1
102
RTVSPost2010Prop54
  1
strokes_ogs.tif
102
RTVSPost2010PropOp54
 70
     1
102
RTVSPost2010Prop55
280
     0
102
RTVSPost2010PropOp55
 70
     1
102
RTVSPost2010Prop56
140
1.0
102
RTVSPost2010PropOp56
 70
     1
102
RTVSPost2010Prop57
140
1.0
102
RTVSPost2010PropOp57
 70
     1
102
RTVSPropertyOp0
 70
     1
102
RTVSPropertyOp1
 70
     1
102
RTVSPropertyOp2
 70
     1
102
RTVSPropertyOp3
 70
     1
102
RTVSPropertyOp4
 70
     1
102
RTVSPropertyOp5
 70
     1
102
RTVSPropertyOp6
 70
     1
102
RTVSPropertyOp7
 70
     1
102
RTVSPropertyOp8
 70
     1
102
RTVSPropertyOp9
 70
     1
102
RTVSPropertyOp10
 70
     1
102
RTVSPropertyOp11
 70
     1
102
RTVSPropertyOp12
 70
     1
102
RTVSPropertyOp13
 70
     1
102
RTVSPropertyOp14
 70
     1
102
RTVSPropertyOp15
 70
     1
102
RTVSPropertyOp16
 70
     1
102
RTVSPropertyOp17
 70
     1
102
RTVSPropertyOp18
 70
     1
102
RTVSPropertyOp19
 70
     1
102
RTVSPropertyOp20
 70
     1
102
RTVSPropertyOp21
 70
     1
102
RTVSPropertyOp22
 70
     1
102
RTVSPropertyOp23
 70
     1
102
RTVSPropertyOp24
 70
     1
102
RTVSPropertyOp25
 70
     1
102
RTVSPropertyOp26
 70
     1
102
RTVSPropertyOp27
 70
     1
102
RTVSPropertyOp28
 70
     1
102
RTVSPropertyOp29
 70
     1
102
RTVSPropertyOp30
 70
     1
102
RTVSPropertyOp31
 70
     1
102
RTVSPropertyOp32
 70
     1
102
RTVSPropertyOp33
 70
     1
102
RTVSPropertyOp34
 70
     1
102
RTVSPropertyOp35
 70
     1
102
RTVSPropertyOp36
 70
     1
102
RTVSPropertyOp37
 70
     1
102
RTVSPropertyOp38
 70
     1
102
RTVSPropertyOp39
 70
     1
102
RTVSPropertyOp40
 70
     1
102
RTVSPropertyOp41
 70
     1
102
RTVSPropertyOp42
 70
     1
102
RTVSPropertyOp43
 70
     1
102
RTVSPropertyOp44
 70
     1
102
RTVSPropertyOp45
 70
     1
102
RTVSPropertyOp46
 70
     1
102
RTVSPropertyOp47
 70
     1
102
RTVSPropertyOp48
 70
     1
102
RTVSPropertyOp49
 70
     1
102
RTVSPropertyOp50
 70
     1
102
RTVSPropertyOp51
 70
     0
102
RTVSPropertyOp52
 70
     0
102
RTVSPropertyOp53
 70
     1
102
RTVSPropertyOp54
 70
     1
102
RTVSPropertyOp55
 70
     1
102
RTVSPropertyOp56
 70
     1
102
RTVSPropertyOp57
 70
     1
102
RTVSPropertyOp58
 70
     1
102
RTVSPropertyOp59
 70
     1
102
RTVSPropertyOp60
 70
     1
102
RTVSPropertyOp61
 70
     1
102
RTVSPropertyOp62
 70
     1
  0
XRECORD
  5
C2EC
102
{ACAD_REACTORS
330
C2EB
102
}
330
C2EB
100
AcDbXrecord
280
     1
102
RTVSPost2010Prop28
280
     0
102
RTVSPost2010PropOp28
 70
     1
102
RTVSPost2010Prop29
280
     1
102
RTVSPost2010PropOp29
 70
     1
102
RTVSPost2010Prop30
280
     1
102
RTVSPost2010PropOp30
 70
     1
102
RTVSPost2010Prop31
280
     0
102
RTVSPost2010PropOp31
 70
     1
102
RTVSPost2010Prop32
280
     0
102
RTVSPost2010PropOp32
 70
     1
102
RTVSPost2010Prop33
280
     0
102
RTVSPost2010PropOp33
 70
     1
102
RTVSPost2010Prop34
280
     0
102
RTVSPost2010PropOp34
 70
     1
102
RTVSPost2010Prop35
280
     0
102
RTVSPost2010PropOp35
 70
     1
102
RTVSPost2010Prop36
280
     0
102
RTVSPost2010PropOp36
 70
     1
102
RTVSPost2010Prop37
 90
       50
102
RTVSPost2010PropOp37
 70
     1
102
RTVSPost2010Prop38
140
0.0
102
RTVSPost2010PropOp38
 70
     1
102
RTVSPost2010Prop39
140
1.0
102
RTVSPost2010PropOp39
 70
     1
102
RTVSPost2010Prop40
 90
        0
102
RTVSPost2010PropOp40
 70
     1
102
RTVSPost2010Prop41ColorIndex
 90
       18
102
RTVSPost2010Prop41ColorRGB
 90
        0
102
RTVSPost2010PropOp41
 70
     1
102
RTVSPost2010Prop42
 90
       50
102
RTVSPost2010PropOp42
 70
     1
102
RTVSPost2010Prop43
 90
        3
102
RTVSPost2010PropOp43
 70
     1
102
RTVSPost2010Prop44ColorIndex
 90
        5
102
RTVSPost2010Prop44ColorRGB
 90
      255
102
RTVSPost2010PropOp44
 70
     1
102
RTVSPost2010Prop45
280
     0
102
RTVSPost2010PropOp45
 70
     1
102
RTVSPost2010Prop46
 90
       50
102
RTVSPost2010PropOp46
 70
     1
102
RTVSPost2010Prop47
 90
       50
102
RTVSPost2010PropOp47
 70
     1
102
RTVSPost2010Prop48
 90
       50
102
RTVSPost2010PropOp48
 70
     1
102
RTVSPost2010Prop49
280
     0
102
RTVSPost2010PropOp49
 70
     1
102
RTVSPost2010Prop50
 90
       50
102
RTVSPost2010PropOp50
 70
     1
102
RTVSPost2010Prop51ColorIndex
 90
      256
102
RTVSPost2010Prop51ColorRGB
 90
-16777216
102
RTVSPost2010PropOp51
 70
     0
102
RTVSPost2010Prop52
140
1.0
102
RTVSPost2010PropOp52
 70
     0
102
RTVSPost2010Prop53
 90
        2
102
RTVSPost2010PropOp53
 70
     1
102
RTVSPost2010Prop54
  1
strokes_ogs.tif
102
RTVSPost2010PropOp54
 70
     1
102
RTVSPost2010Prop55
280
     0
102
RTVSPost2010PropOp55
 70
     1
102
RTVSPost2010Prop56
140
1.0
102
RTVSPost2010PropOp56
 70
     1
102
RTVSPost2010Prop57
140
1.0
102
RTVSPost2010PropOp57
 70
     1
102
RTVSPropertyOp0
 70
     1
102
RTVSPropertyOp1
 70
     1
102
RTVSPropertyOp2
 70
     1
102
RTVSPropertyOp3
 70
     1
102
RTVSPropertyOp4
 70
     1
102
RTVSPropertyOp5
 70
     1
102
RTVSPropertyOp6
 70
     1
102
RTVSPropertyOp7
 70
     1
102
RTVSPropertyOp8
 70
     1
102
RTVSPropertyOp9
 70
     1
102
RTVSPropertyOp10
 70
     1
102
RTVSPropertyOp11
 70
     1
102
RTVSPropertyOp12
 70
     1
102
RTVSPropertyOp13
 70
     1
102
RTVSPropertyOp14
 70
     1
102
RTVSPropertyOp15
 70
     1
102
RTVSPropertyOp16
 70
     1
102
RTVSPropertyOp17
 70
     1
102
RTVSPropertyOp18
 70
     1
102
RTVSPropertyOp19
 70
     1
102
RTVSPropertyOp20
 70
     1
102
RTVSPropertyOp21
 70
     1
102
RTVSPropertyOp22
 70
     1
102
RTVSPropertyOp23
 70
     1
102
RTVSPropertyOp24
 70
     1
102
RTVSPropertyOp25
 70
     1
102
RTVSPropertyOp26
 70
     1
102
RTVSPropertyOp27
 70
     1
102
RTVSPropertyOp28
 70
     1
102
RTVSPropertyOp29
 70
     1
102
RTVSPropertyOp30
 70
     1
102
RTVSPropertyOp31
 70
     1
102
RTVSPropertyOp32
 70
     1
102
RTVSPropertyOp33
 70
     1
102
RTVSPropertyOp34
 70
     1
102
RTVSPropertyOp35
 70
     1
102
RTVSPropertyOp36
 70
     1
102
RTVSPropertyOp37
 70
     1
102
RTVSPropertyOp38
 70
     1
102
RTVSPropertyOp39
 70
     1
102
RTVSPropertyOp40
 70
     1
102
RTVSPropertyOp41
 70
     1
102
RTVSPropertyOp42
 70
     1
102
RTVSPropertyOp43
 70
     1
102
RTVSPropertyOp44
 70
     1
102
RTVSPropertyOp45
 70
     1
102
RTVSPropertyOp46
 70
     1
102
RTVSPropertyOp47
 70
     1
102
RTVSPropertyOp48
 70
     1
102
RTVSPropertyOp49
 70
     1
102
RTVSPropertyOp50
 70
     1
102
RTVSPropertyOp51
 70
     0
102
RTVSPropertyOp52
 70
     0
102
RTVSPropertyOp53
 70
     1
102
RTVSPropertyOp54
 70
     1
102
RTVSPropertyOp55
 70
     1
102
RTVSPropertyOp56
 70
     1
102
RTVSPropertyOp57
 70
     1
102
RTVSPropertyOp58
 70
     1
102
RTVSPropertyOp59
 70
     1
102
RTVSPropertyOp60
 70
     1
102
RTVSPropertyOp61
 70
     1
102
RTVSPropertyOp62
 70
     1
  0
XRECORD
  5
C2EE
102
{ACAD_REACTORS
330
C2ED
102
}
330
C2ED
100
AcDbXrecord
280
     1
102
RTVSPost2010Prop28
280
     0
102
RTVSPost2010PropOp28
 70
     1
102
RTVSPost2010Prop29
280
     1
102
RTVSPost2010PropOp29
 70
     1
102
RTVSPost2010Prop30
280
     1
102
RTVSPost2010PropOp30
 70
     1
102
RTVSPost2010Prop31
280
     0
102
RTVSPost2010PropOp31
 70
     1
102
RTVSPost2010Prop32
280
     0
102
RTVSPost2010PropOp32
 70
     1
102
RTVSPost2010Prop33
280
     0
102
RTVSPost2010PropOp33
 70
     1
102
RTVSPost2010Prop34
280
     0
102
RTVSPost2010PropOp34
 70
     1
102
RTVSPost2010Prop35
280
     0
102
RTVSPost2010PropOp35
 70
     1
102
RTVSPost2010Prop36
280
     0
102
RTVSPost2010PropOp36
 70
     1
102
RTVSPost2010Prop37
 90
       50
102
RTVSPost2010PropOp37
 70
     1
102
RTVSPost2010Prop38
140
0.0
102
RTVSPost2010PropOp38
 70
     1
102
RTVSPost2010Prop39
140
1.0
102
RTVSPost2010PropOp39
 70
     1
102
RTVSPost2010Prop40
 90
        0
102
RTVSPost2010PropOp40
 70
     1
102
RTVSPost2010Prop41ColorIndex
 90
       18
102
RTVSPost2010Prop41ColorRGB
 90
        0
102
RTVSPost2010PropOp41
 70
     1
102
RTVSPost2010Prop42
 90
       50
102
RTVSPost2010PropOp42
 70
     1
102
RTVSPost2010Prop43
 90
        3
102
RTVSPost2010PropOp43
 70
     1
102
RTVSPost2010Prop44ColorIndex
 90
        5
102
RTVSPost2010Prop44ColorRGB
 90
      255
102
RTVSPost2010PropOp44
 70
     1
102
RTVSPost2010Prop45
280
     0
102
RTVSPost2010PropOp45
 70
     1
102
RTVSPost2010Prop46
 90
       50
102
RTVSPost2010PropOp46
 70
     1
102
RTVSPost2010Prop47
 90
       50
102
RTVSPost2010PropOp47
 70
     1
102
RTVSPost2010Prop48
 90
       50
102
RTVSPost2010PropOp48
 70
     1
102
RTVSPost2010Prop49
280
     0
102
RTVSPost2010PropOp49
 70
     1
102
RTVSPost2010Prop50
 90
       50
102
RTVSPost2010PropOp50
 70
     1
102
RTVSPost2010Prop51ColorIndex
 90
      256
102
RTVSPost2010Prop51ColorRGB
 90
-16777216
102
RTVSPost2010PropOp51
 70
     0
102
RTVSPost2010Prop52
140
1.0
102
RTVSPost2010PropOp52
 70
     0
102
RTVSPost2010Prop53
 90
        2
102
RTVSPost2010PropOp53
 70
     1
102
RTVSPost2010Prop54
  1
strokes_ogs.tif
102
RTVSPost2010PropOp54
 70
     1
102
RTVSPost2010Prop55
280
     0
102
RTVSPost2010PropOp55
 70
     1
102
RTVSPost2010Prop56
140
1.0
102
RTVSPost2010PropOp56
 70
     1
102
RTVSPost2010Prop57
140
1.0
102
RTVSPost2010PropOp57
 70
     1
102
RTVSPropertyOp0
 70
     1
102
RTVSPropertyOp1
 70
     1
102
RTVSPropertyOp2
 70
     1
102
RTVSPropertyOp3
 70
     1
102
RTVSPropertyOp4
 70
     1
102
RTVSPropertyOp5
 70
     1
102
RTVSPropertyOp6
 70
     1
102
RTVSPropertyOp7
 70
     1
102
RTVSPropertyOp8
 70
     1
102
RTVSPropertyOp9
 70
     1
102
RTVSPropertyOp10
 70
     1
102
RTVSPropertyOp11
 70
     1
102
RTVSPropertyOp12
 70
     1
102
RTVSPropertyOp13
 70
     1
102
RTVSPropertyOp14
 70
     1
102
RTVSPropertyOp15
 70
     1
102
RTVSPropertyOp16
 70
     1
102
RTVSPropertyOp17
 70
     1
102
RTVSPropertyOp18
 70
     1
102
RTVSPropertyOp19
 70
     1
102
RTVSPropertyOp20
 70
     1
102
RTVSPropertyOp21
 70
     1
102
RTVSPropertyOp22
 70
     1
102
RTVSPropertyOp23
 70
     1
102
RTVSPropertyOp24
 70
     1
102
RTVSPropertyOp25
 70
     1
102
RTVSPropertyOp26
 70
     1
102
RTVSPropertyOp27
 70
     1
102
RTVSPropertyOp28
 70
     1
102
RTVSPropertyOp29
 70
     1
102
RTVSPropertyOp30
 70
     1
102
RTVSPropertyOp31
 70
     1
102
RTVSPropertyOp32
 70
     1
102
RTVSPropertyOp33
 70
     1
102
RTVSPropertyOp34
 70
     1
102
RTVSPropertyOp35
 70
     1
102
RTVSPropertyOp36
 70
     1
102
RTVSPropertyOp37
 70
     1
102
RTVSPropertyOp38
 70
     1
102
RTVSPropertyOp39
 70
     1
102
RTVSPropertyOp40
 70
     1
102
RTVSPropertyOp41
 70
     1
102
RTVSPropertyOp42
 70
     1
102
RTVSPropertyOp43
 70
     1
102
RTVSPropertyOp44
 70
     1
102
RTVSPropertyOp45
 70
     1
102
RTVSPropertyOp46
 70
     1
102
RTVSPropertyOp47
 70
     1
102
RTVSPropertyOp48
 70
     1
102
RTVSPropertyOp49
 70
     1
102
RTVSPropertyOp50
 70
     1
102
RTVSPropertyOp51
 70
     0
102
RTVSPropertyOp52
 70
     0
102
RTVSPropertyOp53
 70
     1
102
RTVSPropertyOp54
 70
     1
102
RTVSPropertyOp55
 70
     1
102
RTVSPropertyOp56
 70
     1
102
RTVSPropertyOp57
 70
     1
102
RTVSPropertyOp58
 70
     1
102
RTVSPropertyOp59
 70
     1
102
RTVSPropertyOp60
 70
     1
102
RTVSPropertyOp61
 70
     1
102
RTVSPropertyOp62
 70
     1
  0
XRECORD
  5
C2F0
102
{ACAD_REACTORS
330
C2EF
102
}
330
C2EF
100
AcDbXrecord
280
     1
102
RTVSPost2010Prop28
280
     0
102
RTVSPost2010PropOp28
 70
     1
102
RTVSPost2010Prop29
280
     1
102
RTVSPost2010PropOp29
 70
     1
102
RTVSPost2010Prop30
280
     1
102
RTVSPost2010PropOp30
 70
     1
102
RTVSPost2010Prop31
280
     0
102
RTVSPost2010PropOp31
 70
     1
102
RTVSPost2010Prop32
280
     0
102
RTVSPost2010PropOp32
 70
     1
102
RTVSPost2010Prop33
280
     0
102
RTVSPost2010PropOp33
 70
     1
102
RTVSPost2010Prop34
280
     0
102
RTVSPost2010PropOp34
 70
     1
102
RTVSPost2010Prop35
280
     0
102
RTVSPost2010PropOp35
 70
     1
102
RTVSPost2010Prop36
280
     0
102
RTVSPost2010PropOp36
 70
     1
102
RTVSPost2010Prop37
 90
       50
102
RTVSPost2010PropOp37
 70
     1
102
RTVSPost2010Prop38
140
0.0
102
RTVSPost2010PropOp38
 70
     1
102
RTVSPost2010Prop39
140
1.0
102
RTVSPost2010PropOp39
 70
     1
102
RTVSPost2010Prop40
 90
        0
102
RTVSPost2010PropOp40
 70
     1
102
RTVSPost2010Prop41ColorIndex
 90
       18
102
RTVSPost2010Prop41ColorRGB
 90
        0
102
RTVSPost2010PropOp41
 70
     1
102
RTVSPost2010Prop42
 90
       50
102
RTVSPost2010PropOp42
 70
     1
102
RTVSPost2010Prop43
 90
        3
102
RTVSPost2010PropOp43
 70
     1
102
RTVSPost2010Prop44ColorIndex
 90
        5
102
RTVSPost2010Prop44ColorRGB
 90
      255
102
RTVSPost2010PropOp44
 70
     1
102
RTVSPost2010Prop45
280
     0
102
RTVSPost2010PropOp45
 70
     1
102
RTVSPost2010Prop46
 90
       50
102
RTVSPost2010PropOp46
 70
     1
102
RTVSPost2010Prop47
 90
       50
102
RTVSPost2010PropOp47
 70
     1
102
RTVSPost2010Prop48
 90
       50
102
RTVSPost2010PropOp48
 70
     1
102
RTVSPost2010Prop49
280
     0
102
RTVSPost2010PropOp49
 70
     1
102
RTVSPost2010Prop50
 90
       50
102
RTVSPost2010PropOp50
 70
     1
102
RTVSPost2010Prop51ColorIndex
 90
      256
102
RTVSPost2010Prop51ColorRGB
 90
-16777216
102
RTVSPost2010PropOp51
 70
     0
102
RTVSPost2010Prop52
140
1.0
102
RTVSPost2010PropOp52
 70
     0
102
RTVSPost2010Prop53
 90
        2
102
RTVSPost2010PropOp53
 70
     1
102
RTVSPost2010Prop54
  1
strokes_ogs.tif
102
RTVSPost2010PropOp54
 70
     1
102
RTVSPost2010Prop55
280
     0
102
RTVSPost2010PropOp55
 70
     1
102
RTVSPost2010Prop56
140
1.0
102
RTVSPost2010PropOp56
 70
     1
102
RTVSPost2010Prop57
140
1.0
102
RTVSPost2010PropOp57
 70
     1
102
RTVSPropertyOp0
 70
     1
102
RTVSPropertyOp1
 70
     1
102
RTVSPropertyOp2
 70
     1
102
RTVSPropertyOp3
 70
     1
102
RTVSPropertyOp4
 70
     1
102
RTVSPropertyOp5
 70
     1
102
RTVSPropertyOp6
 70
     1
102
RTVSPropertyOp7
 70
     1
102
RTVSPropertyOp8
 70
     1
102
RTVSPropertyOp9
 70
     1
102
RTVSPropertyOp10
 70
     1
102
RTVSPropertyOp11
 70
     1
102
RTVSPropertyOp12
 70
     1
102
RTVSPropertyOp13
 70
     1
102
RTVSPropertyOp14
 70
     1
102
RTVSPropertyOp15
 70
     1
102
RTVSPropertyOp16
 70
     1
102
RTVSPropertyOp17
 70
     1
102
RTVSPropertyOp18
 70
     1
102
RTVSPropertyOp19
 70
     1
102
RTVSPropertyOp20
 70
     1
102
RTVSPropertyOp21
 70
     1
102
RTVSPropertyOp22
 70
     1
102
RTVSPropertyOp23
 70
     1
102
RTVSPropertyOp24
 70
     1
102
RTVSPropertyOp25
 70
     1
102
RTVSPropertyOp26
 70
     1
102
RTVSPropertyOp27
 70
     1
102
RTVSPropertyOp28
 70
     1
102
RTVSPropertyOp29
 70
     1
102
RTVSPropertyOp30
 70
     1
102
RTVSPropertyOp31
 70
     1
102
RTVSPropertyOp32
 70
     1
102
RTVSPropertyOp33
 70
     1
102
RTVSPropertyOp34
 70
     1
102
RTVSPropertyOp35
 70
     1
102
RTVSPropertyOp36
 70
     1
102
RTVSPropertyOp37
 70
     1
102
RTVSPropertyOp38
 70
     1
102
RTVSPropertyOp39
 70
     1
102
RTVSPropertyOp40
 70
     1
102
RTVSPropertyOp41
 70
     1
102
RTVSPropertyOp42
 70
     1
102
RTVSPropertyOp43
 70
     1
102
RTVSPropertyOp44
 70
     1
102
RTVSPropertyOp45
 70
     1
102
RTVSPropertyOp46
 70
     1
102
RTVSPropertyOp47
 70
     1
102
RTVSPropertyOp48
 70
     1
102
RTVSPropertyOp49
 70
     1
102
RTVSPropertyOp50
 70
     1
102
RTVSPropertyOp51
 70
     0
102
RTVSPropertyOp52
 70
     0
102
RTVSPropertyOp53
 70
     1
102
RTVSPropertyOp54
 70
     1
102
RTVSPropertyOp55
 70
     1
102
RTVSPropertyOp56
 70
     1
102
RTVSPropertyOp57
 70
     1
102
RTVSPropertyOp58
 70
     1
102
RTVSPropertyOp59
 70
     1
102
RTVSPropertyOp60
 70
     1
102
RTVSPropertyOp61
 70
     1
102
RTVSPropertyOp62
 70
     1
  0
XRECORD
  5
C2F8
102
{ACAD_REACTORS
330
C2F7
102
}
330
C2F7
100
AcDbXrecord
280
     1
102
RTVSPost2010Prop28
280
     0
102
RTVSPost2010PropOp28
 70
     1
102
RTVSPost2010Prop29
280
     1
102
RTVSPost2010PropOp29
 70
     1
102
RTVSPost2010Prop30
280
     1
102
RTVSPost2010PropOp30
 70
     1
102
RTVSPost2010Prop31
280
     0
102
RTVSPost2010PropOp31
 70
     1
102
RTVSPost2010Prop32
280
     0
102
RTVSPost2010PropOp32
 70
     1
102
RTVSPost2010Prop33
280
     0
102
RTVSPost2010PropOp33
 70
     1
102
RTVSPost2010Prop34
280
     0
102
RTVSPost2010PropOp34
 70
     1
102
RTVSPost2010Prop35
280
     0
102
RTVSPost2010PropOp35
 70
     1
102
RTVSPost2010Prop36
280
     0
102
RTVSPost2010PropOp36
 70
     1
102
RTVSPost2010Prop37
 90
       50
102
RTVSPost2010PropOp37
 70
     1
102
RTVSPost2010Prop38
140
0.0
102
RTVSPost2010PropOp38
 70
     1
102
RTVSPost2010Prop39
140
1.0
102
RTVSPost2010PropOp39
 70
     1
102
RTVSPost2010Prop40
 90
        0
102
RTVSPost2010PropOp40
 70
     1
102
RTVSPost2010Prop41ColorIndex
 90
       18
102
RTVSPost2010Prop41ColorRGB
 90
        0
102
RTVSPost2010PropOp41
 70
     1
102
RTVSPost2010Prop42
 90
       50
102
RTVSPost2010PropOp42
 70
     1
102
RTVSPost2010Prop43
 90
        3
102
RTVSPost2010PropOp43
 70
     1
102
RTVSPost2010Prop44ColorIndex
 90
        5
102
RTVSPost2010Prop44ColorRGB
 90
      255
102
RTVSPost2010PropOp44
 70
     1
102
RTVSPost2010Prop45
280
     0
102
RTVSPost2010PropOp45
 70
     1
102
RTVSPost2010Prop46
 90
       50
102
RTVSPost2010PropOp46
 70
     1
102
RTVSPost2010Prop47
 90
       50
102
RTVSPost2010PropOp47
 70
     1
102
RTVSPost2010Prop48
 90
       50
102
RTVSPost2010PropOp48
 70
     1
102
RTVSPost2010Prop49
280
     0
102
RTVSPost2010PropOp49
 70
     1
102
RTVSPost2010Prop50
 90
       50
102
RTVSPost2010PropOp50
 70
     1
102
RTVSPost2010Prop51ColorIndex
 90
      256
102
RTVSPost2010Prop51ColorRGB
 90
-16777216
102
RTVSPost2010PropOp51
 70
     0
102
RTVSPost2010Prop52
140
1.0
102
RTVSPost2010PropOp52
 70
     0
102
RTVSPost2010Prop53
 90
        2
102
RTVSPost2010PropOp53
 70
     1
102
RTVSPost2010Prop54
  1
strokes_ogs.tif
102
RTVSPost2010PropOp54
 70
     1
102
RTVSPost2010Prop55
280
     0
102
RTVSPost2010PropOp55
 70
     1
102
RTVSPost2010Prop56
140
1.0
102
RTVSPost2010PropOp56
 70
     1
102
RTVSPost2010Prop57
140
1.0
102
RTVSPost2010PropOp57
 70
     1
102
RTVSPropertyOp0
 70
     1
102
RTVSPropertyOp1
 70
     1
102
RTVSPropertyOp2
 70
     1
102
RTVSPropertyOp3
 70
     1
102
RTVSPropertyOp4
 70
     1
102
RTVSPropertyOp5
 70
     1
102
RTVSPropertyOp6
 70
     1
102
RTVSPropertyOp7
 70
     1
102
RTVSPropertyOp8
 70
     1
102
RTVSPropertyOp9
 70
     1
102
RTVSPropertyOp10
 70
     1
102
RTVSPropertyOp11
 70
     1
102
RTVSPropertyOp12
 70
     1
102
RTVSPropertyOp13
 70
     1
102
RTVSPropertyOp14
 70
     1
102
RTVSPropertyOp15
 70
     1
102
RTVSPropertyOp16
 70
     1
102
RTVSPropertyOp17
 70
     1
102
RTVSPropertyOp18
 70
     1
102
RTVSPropertyOp19
 70
     1
102
RTVSPropertyOp20
 70
     1
102
RTVSPropertyOp21
 70
     1
102
RTVSPropertyOp22
 70
     1
102
RTVSPropertyOp23
 70
     1
102
RTVSPropertyOp24
 70
     1
102
RTVSPropertyOp25
 70
     1
102
RTVSPropertyOp26
 70
     1
102
RTVSPropertyOp27
 70
     1
102
RTVSPropertyOp28
 70
     1
102
RTVSPropertyOp29
 70
     1
102
RTVSPropertyOp30
 70
     1
102
RTVSPropertyOp31
 70
     1
102
RTVSPropertyOp32
 70
     1
102
RTVSPropertyOp33
 70
     1
102
RTVSPropertyOp34
 70
     1
102
RTVSPropertyOp35
 70
     1
102
RTVSPropertyOp36
 70
     1
102
RTVSPropertyOp37
 70
     1
102
RTVSPropertyOp38
 70
     1
102
RTVSPropertyOp39
 70
     1
102
RTVSPropertyOp40
 70
     1
102
RTVSPropertyOp41
 70
     1
102
RTVSPropertyOp42
 70
     1
102
RTVSPropertyOp43
 70
     1
102
RTVSPropertyOp44
 70
     1
102
RTVSPropertyOp45
 70
     1
102
RTVSPropertyOp46
 70
     1
102
RTVSPropertyOp47
 70
     1
102
RTVSPropertyOp48
 70
     1
102
RTVSPropertyOp49
 70
     1
102
RTVSPropertyOp50
 70
     1
102
RTVSPropertyOp51
 70
     0
102
RTVSPropertyOp52
 70
     0
102
RTVSPropertyOp53
 70
     1
102
RTVSPropertyOp54
 70
     1
102
RTVSPropertyOp55
 70
     1
102
RTVSPropertyOp56
 70
     1
102
RTVSPropertyOp57
 70
     1
102
RTVSPropertyOp58
 70
     1
102
RTVSPropertyOp59
 70
     1
102
RTVSPropertyOp60
 70
     1
102
RTVSPropertyOp61
 70
     1
102
RTVSPropertyOp62
 70
     1
  0
XRECORD
  5
C30C
102
{ACAD_REACTORS
330
C30B
102
}
330
C30B
100
AcDbXrecord
280
     1
102
RTVSPost2010Prop28
280
     0
102
RTVSPost2010PropOp28
 70
     1
102
RTVSPost2010Prop29
280
     1
102
RTVSPost2010PropOp29
 70
     1
102
RTVSPost2010Prop30
280
     1
102
RTVSPost2010PropOp30
 70
     1
102
RTVSPost2010Prop31
280
     0
102
RTVSPost2010PropOp31
 70
     1
102
RTVSPost2010Prop32
280
     0
102
RTVSPost2010PropOp32
 70
     1
102
RTVSPost2010Prop33
280
     0
102
RTVSPost2010PropOp33
 70
     1
102
RTVSPost2010Prop34
280
     0
102
RTVSPost2010PropOp34
 70
     1
102
RTVSPost2010Prop35
280
     0
102
RTVSPost2010PropOp35
 70
     1
102
RTVSPost2010Prop36
280
     0
102
RTVSPost2010PropOp36
 70
     1
102
RTVSPost2010Prop37
 90
       50
102
RTVSPost2010PropOp37
 70
     1
102
RTVSPost2010Prop38
140
0.0
102
RTVSPost2010PropOp38
 70
     1
102
RTVSPost2010Prop39
140
1.0
102
RTVSPost2010PropOp39
 70
     1
102
RTVSPost2010Prop40
 90
        0
102
RTVSPost2010PropOp40
 70
     1
102
RTVSPost2010Prop41ColorIndex
 90
       18
102
RTVSPost2010Prop41ColorRGB
 90
        0
102
RTVSPost2010PropOp41
 70
     1
102
RTVSPost2010Prop42
 90
       50
102
RTVSPost2010PropOp42
 70
     1
102
RTVSPost2010Prop43
 90
        3
102
RTVSPost2010PropOp43
 70
     1
102
RTVSPost2010Prop44ColorIndex
 90
        5
102
RTVSPost2010Prop44ColorRGB
 90
      255
102
RTVSPost2010PropOp44
 70
     1
102
RTVSPost2010Prop45
280
     0
102
RTVSPost2010PropOp45
 70
     1
102
RTVSPost2010Prop46
 90
       50
102
RTVSPost2010PropOp46
 70
     1
102
RTVSPost2010Prop47
 90
       50
102
RTVSPost2010PropOp47
 70
     1
102
RTVSPost2010Prop48
 90
       50
102
RTVSPost2010PropOp48
 70
     1
102
RTVSPost2010Prop49
280
     0
102
RTVSPost2010PropOp49
 70
     1
102
RTVSPost2010Prop50
 90
       50
102
RTVSPost2010PropOp50
 70
     1
102
RTVSPost2010Prop51ColorIndex
 90
      256
102
RTVSPost2010Prop51ColorRGB
 90
-16777216
102
RTVSPost2010PropOp51
 70
     0
102
RTVSPost2010Prop52
140
1.0
102
RTVSPost2010PropOp52
 70
     0
102
RTVSPost2010Prop53
 90
        2
102
RTVSPost2010PropOp53
 70
     1
102
RTVSPost2010Prop54
  1
strokes_ogs.tif
102
RTVSPost2010PropOp54
 70
     1
102
RTVSPost2010Prop55
280
     0
102
RTVSPost2010PropOp55
 70
     1
102
RTVSPost2010Prop56
140
1.0
102
RTVSPost2010PropOp56
 70
     1
102
RTVSPost2010Prop57
140
1.0
102
RTVSPost2010PropOp57
 70
     1
102
RTVSPropertyOp0
 70
     0
102
RTVSPropertyOp1
 70
     0
102
RTVSPropertyOp2
 70
     0
102
RTVSPropertyOp3
 70
     0
102
RTVSPropertyOp4
 70
     0
102
RTVSPropertyOp5
 70
     0
102
RTVSPropertyOp6
 70
     0
102
RTVSPropertyOp7
 70
     0
102
RTVSPropertyOp8
 70
     0
102
RTVSPropertyOp9
 70
     0
102
RTVSPropertyOp10
 70
     0
102
RTVSPropertyOp11
 70
     0
102
RTVSPropertyOp12
 70
     0
102
RTVSPropertyOp13
 70
     0
102
RTVSPropertyOp14
 70
     2
102
RTVSPropertyOp15
 70
     0
102
RTVSPropertyOp16
 70
     0
102
RTVSPropertyOp17
 70
     0
102
RTVSPropertyOp18
 70
     0
102
RTVSPropertyOp19
 70
     0
102
RTVSPropertyOp20
 70
     0
102
RTVSPropertyOp21
 70
     0
102
RTVSPropertyOp22
 70
     0
102
RTVSPropertyOp23
 70
     0
102
RTVSPropertyOp24
 70
     0
102
RTVSPropertyOp25
 70
     0
102
RTVSPropertyOp26
 70
     0
102
RTVSPropertyOp27
 70
     0
102
RTVSPropertyOp28
 70
     1
102
RTVSPropertyOp29
 70
     1
102
RTVSPropertyOp30
 70
     1
102
RTVSPropertyOp31
 70
     1
102
RTVSPropertyOp32
 70
     1
102
RTVSPropertyOp33
 70
     1
102
RTVSPropertyOp34
 70
     1
102
RTVSPropertyOp35
 70
     1
102
RTVSPropertyOp36
 70
     1
102
RTVSPropertyOp37
 70
     1
102
RTVSPropertyOp38
 70
     1
102
RTVSPropertyOp39
 70
     1
102
RTVSPropertyOp40
 70
     1
102
RTVSPropertyOp41
 70
     1
102
RTVSPropertyOp42
 70
     1
102
RTVSPropertyOp43
 70
     1
102
RTVSPropertyOp44
 70
     1
102
RTVSPropertyOp45
 70
     1
102
RTVSPropertyOp46
 70
     1
102
RTVSPropertyOp47
 70
     1
102
RTVSPropertyOp48
 70
     1
102
RTVSPropertyOp49
 70
     1
102
RTVSPropertyOp50
 70
     1
102
RTVSPropertyOp51
 70
     0
102
RTVSPropertyOp52
 70
     0
102
RTVSPropertyOp53
 70
     1
102
RTVSPropertyOp54
 70
     1
102
RTVSPropertyOp55
 70
     1
102
RTVSPropertyOp56
 70
     1
102
RTVSPropertyOp57
 70
     1
102
RTVSPropertyOp58
 70
     1
102
RTVSPropertyOp59
 70
     1
102
RTVSPropertyOp60
 70
     1
102
RTVSPropertyOp61
 70
     1
102
RTVSPropertyOp62
 70
     1
  0
XRECORD
  5
C304
102
{ACAD_REACTORS
330
C303
102
}
330
C303
100
AcDbXrecord
280
     1
102
RTVSPost2010Prop28
280
     0
102
RTVSPost2010PropOp28
 70
     1
102
RTVSPost2010Prop29
280
     1
102
RTVSPost2010PropOp29
 70
     1
102
RTVSPost2010Prop30
280
     1
102
RTVSPost2010PropOp30
 70
     1
102
RTVSPost2010Prop31
280
     0
102
RTVSPost2010PropOp31
 70
     1
102
RTVSPost2010Prop32
280
     0
102
RTVSPost2010PropOp32
 70
     1
102
RTVSPost2010Prop33
280
     0
102
RTVSPost2010PropOp33
 70
     1
102
RTVSPost2010Prop34
280
     0
102
RTVSPost2010PropOp34
 70
     1
102
RTVSPost2010Prop35
280
     0
102
RTVSPost2010PropOp35
 70
     1
102
RTVSPost2010Prop36
280
     0
102
RTVSPost2010PropOp36
 70
     1
102
RTVSPost2010Prop37
 90
       50
102
RTVSPost2010PropOp37
 70
     1
102
RTVSPost2010Prop38
140
0.0
102
RTVSPost2010PropOp38
 70
     1
102
RTVSPost2010Prop39
140
1.0
102
RTVSPost2010PropOp39
 70
     1
102
RTVSPost2010Prop40
 90
        0
102
RTVSPost2010PropOp40
 70
     1
102
RTVSPost2010Prop41ColorIndex
 90
       18
102
RTVSPost2010Prop41ColorRGB
 90
        0
102
RTVSPost2010PropOp41
 70
     1
102
RTVSPost2010Prop42
 90
       50
102
RTVSPost2010PropOp42
 70
     1
102
RTVSPost2010Prop43
 90
        3
102
RTVSPost2010PropOp43
 70
     1
102
RTVSPost2010Prop44ColorIndex
 90
        5
102
RTVSPost2010Prop44ColorRGB
 90
      255
102
RTVSPost2010PropOp44
 70
     1
102
RTVSPost2010Prop45
280
     0
102
RTVSPost2010PropOp45
 70
     1
102
RTVSPost2010Prop46
 90
       50
102
RTVSPost2010PropOp46
 70
     1
102
RTVSPost2010Prop47
 90
       50
102
RTVSPost2010PropOp47
 70
     1
102
RTVSPost2010Prop48
 90
       50
102
RTVSPost2010PropOp48
 70
     1
102
RTVSPost2010Prop49
280
     0
102
RTVSPost2010PropOp49
 70
     1
102
RTVSPost2010Prop50
 90
       50
102
RTVSPost2010PropOp50
 70
     1
102
RTVSPost2010Prop51ColorIndex
 90
      256
102
RTVSPost2010Prop51ColorRGB
 90
-16777216
102
RTVSPost2010PropOp51
 70
     0
102
RTVSPost2010Prop52
140
1.0
102
RTVSPost2010PropOp52
 70
     0
102
RTVSPost2010Prop53
 90
        2
102
RTVSPost2010PropOp53
 70
     1
102
RTVSPost2010Prop54
  1
strokes_ogs.tif
102
RTVSPost2010PropOp54
 70
     1
102
RTVSPost2010Prop55
280
     0
102
RTVSPost2010PropOp55
 70
     1
102
RTVSPost2010Prop56
140
1.0
102
RTVSPost2010PropOp56
 70
     1
102
RTVSPost2010Prop57
140
1.0
102
RTVSPost2010PropOp57
 70
     1
102
RTVSPropertyOp0
 70
     1
102
RTVSPropertyOp1
 70
     1
102
RTVSPropertyOp2
 70
     1
102
RTVSPropertyOp3
 70
     1
102
RTVSPropertyOp4
 70
     1
102
RTVSPropertyOp5
 70
     1
102
RTVSPropertyOp6
 70
     1
102
RTVSPropertyOp7
 70
     1
102
RTVSPropertyOp8
 70
     1
102
RTVSPropertyOp9
 70
     1
102
RTVSPropertyOp10
 70
     1
102
RTVSPropertyOp11
 70
     1
102
RTVSPropertyOp12
 70
     1
102
RTVSPropertyOp13
 70
     1
102
RTVSPropertyOp14
 70
     1
102
RTVSPropertyOp15
 70
     1
102
RTVSPropertyOp16
 70
     1
102
RTVSPropertyOp17
 70
     1
102
RTVSPropertyOp18
 70
     1
102
RTVSPropertyOp19
 70
     1
102
RTVSPropertyOp20
 70
     1
102
RTVSPropertyOp21
 70
     1
102
RTVSPropertyOp22
 70
     1
102
RTVSPropertyOp23
 70
     1
102
RTVSPropertyOp24
 70
     1
102
RTVSPropertyOp25
 70
     1
102
RTVSPropertyOp26
 70
     1
102
RTVSPropertyOp27
 70
     1
102
RTVSPropertyOp28
 70
     1
102
RTVSPropertyOp29
 70
     1
102
RTVSPropertyOp30
 70
     1
102
RTVSPropertyOp31
 70
     1
102
RTVSPropertyOp32
 70
     1
102
RTVSPropertyOp33
 70
     1
102
RTVSPropertyOp34
 70
     1
102
RTVSPropertyOp35
 70
     1
102
RTVSPropertyOp36
 70
     1
102
RTVSPropertyOp37
 70
     1
102
RTVSPropertyOp38
 70
     1
102
RTVSPropertyOp39
 70
     1
102
RTVSPropertyOp40
 70
     1
102
RTVSPropertyOp41
 70
     1
102
RTVSPropertyOp42
 70
     1
102
RTVSPropertyOp43
 70
     1
102
RTVSPropertyOp44
 70
     1
102
RTVSPropertyOp45
 70
     1
102
RTVSPropertyOp46
 70
     1
102
RTVSPropertyOp47
 70
     1
102
RTVSPropertyOp48
 70
     1
102
RTVSPropertyOp49
 70
     1
102
RTVSPropertyOp50
 70
     1
102
RTVSPropertyOp51
 70
     0
102
RTVSPropertyOp52
 70
     0
102
RTVSPropertyOp53
 70
     1
102
RTVSPropertyOp54
 70
     1
102
RTVSPropertyOp55
 70
     1
102
RTVSPropertyOp56
 70
     1
102
RTVSPropertyOp57
 70
     1
102
RTVSPropertyOp58
 70
     1
102
RTVSPropertyOp59
 70
     1
102
RTVSPropertyOp60
 70
     1
102
RTVSPropertyOp61
 70
     1
102
RTVSPropertyOp62
 70
     1
  0
XRECORD
  5
C30E
102
{ACAD_REACTORS
330
C30D
102
}
330
C30D
100
AcDbXrecord
280
     1
102
RTVSPost2010Prop28
280
     0
102
RTVSPost2010PropOp28
 70
     1
102
RTVSPost2010Prop29
280
     1
102
RTVSPost2010PropOp29
 70
     1
102
RTVSPost2010Prop30
280
     1
102
RTVSPost2010PropOp30
 70
     1
102
RTVSPost2010Prop31
280
     0
102
RTVSPost2010PropOp31
 70
     1
102
RTVSPost2010Prop32
280
     0
102
RTVSPost2010PropOp32
 70
     1
102
RTVSPost2010Prop33
280
     0
102
RTVSPost2010PropOp33
 70
     1
102
RTVSPost2010Prop34
280
     0
102
RTVSPost2010PropOp34
 70
     1
102
RTVSPost2010Prop35
280
     0
102
RTVSPost2010PropOp35
 70
     1
102
RTVSPost2010Prop36
280
     0
102
RTVSPost2010PropOp36
 70
     1
102
RTVSPost2010Prop37
 90
       50
102
RTVSPost2010PropOp37
 70
     1
102
RTVSPost2010Prop38
140
0.0
102
RTVSPost2010PropOp38
 70
     1
102
RTVSPost2010Prop39
140
1.0
102
RTVSPost2010PropOp39
 70
     1
102
RTVSPost2010Prop40
 90
        0
102
RTVSPost2010PropOp40
 70
     1
102
RTVSPost2010Prop41ColorIndex
 90
       18
102
RTVSPost2010Prop41ColorRGB
 90
        0
102
RTVSPost2010PropOp41
 70
     1
102
RTVSPost2010Prop42
 90
       50
102
RTVSPost2010PropOp42
 70
     1
102
RTVSPost2010Prop43
 90
        3
102
RTVSPost2010PropOp43
 70
     1
102
RTVSPost2010Prop44ColorIndex
 90
        5
102
RTVSPost2010Prop44ColorRGB
 90
      255
102
RTVSPost2010PropOp44
 70
     1
102
RTVSPost2010Prop45
280
     0
102
RTVSPost2010PropOp45
 70
     1
102
RTVSPost2010Prop46
 90
       50
102
RTVSPost2010PropOp46
 70
     1
102
RTVSPost2010Prop47
 90
       50
102
RTVSPost2010PropOp47
 70
     1
102
RTVSPost2010Prop48
 90
       50
102
RTVSPost2010PropOp48
 70
     1
102
RTVSPost2010Prop49
280
     0
102
RTVSPost2010PropOp49
 70
     1
102
RTVSPost2010Prop50
 90
       50
102
RTVSPost2010PropOp50
 70
     1
102
RTVSPost2010Prop51ColorIndex
 90
      256
102
RTVSPost2010Prop51ColorRGB
 90
-16777216
102
RTVSPost2010PropOp51
 70
     0
102
RTVSPost2010Prop52
140
1.0
102
RTVSPost2010PropOp52
 70
     0
102
RTVSPost2010Prop53
 90
        2
102
RTVSPost2010PropOp53
 70
     1
102
RTVSPost2010Prop54
  1
strokes_ogs.tif
102
RTVSPost2010PropOp54
 70
     1
102
RTVSPost2010Prop55
280
     0
102
RTVSPost2010PropOp55
 70
     1
102
RTVSPost2010Prop56
140
1.0
102
RTVSPost2010PropOp56
 70
     1
102
RTVSPost2010Prop57
140
1.0
102
RTVSPost2010PropOp57
 70
     1
102
RTVSPropertyOp0
 70
     0
102
RTVSPropertyOp1
 70
     0
102
RTVSPropertyOp2
 70
     0
102
RTVSPropertyOp3
 70
     0
102
RTVSPropertyOp4
 70
     0
102
RTVSPropertyOp5
 70
     0
102
RTVSPropertyOp6
 70
     0
102
RTVSPropertyOp7
 70
     0
102
RTVSPropertyOp8
 70
     0
102
RTVSPropertyOp9
 70
     0
102
RTVSPropertyOp10
 70
     0
102
RTVSPropertyOp11
 70
     0
102
RTVSPropertyOp12
 70
     0
102
RTVSPropertyOp13
 70
     0
102
RTVSPropertyOp14
 70
     2
102
RTVSPropertyOp15
 70
     0
102
RTVSPropertyOp16
 70
     0
102
RTVSPropertyOp17
 70
     0
102
RTVSPropertyOp18
 70
     0
102
RTVSPropertyOp19
 70
     0
102
RTVSPropertyOp20
 70
     0
102
RTVSPropertyOp21
 70
     0
102
RTVSPropertyOp22
 70
     0
102
RTVSPropertyOp23
 70
     0
102
RTVSPropertyOp24
 70
     0
102
RTVSPropertyOp25
 70
     0
102
RTVSPropertyOp26
 70
     0
102
RTVSPropertyOp27
 70
     0
102
RTVSPropertyOp28
 70
     1
102
RTVSPropertyOp29
 70
     1
102
RTVSPropertyOp30
 70
     1
102
RTVSPropertyOp31
 70
     1
102
RTVSPropertyOp32
 70
     1
102
RTVSPropertyOp33
 70
     1
102
RTVSPropertyOp34
 70
     1
102
RTVSPropertyOp35
 70
     1
102
RTVSPropertyOp36
 70
     1
102
RTVSPropertyOp37
 70
     1
102
RTVSPropertyOp38
 70
     1
102
RTVSPropertyOp39
 70
     1
102
RTVSPropertyOp40
 70
     1
102
RTVSPropertyOp41
 70
     1
102
RTVSPropertyOp42
 70
     1
102
RTVSPropertyOp43
 70
     1
102
RTVSPropertyOp44
 70
     1
102
RTVSPropertyOp45
 70
     1
102
RTVSPropertyOp46
 70
     1
102
RTVSPropertyOp47
 70
     1
102
RTVSPropertyOp48
 70
     1
102
RTVSPropertyOp49
 70
     1
102
RTVSPropertyOp50
 70
     1
102
RTVSPropertyOp51
 70
     0
102
RTVSPropertyOp52
 70
     0
102
RTVSPropertyOp53
 70
     1
102
RTVSPropertyOp54
 70
     1
102
RTVSPropertyOp55
 70
     1
102
RTVSPropertyOp56
 70
     1
102
RTVSPropertyOp57
 70
     1
102
RTVSPropertyOp58
 70
     1
102
RTVSPropertyOp59
 70
     1
102
RTVSPropertyOp60
 70
     1
102
RTVSPropertyOp61
 70
     1
102
RTVSPropertyOp62
 70
     1
  0
XRECORD
  5
C2FC
102
{ACAD_REACTORS
330
C2FB
102
}
330
C2FB
100
AcDbXrecord
280
     1
102
RTVSPost2010Prop28
280
     0
102
RTVSPost2010PropOp28
 70
     1
102
RTVSPost2010Prop29
280
     1
102
RTVSPost2010PropOp29
 70
     1
102
RTVSPost2010Prop30
280
     1
102
RTVSPost2010PropOp30
 70
     1
102
RTVSPost2010Prop31
280
     0
102
RTVSPost2010PropOp31
 70
     1
102
RTVSPost2010Prop32
280
     0
102
RTVSPost2010PropOp32
 70
     1
102
RTVSPost2010Prop33
280
     0
102
RTVSPost2010PropOp33
 70
     1
102
RTVSPost2010Prop34
280
     0
102
RTVSPost2010PropOp34
 70
     1
102
RTVSPost2010Prop35
280
     0
102
RTVSPost2010PropOp35
 70
     1
102
RTVSPost2010Prop36
280
     0
102
RTVSPost2010PropOp36
 70
     1
102
RTVSPost2010Prop37
 90
       50
102
RTVSPost2010PropOp37
 70
     1
102
RTVSPost2010Prop38
140
0.0
102
RTVSPost2010PropOp38
 70
     1
102
RTVSPost2010Prop39
140
1.0
102
RTVSPost2010PropOp39
 70
     1
102
RTVSPost2010Prop40
 90
        0
102
RTVSPost2010PropOp40
 70
     1
102
RTVSPost2010Prop41ColorIndex
 90
       18
102
RTVSPost2010Prop41ColorRGB
 90
        0
102
RTVSPost2010PropOp41
 70
     1
102
RTVSPost2010Prop42
 90
       50
102
RTVSPost2010PropOp42
 70
     1
102
RTVSPost2010Prop43
 90
        3
102
RTVSPost2010PropOp43
 70
     1
102
RTVSPost2010Prop44ColorIndex
 90
        5
102
RTVSPost2010Prop44ColorRGB
 90
      255
102
RTVSPost2010PropOp44
 70
     1
102
RTVSPost2010Prop45
280
     0
102
RTVSPost2010PropOp45
 70
     1
102
RTVSPost2010Prop46
 90
       50
102
RTVSPost2010PropOp46
 70
     1
102
RTVSPost2010Prop47
 90
       50
102
RTVSPost2010PropOp47
 70
     1
102
RTVSPost2010Prop48
 90
       50
102
RTVSPost2010PropOp48
 70
     1
102
RTVSPost2010Prop49
280
     0
102
RTVSPost2010PropOp49
 70
     1
102
RTVSPost2010Prop50
 90
       50
102
RTVSPost2010PropOp50
 70
     1
102
RTVSPost2010Prop51ColorIndex
 90
      256
102
RTVSPost2010Prop51ColorRGB
 90
-16777216
102
RTVSPost2010PropOp51
 70
     0
102
RTVSPost2010Prop52
140
1.0
102
RTVSPost2010PropOp52
 70
     0
102
RTVSPost2010Prop53
 90
        2
102
RTVSPost2010PropOp53
 70
     1
102
RTVSPost2010Prop54
  1
strokes_ogs.tif
102
RTVSPost2010PropOp54
 70
     1
102
RTVSPost2010Prop55
280
     0
102
RTVSPost2010PropOp55
 70
     1
102
RTVSPost2010Prop56
140
1.0
102
RTVSPost2010PropOp56
 70
     1
102
RTVSPost2010Prop57
140
1.0
102
RTVSPost2010PropOp57
 70
     1
102
RTVSPropertyOp0
 70
     1
102
RTVSPropertyOp1
 70
     1
102
RTVSPropertyOp2
 70
     1
102
RTVSPropertyOp3
 70
     1
102
RTVSPropertyOp4
 70
     1
102
RTVSPropertyOp5
 70
     1
102
RTVSPropertyOp6
 70
     1
102
RTVSPropertyOp7
 70
     1
102
RTVSPropertyOp8
 70
     1
102
RTVSPropertyOp9
 70
     1
102
RTVSPropertyOp10
 70
     1
102
RTVSPropertyOp11
 70
     1
102
RTVSPropertyOp12
 70
     1
102
RTVSPropertyOp13
 70
     1
102
RTVSPropertyOp14
 70
     1
102
RTVSPropertyOp15
 70
     1
102
RTVSPropertyOp16
 70
     1
102
RTVSPropertyOp17
 70
     1
102
RTVSPropertyOp18
 70
     1
102
RTVSPropertyOp19
 70
     1
102
RTVSPropertyOp20
 70
     1
102
RTVSPropertyOp21
 70
     1
102
RTVSPropertyOp22
 70
     1
102
RTVSPropertyOp23
 70
     1
102
RTVSPropertyOp24
 70
     1
102
RTVSPropertyOp25
 70
     1
102
RTVSPropertyOp26
 70
     1
102
RTVSPropertyOp27
 70
     1
102
RTVSPropertyOp28
 70
     1
102
RTVSPropertyOp29
 70
     1
102
RTVSPropertyOp30
 70
     1
102
RTVSPropertyOp31
 70
     1
102
RTVSPropertyOp32
 70
     1
102
RTVSPropertyOp33
 70
     1
102
RTVSPropertyOp34
 70
     1
102
RTVSPropertyOp35
 70
     1
102
RTVSPropertyOp36
 70
     1
102
RTVSPropertyOp37
 70
     1
102
RTVSPropertyOp38
 70
     1
102
RTVSPropertyOp39
 70
     1
102
RTVSPropertyOp40
 70
     1
102
RTVSPropertyOp41
 70
     1
102
RTVSPropertyOp42
 70
     1
102
RTVSPropertyOp43
 70
     1
102
RTVSPropertyOp44
 70
     1
102
RTVSPropertyOp45
 70
     1
102
RTVSPropertyOp46
 70
     1
102
RTVSPropertyOp47
 70
     1
102
RTVSPropertyOp48
 70
     1
102
RTVSPropertyOp49
 70
     1
102
RTVSPropertyOp50
 70
     1
102
RTVSPropertyOp51
 70
     0
102
RTVSPropertyOp52
 70
     0
102
RTVSPropertyOp53
 70
     1
102
RTVSPropertyOp54
 70
     1
102
RTVSPropertyOp55
 70
     1
102
RTVSPropertyOp56
 70
     1
102
RTVSPropertyOp57
 70
     1
102
RTVSPropertyOp58
 70
     1
102
RTVSPropertyOp59
 70
     1
102
RTVSPropertyOp60
 70
     1
102
RTVSPropertyOp61
 70
     1
102
RTVSPropertyOp62
 70
     1
  0
XRECORD
  5
C31A
102
{ACAD_REACTORS
330
C319
102
}
330
C319
100
AcDbXrecord
280
     1
102
RTVSPost2010Prop28
280
     0
102
RTVSPost2010PropOp28
 70
     1
102
RTVSPost2010Prop29
280
     1
102
RTVSPost2010PropOp29
 70
     1
102
RTVSPost2010Prop30
280
     1
102
RTVSPost2010PropOp30
 70
     1
102
RTVSPost2010Prop31
280
     0
102
RTVSPost2010PropOp31
 70
     1
102
RTVSPost2010Prop32
280
     0
102
RTVSPost2010PropOp32
 70
     1
102
RTVSPost2010Prop33
280
     0
102
RTVSPost2010PropOp33
 70
     1
102
RTVSPost2010Prop34
280
     0
102
RTVSPost2010PropOp34
 70
     1
102
RTVSPost2010Prop35
280
     0
102
RTVSPost2010PropOp35
 70
     1
102
RTVSPost2010Prop36
280
     0
102
RTVSPost2010PropOp36
 70
     1
102
RTVSPost2010Prop37
 90
       50
102
RTVSPost2010PropOp37
 70
     1
102
RTVSPost2010Prop38
140
0.0
102
RTVSPost2010PropOp38
 70
     1
102
RTVSPost2010Prop39
140
1.0
102
RTVSPost2010PropOp39
 70
     1
102
RTVSPost2010Prop40
 90
        0
102
RTVSPost2010PropOp40
 70
     1
102
RTVSPost2010Prop41ColorIndex
 90
       18
102
RTVSPost2010Prop41ColorRGB
 90
        0
102
RTVSPost2010PropOp41
 70
     1
102
RTVSPost2010Prop42
 90
       50
102
RTVSPost2010PropOp42
 70
     1
102
RTVSPost2010Prop43
 90
        3
102
RTVSPost2010PropOp43
 70
     1
102
RTVSPost2010Prop44ColorIndex
 90
        5
102
RTVSPost2010Prop44ColorRGB
 90
      255
102
RTVSPost2010PropOp44
 70
     1
102
RTVSPost2010Prop45
280
     0
102
RTVSPost2010PropOp45
 70
     1
102
RTVSPost2010Prop46
 90
       50
102
RTVSPost2010PropOp46
 70
     1
102
RTVSPost2010Prop47
 90
       50
102
RTVSPost2010PropOp47
 70
     1
102
RTVSPost2010Prop48
 90
       50
102
RTVSPost2010PropOp48
 70
     1
102
RTVSPost2010Prop49
280
     0
102
RTVSPost2010PropOp49
 70
     1
102
RTVSPost2010Prop50
 90
       50
102
RTVSPost2010PropOp50
 70
     1
102
RTVSPost2010Prop51ColorIndex
 90
      256
102
RTVSPost2010Prop51ColorRGB
 90
-16777216
102
RTVSPost2010PropOp51
 70
     0
102
RTVSPost2010Prop52
140
1.0
102
RTVSPost2010PropOp52
 70
     0
102
RTVSPost2010Prop53
 90
        2
102
RTVSPost2010PropOp53
 70
     1
102
RTVSPost2010Prop54
  1
strokes_ogs.tif
102
RTVSPost2010PropOp54
 70
     1
102
RTVSPost2010Prop55
280
     0
102
RTVSPost2010PropOp55
 70
     1
102
RTVSPost2010Prop56
140
1.0
102
RTVSPost2010PropOp56
 70
     1
102
RTVSPost2010Prop57
140
1.0
102
RTVSPost2010PropOp57
 70
     1
102
RTVSPropertyOp0
 70
     1
102
RTVSPropertyOp1
 70
     1
102
RTVSPropertyOp2
 70
     1
102
RTVSPropertyOp3
 70
     1
102
RTVSPropertyOp4
 70
     1
102
RTVSPropertyOp5
 70
     1
102
RTVSPropertyOp6
 70
     1
102
RTVSPropertyOp7
 70
     1
102
RTVSPropertyOp8
 70
     1
102
RTVSPropertyOp9
 70
     1
102
RTVSPropertyOp10
 70
     1
102
RTVSPropertyOp11
 70
     1
102
RTVSPropertyOp12
 70
     1
102
RTVSPropertyOp13
 70
     1
102
RTVSPropertyOp14
 70
     1
102
RTVSPropertyOp15
 70
     1
102
RTVSPropertyOp16
 70
     1
102
RTVSPropertyOp17
 70
     1
102
RTVSPropertyOp18
 70
     1
102
RTVSPropertyOp19
 70
     1
102
RTVSPropertyOp20
 70
     1
102
RTVSPropertyOp21
 70
     1
102
RTVSPropertyOp22
 70
     1
102
RTVSPropertyOp23
 70
     1
102
RTVSPropertyOp24
 70
     1
102
RTVSPropertyOp25
 70
     1
102
RTVSPropertyOp26
 70
     1
102
RTVSPropertyOp27
 70
     1
102
RTVSPropertyOp28
 70
     1
102
RTVSPropertyOp29
 70
     1
102
RTVSPropertyOp30
 70
     1
102
RTVSPropertyOp31
 70
     1
102
RTVSPropertyOp32
 70
     1
102
RTVSPropertyOp33
 70
     1
102
RTVSPropertyOp34
 70
     1
102
RTVSPropertyOp35
 70
     1
102
RTVSPropertyOp36
 70
     1
102
RTVSPropertyOp37
 70
     1
102
RTVSPropertyOp38
 70
     1
102
RTVSPropertyOp39
 70
     1
102
RTVSPropertyOp40
 70
     1
102
RTVSPropertyOp41
 70
     1
102
RTVSPropertyOp42
 70
     1
102
RTVSPropertyOp43
 70
     1
102
RTVSPropertyOp44
 70
     1
102
RTVSPropertyOp45
 70
     1
102
RTVSPropertyOp46
 70
     1
102
RTVSPropertyOp47
 70
     1
102
RTVSPropertyOp48
 70
     1
102
RTVSPropertyOp49
 70
     1
102
RTVSPropertyOp50
 70
     1
102
RTVSPropertyOp51
 70
     0
102
RTVSPropertyOp52
 70
     0
102
RTVSPropertyOp53
 70
     1
102
RTVSPropertyOp54
 70
     1
102
RTVSPropertyOp55
 70
     1
102
RTVSPropertyOp56
 70
     1
102
RTVSPropertyOp57
 70
     1
102
RTVSPropertyOp58
 70
     1
102
RTVSPropertyOp59
 70
     1
102
RTVSPropertyOp60
 70
     1
102
RTVSPropertyOp61
 70
     1
102
RTVSPropertyOp62
 70
     1
  0
XRECORD
  5
C318
102
{ACAD_REACTORS
330
C317
102
}
330
C317
100
AcDbXrecord
280
     1
102
RTVSPost2010Prop28
280
     0
102
RTVSPost2010PropOp28
 70
     1
102
RTVSPost2010Prop29
280
     1
102
RTVSPost2010PropOp29
 70
     1
102
RTVSPost2010Prop30
280
     1
102
RTVSPost2010PropOp30
 70
     1
102
RTVSPost2010Prop31
280
     0
102
RTVSPost2010PropOp31
 70
     1
102
RTVSPost2010Prop32
280
     0
102
RTVSPost2010PropOp32
 70
     1
102
RTVSPost2010Prop33
280
     0
102
RTVSPost2010PropOp33
 70
     1
102
RTVSPost2010Prop34
280
     0
102
RTVSPost2010PropOp34
 70
     1
102
RTVSPost2010Prop35
280
     0
102
RTVSPost2010PropOp35
 70
     1
102
RTVSPost2010Prop36
280
     0
102
RTVSPost2010PropOp36
 70
     1
102
RTVSPost2010Prop37
 90
       50
102
RTVSPost2010PropOp37
 70
     1
102
RTVSPost2010Prop38
140
0.0
102
RTVSPost2010PropOp38
 70
     1
102
RTVSPost2010Prop39
140
1.0
102
RTVSPost2010PropOp39
 70
     1
102
RTVSPost2010Prop40
 90
        0
102
RTVSPost2010PropOp40
 70
     1
102
RTVSPost2010Prop41ColorIndex
 90
       18
102
RTVSPost2010Prop41ColorRGB
 90
        0
102
RTVSPost2010PropOp41
 70
     1
102
RTVSPost2010Prop42
 90
       50
102
RTVSPost2010PropOp42
 70
     1
102
RTVSPost2010Prop43
 90
        3
102
RTVSPost2010PropOp43
 70
     1
102
RTVSPost2010Prop44ColorIndex
 90
        5
102
RTVSPost2010Prop44ColorRGB
 90
      255
102
RTVSPost2010PropOp44
 70
     1
102
RTVSPost2010Prop45
280
     0
102
RTVSPost2010PropOp45
 70
     1
102
RTVSPost2010Prop46
 90
       50
102
RTVSPost2010PropOp46
 70
     1
102
RTVSPost2010Prop47
 90
       50
102
RTVSPost2010PropOp47
 70
     1
102
RTVSPost2010Prop48
 90
       50
102
RTVSPost2010PropOp48
 70
     1
102
RTVSPost2010Prop49
280
     0
102
RTVSPost2010PropOp49
 70
     1
102
RTVSPost2010Prop50
 90
       50
102
RTVSPost2010PropOp50
 70
     1
102
RTVSPost2010Prop51ColorIndex
 90
      256
102
RTVSPost2010Prop51ColorRGB
 90
-16777216
102
RTVSPost2010PropOp51
 70
     0
102
RTVSPost2010Prop52
140
1.0
102
RTVSPost2010PropOp52
 70
     0
102
RTVSPost2010Prop53
 90
        2
102
RTVSPost2010PropOp53
 70
     1
102
RTVSPost2010Prop54
  1
strokes_ogs.tif
102
RTVSPost2010PropOp54
 70
     1
102
RTVSPost2010Prop55
280
     0
102
RTVSPost2010PropOp55
 70
     1
102
RTVSPost2010Prop56
140
1.0
102
RTVSPost2010PropOp56
 70
     1
102
RTVSPost2010Prop57
140
1.0
102
RTVSPost2010PropOp57
 70
     1
102
RTVSPropertyOp0
 70
     1
102
RTVSPropertyOp1
 70
     1
102
RTVSPropertyOp2
 70
     1
102
RTVSPropertyOp3
 70
     1
102
RTVSPropertyOp4
 70
     1
102
RTVSPropertyOp5
 70
     1
102
RTVSPropertyOp6
 70
     1
102
RTVSPropertyOp7
 70
     1
102
RTVSPropertyOp8
 70
     1
102
RTVSPropertyOp9
 70
     1
102
RTVSPropertyOp10
 70
     1
102
RTVSPropertyOp11
 70
     1
102
RTVSPropertyOp12
 70
     1
102
RTVSPropertyOp13
 70
     1
102
RTVSPropertyOp14
 70
     1
102
RTVSPropertyOp15
 70
     1
102
RTVSPropertyOp16
 70
     1
102
RTVSPropertyOp17
 70
     1
102
RTVSPropertyOp18
 70
     1
102
RTVSPropertyOp19
 70
     1
102
RTVSPropertyOp20
 70
     1
102
RTVSPropertyOp21
 70
     1
102
RTVSPropertyOp22
 70
     1
102
RTVSPropertyOp23
 70
     1
102
RTVSPropertyOp24
 70
     1
102
RTVSPropertyOp25
 70
     1
102
RTVSPropertyOp26
 70
     1
102
RTVSPropertyOp27
 70
     1
102
RTVSPropertyOp28
 70
     1
102
RTVSPropertyOp29
 70
     1
102
RTVSPropertyOp30
 70
     1
102
RTVSPropertyOp31
 70
     1
102
RTVSPropertyOp32
 70
     1
102
RTVSPropertyOp33
 70
     1
102
RTVSPropertyOp34
 70
     1
102
RTVSPropertyOp35
 70
     1
102
RTVSPropertyOp36
 70
     1
102
RTVSPropertyOp37
 70
     1
102
RTVSPropertyOp38
 70
     1
102
RTVSPropertyOp39
 70
     1
102
RTVSPropertyOp40
 70
     1
102
RTVSPropertyOp41
 70
     1
102
RTVSPropertyOp42
 70
     1
102
RTVSPropertyOp43
 70
     1
102
RTVSPropertyOp44
 70
     1
102
RTVSPropertyOp45
 70
     1
102
RTVSPropertyOp46
 70
     1
102
RTVSPropertyOp47
 70
     1
102
RTVSPropertyOp48
 70
     1
102
RTVSPropertyOp49
 70
     1
102
RTVSPropertyOp50
 70
     1
102
RTVSPropertyOp51
 70
     0
102
RTVSPropertyOp52
 70
     0
102
RTVSPropertyOp53
 70
     1
102
RTVSPropertyOp54
 70
     1
102
RTVSPropertyOp55
 70
     1
102
RTVSPropertyOp56
 70
     1
102
RTVSPropertyOp57
 70
     1
102
RTVSPropertyOp58
 70
     1
102
RTVSPropertyOp59
 70
     1
102
RTVSPropertyOp60
 70
     1
102
RTVSPropertyOp61
 70
     1
102
RTVSPropertyOp62
 70
     1
  0
XRECORD
  5
C312
102
{ACAD_REACTORS
330
C311
102
}
330
C311
100
AcDbXrecord
280
     1
102
RTVSPost2010Prop28
280
     0
102
RTVSPost2010PropOp28
 70
     1
102
RTVSPost2010Prop29
280
     1
102
RTVSPost2010PropOp29
 70
     1
102
RTVSPost2010Prop30
280
     1
102
RTVSPost2010PropOp30
 70
     1
102
RTVSPost2010Prop31
280
     0
102
RTVSPost2010PropOp31
 70
     1
102
RTVSPost2010Prop32
280
     0
102
RTVSPost2010PropOp32
 70
     1
102
RTVSPost2010Prop33
280
     0
102
RTVSPost2010PropOp33
 70
     1
102
RTVSPost2010Prop34
280
     0
102
RTVSPost2010PropOp34
 70
     1
102
RTVSPost2010Prop35
280
     0
102
RTVSPost2010PropOp35
 70
     1
102
RTVSPost2010Prop36
280
     0
102
RTVSPost2010PropOp36
 70
     1
102
RTVSPost2010Prop37
 90
       50
102
RTVSPost2010PropOp37
 70
     1
102
RTVSPost2010Prop38
140
0.0
102
RTVSPost2010PropOp38
 70
     1
102
RTVSPost2010Prop39
140
1.0
102
RTVSPost2010PropOp39
 70
     1
102
RTVSPost2010Prop40
 90
        0
102
RTVSPost2010PropOp40
 70
     1
102
RTVSPost2010Prop41ColorIndex
 90
       18
102
RTVSPost2010Prop41ColorRGB
 90
        0
102
RTVSPost2010PropOp41
 70
     1
102
RTVSPost2010Prop42
 90
       50
102
RTVSPost2010PropOp42
 70
     1
102
RTVSPost2010Prop43
 90
        3
102
RTVSPost2010PropOp43
 70
     1
102
RTVSPost2010Prop44ColorIndex
 90
        5
102
RTVSPost2010Prop44ColorRGB
 90
      255
102
RTVSPost2010PropOp44
 70
     1
102
RTVSPost2010Prop45
280
     0
102
RTVSPost2010PropOp45
 70
     1
102
RTVSPost2010Prop46
 90
       50
102
RTVSPost2010PropOp46
 70
     1
102
RTVSPost2010Prop47
 90
       50
102
RTVSPost2010PropOp47
 70
     1
102
RTVSPost2010Prop48
 90
       50
102
RTVSPost2010PropOp48
 70
     1
102
RTVSPost2010Prop49
280
     0
102
RTVSPost2010PropOp49
 70
     1
102
RTVSPost2010Prop50
 90
       50
102
RTVSPost2010PropOp50
 70
     1
102
RTVSPost2010Prop51ColorIndex
 90
      256
102
RTVSPost2010Prop51ColorRGB
 90
-16777216
102
RTVSPost2010PropOp51
 70
     0
102
RTVSPost2010Prop52
140
1.0
102
RTVSPost2010PropOp52
 70
     0
102
RTVSPost2010Prop53
 90
        2
102
RTVSPost2010PropOp53
 70
     1
102
RTVSPost2010Prop54
  1
strokes_ogs.tif
102
RTVSPost2010PropOp54
 70
     1
102
RTVSPost2010Prop55
280
     0
102
RTVSPost2010PropOp55
 70
     1
102
RTVSPost2010Prop56
140
1.0
102
RTVSPost2010PropOp56
 70
     1
102
RTVSPost2010Prop57
140
1.0
102
RTVSPost2010PropOp57
 70
     1
102
RTVSPropertyOp0
 70
     1
102
RTVSPropertyOp1
 70
     1
102
RTVSPropertyOp2
 70
     1
102
RTVSPropertyOp3
 70
     1
102
RTVSPropertyOp4
 70
     1
102
RTVSPropertyOp5
 70
     1
102
RTVSPropertyOp6
 70
     1
102
RTVSPropertyOp7
 70
     1
102
RTVSPropertyOp8
 70
     1
102
RTVSPropertyOp9
 70
     1
102
RTVSPropertyOp10
 70
     1
102
RTVSPropertyOp11
 70
     1
102
RTVSPropertyOp12
 70
     1
102
RTVSPropertyOp13
 70
     1
102
RTVSPropertyOp14
 70
     1
102
RTVSPropertyOp15
 70
     1
102
RTVSPropertyOp16
 70
     1
102
RTVSPropertyOp17
 70
     1
102
RTVSPropertyOp18
 70
     1
102
RTVSPropertyOp19
 70
     1
102
RTVSPropertyOp20
 70
     1
102
RTVSPropertyOp21
 70
     1
102
RTVSPropertyOp22
 70
     1
102
RTVSPropertyOp23
 70
     1
102
RTVSPropertyOp24
 70
     1
102
RTVSPropertyOp25
 70
     1
102
RTVSPropertyOp26
 70
     1
102
RTVSPropertyOp27
 70
     1
102
RTVSPropertyOp28
 70
     1
102
RTVSPropertyOp29
 70
     1
102
RTVSPropertyOp30
 70
     1
102
RTVSPropertyOp31
 70
     1
102
RTVSPropertyOp32
 70
     1
102
RTVSPropertyOp33
 70
     1
102
RTVSPropertyOp34
 70
     1
102
RTVSPropertyOp35
 70
     1
102
RTVSPropertyOp36
 70
     1
102
RTVSPropertyOp37
 70
     1
102
RTVSPropertyOp38
 70
     1
102
RTVSPropertyOp39
 70
     1
102
RTVSPropertyOp40
 70
     1
102
RTVSPropertyOp41
 70
     1
102
RTVSPropertyOp42
 70
     1
102
RTVSPropertyOp43
 70
     1
102
RTVSPropertyOp44
 70
     1
102
RTVSPropertyOp45
 70
     1
102
RTVSPropertyOp46
 70
     1
102
RTVSPropertyOp47
 70
     1
102
RTVSPropertyOp48
 70
     1
102
RTVSPropertyOp49
 70
     1
102
RTVSPropertyOp50
 70
     1
102
RTVSPropertyOp51
 70
     0
102
RTVSPropertyOp52
 70
     0
102
RTVSPropertyOp53
 70
     1
102
RTVSPropertyOp54
 70
     1
102
RTVSPropertyOp55
 70
     1
102
RTVSPropertyOp56
 70
     1
102
RTVSPropertyOp57
 70
     1
102
RTVSPropertyOp58
 70
     1
102
RTVSPropertyOp59
 70
     1
102
RTVSPropertyOp60
 70
     1
102
RTVSPropertyOp61
 70
     1
102
RTVSPropertyOp62
 70
     1
  0
XRECORD
  5
C314
102
{ACAD_REACTORS
330
C313
102
}
330
C313
100
AcDbXrecord
280
     1
102
RTVSPost2010Prop28
280
     0
102
RTVSPost2010PropOp28
 70
     1
102
RTVSPost2010Prop29
280
     1
102
RTVSPost2010PropOp29
 70
     1
102
RTVSPost2010Prop30
280
     1
102
RTVSPost2010PropOp30
 70
     1
102
RTVSPost2010Prop31
280
     0
102
RTVSPost2010PropOp31
 70
     1
102
RTVSPost2010Prop32
280
     0
102
RTVSPost2010PropOp32
 70
     1
102
RTVSPost2010Prop33
280
     0
102
RTVSPost2010PropOp33
 70
     1
102
RTVSPost2010Prop34
280
     0
102
RTVSPost2010PropOp34
 70
     1
102
RTVSPost2010Prop35
280
     0
102
RTVSPost2010PropOp35
 70
     1
102
RTVSPost2010Prop36
280
     0
102
RTVSPost2010PropOp36
 70
     1
102
RTVSPost2010Prop37
 90
       50
102
RTVSPost2010PropOp37
 70
     1
102
RTVSPost2010Prop38
140
0.0
102
RTVSPost2010PropOp38
 70
     1
102
RTVSPost2010Prop39
140
1.0
102
RTVSPost2010PropOp39
 70
     1
102
RTVSPost2010Prop40
 90
        0
102
RTVSPost2010PropOp40
 70
     1
102
RTVSPost2010Prop41ColorIndex
 90
       18
102
RTVSPost2010Prop41ColorRGB
 90
        0
102
RTVSPost2010PropOp41
 70
     1
102
RTVSPost2010Prop42
 90
       50
102
RTVSPost2010PropOp42
 70
     1
102
RTVSPost2010Prop43
 90
        3
102
RTVSPost2010PropOp43
 70
     1
102
RTVSPost2010Prop44ColorIndex
 90
        5
102
RTVSPost2010Prop44ColorRGB
 90
      255
102
RTVSPost2010PropOp44
 70
     1
102
RTVSPost2010Prop45
280
     0
102
RTVSPost2010PropOp45
 70
     1
102
RTVSPost2010Prop46
 90
       50
102
RTVSPost2010PropOp46
 70
     1
102
RTVSPost2010Prop47
 90
       50
102
RTVSPost2010PropOp47
 70
     1
102
RTVSPost2010Prop48
 90
       50
102
RTVSPost2010PropOp48
 70
     1
102
RTVSPost2010Prop49
280
     0
102
RTVSPost2010PropOp49
 70
     1
102
RTVSPost2010Prop50
 90
       50
102
RTVSPost2010PropOp50
 70
     1
102
RTVSPost2010Prop51ColorIndex
 90
      256
102
RTVSPost2010Prop51ColorRGB
 90
-16777216
102
RTVSPost2010PropOp51
 70
     0
102
RTVSPost2010Prop52
140
1.0
102
RTVSPost2010PropOp52
 70
     0
102
RTVSPost2010Prop53
 90
        2
102
RTVSPost2010PropOp53
 70
     1
102
RTVSPost2010Prop54
  1
strokes_ogs.tif
102
RTVSPost2010PropOp54
 70
     1
102
RTVSPost2010Prop55
280
     0
102
RTVSPost2010PropOp55
 70
     1
102
RTVSPost2010Prop56
140
1.0
102
RTVSPost2010PropOp56
 70
     1
102
RTVSPost2010Prop57
140
1.0
102
RTVSPost2010PropOp57
 70
     1
102
RTVSPropertyOp0
 70
     1
102
RTVSPropertyOp1
 70
     1
102
RTVSPropertyOp2
 70
     1
102
RTVSPropertyOp3
 70
     1
102
RTVSPropertyOp4
 70
     1
102
RTVSPropertyOp5
 70
     1
102
RTVSPropertyOp6
 70
     1
102
RTVSPropertyOp7
 70
     1
102
RTVSPropertyOp8
 70
     1
102
RTVSPropertyOp9
 70
     1
102
RTVSPropertyOp10
 70
     1
102
RTVSPropertyOp11
 70
     1
102
RTVSPropertyOp12
 70
     1
102
RTVSPropertyOp13
 70
     1
102
RTVSPropertyOp14
 70
     1
102
RTVSPropertyOp15
 70
     1
102
RTVSPropertyOp16
 70
     1
102
RTVSPropertyOp17
 70
     1
102
RTVSPropertyOp18
 70
     1
102
RTVSPropertyOp19
 70
     1
102
RTVSPropertyOp20
 70
     1
102
RTVSPropertyOp21
 70
     1
102
RTVSPropertyOp22
 70
     1
102
RTVSPropertyOp23
 70
     1
102
RTVSPropertyOp24
 70
     1
102
RTVSPropertyOp25
 70
     1
102
RTVSPropertyOp26
 70
     1
102
RTVSPropertyOp27
 70
     1
102
RTVSPropertyOp28
 70
     1
102
RTVSPropertyOp29
 70
     1
102
RTVSPropertyOp30
 70
     1
102
RTVSPropertyOp31
 70
     1
102
RTVSPropertyOp32
 70
     1
102
RTVSPropertyOp33
 70
     1
102
RTVSPropertyOp34
 70
     1
102
RTVSPropertyOp35
 70
     1
102
RTVSPropertyOp36
 70
     1
102
RTVSPropertyOp37
 70
     1
102
RTVSPropertyOp38
 70
     1
102
RTVSPropertyOp39
 70
     1
102
RTVSPropertyOp40
 70
     1
102
RTVSPropertyOp41
 70
     1
102
RTVSPropertyOp42
 70
     1
102
RTVSPropertyOp43
 70
     1
102
RTVSPropertyOp44
 70
     1
102
RTVSPropertyOp45
 70
     1
102
RTVSPropertyOp46
 70
     1
102
RTVSPropertyOp47
 70
     1
102
RTVSPropertyOp48
 70
     1
102
RTVSPropertyOp49
 70
     1
102
RTVSPropertyOp50
 70
     1
102
RTVSPropertyOp51
 70
     0
102
RTVSPropertyOp52
 70
     0
102
RTVSPropertyOp53
 70
     1
102
RTVSPropertyOp54
 70
     1
102
RTVSPropertyOp55
 70
     1
102
RTVSPropertyOp56
 70
     1
102
RTVSPropertyOp57
 70
     1
102
RTVSPropertyOp58
 70
     1
102
RTVSPropertyOp59
 70
     1
102
RTVSPropertyOp60
 70
     1
102
RTVSPropertyOp61
 70
     1
102
RTVSPropertyOp62
 70
     1
  0
XRECORD
  5
C302
102
{ACAD_REACTORS
330
C301
102
}
330
C301
100
AcDbXrecord
280
     1
102
RTVSPost2010Prop28
280
     0
102
RTVSPost2010PropOp28
 70
     1
102
RTVSPost2010Prop29
280
     1
102
RTVSPost2010PropOp29
 70
     1
102
RTVSPost2010Prop30
280
     1
102
RTVSPost2010PropOp30
 70
     1
102
RTVSPost2010Prop31
280
     0
102
RTVSPost2010PropOp31
 70
     1
102
RTVSPost2010Prop32
280
     0
102
RTVSPost2010PropOp32
 70
     1
102
RTVSPost2010Prop33
280
     0
102
RTVSPost2010PropOp33
 70
     1
102
RTVSPost2010Prop34
280
     0
102
RTVSPost2010PropOp34
 70
     1
102
RTVSPost2010Prop35
280
     0
102
RTVSPost2010PropOp35
 70
     1
102
RTVSPost2010Prop36
280
     0
102
RTVSPost2010PropOp36
 70
     1
102
RTVSPost2010Prop37
 90
       50
102
RTVSPost2010PropOp37
 70
     1
102
RTVSPost2010Prop38
140
0.0
102
RTVSPost2010PropOp38
 70
     1
102
RTVSPost2010Prop39
140
1.0
102
RTVSPost2010PropOp39
 70
     1
102
RTVSPost2010Prop40
 90
        0
102
RTVSPost2010PropOp40
 70
     1
102
RTVSPost2010Prop41ColorIndex
 90
       18
102
RTVSPost2010Prop41ColorRGB
 90
        0
102
RTVSPost2010PropOp41
 70
     1
102
RTVSPost2010Prop42
 90
       50
102
RTVSPost2010PropOp42
 70
     1
102
RTVSPost2010Prop43
 90
        3
102
RTVSPost2010PropOp43
 70
     1
102
RTVSPost2010Prop44ColorIndex
 90
        5
102
RTVSPost2010Prop44ColorRGB
 90
      255
102
RTVSPost2010PropOp44
 70
     1
102
RTVSPost2010Prop45
280
     0
102
RTVSPost2010PropOp45
 70
     1
102
RTVSPost2010Prop46
 90
       50
102
RTVSPost2010PropOp46
 70
     1
102
RTVSPost2010Prop47
 90
       50
102
RTVSPost2010PropOp47
 70
     1
102
RTVSPost2010Prop48
 90
       50
102
RTVSPost2010PropOp48
 70
     1
102
RTVSPost2010Prop49
280
     0
102
RTVSPost2010PropOp49
 70
     1
102
RTVSPost2010Prop50
 90
       50
102
RTVSPost2010PropOp50
 70
     1
102
RTVSPost2010Prop51ColorIndex
 90
      256
102
RTVSPost2010Prop51ColorRGB
 90
-16777216
102
RTVSPost2010PropOp51
 70
     0
102
RTVSPost2010Prop52
140
1.0
102
RTVSPost2010PropOp52
 70
     0
102
RTVSPost2010Prop53
 90
        2
102
RTVSPost2010PropOp53
 70
     1
102
RTVSPost2010Prop54
  1
strokes_ogs.tif
102
RTVSPost2010PropOp54
 70
     1
102
RTVSPost2010Prop55
280
     0
102
RTVSPost2010PropOp55
 70
     1
102
RTVSPost2010Prop56
140
1.0
102
RTVSPost2010PropOp56
 70
     1
102
RTVSPost2010Prop57
140
1.0
102
RTVSPost2010PropOp57
 70
     1
102
RTVSPropertyOp0
 70
     1
102
RTVSPropertyOp1
 70
     1
102
RTVSPropertyOp2
 70
     1
102
RTVSPropertyOp3
 70
     1
102
RTVSPropertyOp4
 70
     1
102
RTVSPropertyOp5
 70
     1
102
RTVSPropertyOp6
 70
     1
102
RTVSPropertyOp7
 70
     1
102
RTVSPropertyOp8
 70
     1
102
RTVSPropertyOp9
 70
     1
102
RTVSPropertyOp10
 70
     1
102
RTVSPropertyOp11
 70
     1
102
RTVSPropertyOp12
 70
     1
102
RTVSPropertyOp13
 70
     1
102
RTVSPropertyOp14
 70
     1
102
RTVSPropertyOp15
 70
     1
102
RTVSPropertyOp16
 70
     1
102
RTVSPropertyOp17
 70
     1
102
RTVSPropertyOp18
 70
     1
102
RTVSPropertyOp19
 70
     1
102
RTVSPropertyOp20
 70
     1
102
RTVSPropertyOp21
 70
     1
102
RTVSPropertyOp22
 70
     1
102
RTVSPropertyOp23
 70
     1
102
RTVSPropertyOp24
 70
     1
102
RTVSPropertyOp25
 70
     1
102
RTVSPropertyOp26
 70
     1
102
RTVSPropertyOp27
 70
     1
102
RTVSPropertyOp28
 70
     1
102
RTVSPropertyOp29
 70
     1
102
RTVSPropertyOp30
 70
     1
102
RTVSPropertyOp31
 70
     1
102
RTVSPropertyOp32
 70
     1
102
RTVSPropertyOp33
 70
     1
102
RTVSPropertyOp34
 70
     1
102
RTVSPropertyOp35
 70
     1
102
RTVSPropertyOp36
 70
     1
102
RTVSPropertyOp37
 70
     1
102
RTVSPropertyOp38
 70
     1
102
RTVSPropertyOp39
 70
     1
102
RTVSPropertyOp40
 70
     1
102
RTVSPropertyOp41
 70
     1
102
RTVSPropertyOp42
 70
     1
102
RTVSPropertyOp43
 70
     1
102
RTVSPropertyOp44
 70
     1
102
RTVSPropertyOp45
 70
     1
102
RTVSPropertyOp46
 70
     1
102
RTVSPropertyOp47
 70
     1
102
RTVSPropertyOp48
 70
     1
102
RTVSPropertyOp49
 70
     1
102
RTVSPropertyOp50
 70
     1
102
RTVSPropertyOp51
 70
     0
102
RTVSPropertyOp52
 70
     0
102
RTVSPropertyOp53
 70
     1
102
RTVSPropertyOp54
 70
     1
102
RTVSPropertyOp55
 70
     1
102
RTVSPropertyOp56
 70
     1
102
RTVSPropertyOp57
 70
     1
102
RTVSPropertyOp58
 70
     1
102
RTVSPropertyOp59
 70
     1
102
RTVSPropertyOp60
 70
     1
102
RTVSPropertyOp61
 70
     1
102
RTVSPropertyOp62
 70
     1
  0
XRECORD
  5
C2F6
102
{ACAD_REACTORS
330
C2F5
102
}
330
C2F5
100
AcDbXrecord
280
     1
102
RTVSPost2010Prop28
280
     0
102
RTVSPost2010PropOp28
 70
     1
102
RTVSPost2010Prop29
280
     1
102
RTVSPost2010PropOp29
 70
     1
102
RTVSPost2010Prop30
280
     1
102
RTVSPost2010PropOp30
 70
     1
102
RTVSPost2010Prop31
280
     0
102
RTVSPost2010PropOp31
 70
     1
102
RTVSPost2010Prop32
280
     0
102
RTVSPost2010PropOp32
 70
     1
102
RTVSPost2010Prop33
280
     0
102
RTVSPost2010PropOp33
 70
     1
102
RTVSPost2010Prop34
280
     0
102
RTVSPost2010PropOp34
 70
     1
102
RTVSPost2010Prop35
280
     0
102
RTVSPost2010PropOp35
 70
     1
102
RTVSPost2010Prop36
280
     0
102
RTVSPost2010PropOp36
 70
     1
102
RTVSPost2010Prop37
 90
       50
102
RTVSPost2010PropOp37
 70
     1
102
RTVSPost2010Prop38
140
0.0
102
RTVSPost2010PropOp38
 70
     1
102
RTVSPost2010Prop39
140
1.0
102
RTVSPost2010PropOp39
 70
     1
102
RTVSPost2010Prop40
 90
        0
102
RTVSPost2010PropOp40
 70
     1
102
RTVSPost2010Prop41ColorIndex
 90
       18
102
RTVSPost2010Prop41ColorRGB
 90
        0
102
RTVSPost2010PropOp41
 70
     1
102
RTVSPost2010Prop42
 90
       50
102
RTVSPost2010PropOp42
 70
     1
102
RTVSPost2010Prop43
 90
        3
102
RTVSPost2010PropOp43
 70
     1
102
RTVSPost2010Prop44ColorIndex
 90
        5
102
RTVSPost2010Prop44ColorRGB
 90
      255
102
RTVSPost2010PropOp44
 70
     1
102
RTVSPost2010Prop45
280
     0
102
RTVSPost2010PropOp45
 70
     1
102
RTVSPost2010Prop46
 90
       50
102
RTVSPost2010PropOp46
 70
     1
102
RTVSPost2010Prop47
 90
       50
102
RTVSPost2010PropOp47
 70
     1
102
RTVSPost2010Prop48
 90
       50
102
RTVSPost2010PropOp48
 70
     1
102
RTVSPost2010Prop49
280
     0
102
RTVSPost2010PropOp49
 70
     1
102
RTVSPost2010Prop50
 90
       50
102
RTVSPost2010PropOp50
 70
     1
102
RTVSPost2010Prop51ColorIndex
 90
      256
102
RTVSPost2010Prop51ColorRGB
 90
-16777216
102
RTVSPost2010PropOp51
 70
     0
102
RTVSPost2010Prop52
140
1.0
102
RTVSPost2010PropOp52
 70
     0
102
RTVSPost2010Prop53
 90
        2
102
RTVSPost2010PropOp53
 70
     1
102
RTVSPost2010Prop54
  1
strokes_ogs.tif
102
RTVSPost2010PropOp54
 70
     1
102
RTVSPost2010Prop55
280
     0
102
RTVSPost2010PropOp55
 70
     1
102
RTVSPost2010Prop56
140
1.0
102
RTVSPost2010PropOp56
 70
     1
102
RTVSPost2010Prop57
140
1.0
102
RTVSPost2010PropOp57
 70
     1
102
RTVSPropertyOp0
 70
     1
102
RTVSPropertyOp1
 70
     1
102
RTVSPropertyOp2
 70
     1
102
RTVSPropertyOp3
 70
     1
102
RTVSPropertyOp4
 70
     1
102
RTVSPropertyOp5
 70
     1
102
RTVSPropertyOp6
 70
     1
102
RTVSPropertyOp7
 70
     1
102
RTVSPropertyOp8
 70
     1
102
RTVSPropertyOp9
 70
     1
102
RTVSPropertyOp10
 70
     1
102
RTVSPropertyOp11
 70
     1
102
RTVSPropertyOp12
 70
     1
102
RTVSPropertyOp13
 70
     1
102
RTVSPropertyOp14
 70
     1
102
RTVSPropertyOp15
 70
     1
102
RTVSPropertyOp16
 70
     1
102
RTVSPropertyOp17
 70
     1
102
RTVSPropertyOp18
 70
     1
102
RTVSPropertyOp19
 70
     1
102
RTVSPropertyOp20
 70
     1
102
RTVSPropertyOp21
 70
     1
102
RTVSPropertyOp22
 70
     1
102
RTVSPropertyOp23
 70
     1
102
RTVSPropertyOp24
 70
     1
102
RTVSPropertyOp25
 70
     1
102
RTVSPropertyOp26
 70
     1
102
RTVSPropertyOp27
 70
     1
102
RTVSPropertyOp28
 70
     1
102
RTVSPropertyOp29
 70
     1
102
RTVSPropertyOp30
 70
     1
102
RTVSPropertyOp31
 70
     1
102
RTVSPropertyOp32
 70
     1
102
RTVSPropertyOp33
 70
     1
102
RTVSPropertyOp34
 70
     1
102
RTVSPropertyOp35
 70
     1
102
RTVSPropertyOp36
 70
     1
102
RTVSPropertyOp37
 70
     1
102
RTVSPropertyOp38
 70
     1
102
RTVSPropertyOp39
 70
     1
102
RTVSPropertyOp40
 70
     1
102
RTVSPropertyOp41
 70
     1
102
RTVSPropertyOp42
 70
     1
102
RTVSPropertyOp43
 70
     1
102
RTVSPropertyOp44
 70
     1
102
RTVSPropertyOp45
 70
     1
102
RTVSPropertyOp46
 70
     1
102
RTVSPropertyOp47
 70
     1
102
RTVSPropertyOp48
 70
     1
102
RTVSPropertyOp49
 70
     1
102
RTVSPropertyOp50
 70
     1
102
RTVSPropertyOp51
 70
     0
102
RTVSPropertyOp52
 70
     0
102
RTVSPropertyOp53
 70
     1
102
RTVSPropertyOp54
 70
     1
102
RTVSPropertyOp55
 70
     1
102
RTVSPropertyOp56
 70
     1
102
RTVSPropertyOp57
 70
     1
102
RTVSPropertyOp58
 70
     1
102
RTVSPropertyOp59
 70
     1
102
RTVSPropertyOp60
 70
     1
102
RTVSPropertyOp61
 70
     1
102
RTVSPropertyOp62
 70
     1
  0
XRECORD
  5
C316
102
{ACAD_REACTORS
330
C315
102
}
330
C315
100
AcDbXrecord
280
     1
102
RTVSPost2010Prop28
280
     0
102
RTVSPost2010PropOp28
 70
     1
102
RTVSPost2010Prop29
280
     1
102
RTVSPost2010PropOp29
 70
     1
102
RTVSPost2010Prop30
280
     1
102
RTVSPost2010PropOp30
 70
     1
102
RTVSPost2010Prop31
280
     0
102
RTVSPost2010PropOp31
 70
     1
102
RTVSPost2010Prop32
280
     0
102
RTVSPost2010PropOp32
 70
     1
102
RTVSPost2010Prop33
280
     0
102
RTVSPost2010PropOp33
 70
     1
102
RTVSPost2010Prop34
280
     0
102
RTVSPost2010PropOp34
 70
     1
102
RTVSPost2010Prop35
280
     0
102
RTVSPost2010PropOp35
 70
     1
102
RTVSPost2010Prop36
280
     0
102
RTVSPost2010PropOp36
 70
     1
102
RTVSPost2010Prop37
 90
       50
102
RTVSPost2010PropOp37
 70
     1
102
RTVSPost2010Prop38
140
0.0
102
RTVSPost2010PropOp38
 70
     1
102
RTVSPost2010Prop39
140
1.0
102
RTVSPost2010PropOp39
 70
     1
102
RTVSPost2010Prop40
 90
        0
102
RTVSPost2010PropOp40
 70
     1
102
RTVSPost2010Prop41ColorIndex
 90
       18
102
RTVSPost2010Prop41ColorRGB
 90
        0
102
RTVSPost2010PropOp41
 70
     1
102
RTVSPost2010Prop42
 90
       50
102
RTVSPost2010PropOp42
 70
     1
102
RTVSPost2010Prop43
 90
        3
102
RTVSPost2010PropOp43
 70
     1
102
RTVSPost2010Prop44ColorIndex
 90
        5
102
RTVSPost2010Prop44ColorRGB
 90
      255
102
RTVSPost2010PropOp44
 70
     1
102
RTVSPost2010Prop45
280
     0
102
RTVSPost2010PropOp45
 70
     1
102
RTVSPost2010Prop46
 90
       50
102
RTVSPost2010PropOp46
 70
     1
102
RTVSPost2010Prop47
 90
       50
102
RTVSPost2010PropOp47
 70
     1
102
RTVSPost2010Prop48
 90
       50
102
RTVSPost2010PropOp48
 70
     1
102
RTVSPost2010Prop49
280
     0
102
RTVSPost2010PropOp49
 70
     1
102
RTVSPost2010Prop50
 90
       50
102
RTVSPost2010PropOp50
 70
     1
102
RTVSPost2010Prop51ColorIndex
 90
      256
102
RTVSPost2010Prop51ColorRGB
 90
-16777216
102
RTVSPost2010PropOp51
 70
     0
102
RTVSPost2010Prop52
140
1.0
102
RTVSPost2010PropOp52
 70
     0
102
RTVSPost2010Prop53
 90
        2
102
RTVSPost2010PropOp53
 70
     1
102
RTVSPost2010Prop54
  1
strokes_ogs.tif
102
RTVSPost2010PropOp54
 70
     1
102
RTVSPost2010Prop55
280
     0
102
RTVSPost2010PropOp55
 70
     1
102
RTVSPost2010Prop56
140
1.0
102
RTVSPost2010PropOp56
 70
     1
102
RTVSPost2010Prop57
140
1.0
102
RTVSPost2010PropOp57
 70
     1
102
RTVSPropertyOp0
 70
     1
102
RTVSPropertyOp1
 70
     1
102
RTVSPropertyOp2
 70
     1
102
RTVSPropertyOp3
 70
     1
102
RTVSPropertyOp4
 70
     1
102
RTVSPropertyOp5
 70
     1
102
RTVSPropertyOp6
 70
     1
102
RTVSPropertyOp7
 70
     1
102
RTVSPropertyOp8
 70
     1
102
RTVSPropertyOp9
 70
     1
102
RTVSPropertyOp10
 70
     1
102
RTVSPropertyOp11
 70
     1
102
RTVSPropertyOp12
 70
     1
102
RTVSPropertyOp13
 70
     1
102
RTVSPropertyOp14
 70
     1
102
RTVSPropertyOp15
 70
     1
102
RTVSPropertyOp16
 70
     1
102
RTVSPropertyOp17
 70
     1
102
RTVSPropertyOp18
 70
     1
102
RTVSPropertyOp19
 70
     1
102
RTVSPropertyOp20
 70
     1
102
RTVSPropertyOp21
 70
     1
102
RTVSPropertyOp22
 70
     1
102
RTVSPropertyOp23
 70
     1
102
RTVSPropertyOp24
 70
     1
102
RTVSPropertyOp25
 70
     1
102
RTVSPropertyOp26
 70
     1
102
RTVSPropertyOp27
 70
     1
102
RTVSPropertyOp28
 70
     1
102
RTVSPropertyOp29
 70
     1
102
RTVSPropertyOp30
 70
     1
102
RTVSPropertyOp31
 70
     1
102
RTVSPropertyOp32
 70
     1
102
RTVSPropertyOp33
 70
     1
102
RTVSPropertyOp34
 70
     1
102
RTVSPropertyOp35
 70
     1
102
RTVSPropertyOp36
 70
     1
102
RTVSPropertyOp37
 70
     1
102
RTVSPropertyOp38
 70
     1
102
RTVSPropertyOp39
 70
     1
102
RTVSPropertyOp40
 70
     1
102
RTVSPropertyOp41
 70
     1
102
RTVSPropertyOp42
 70
     1
102
RTVSPropertyOp43
 70
     1
102
RTVSPropertyOp44
 70
     1
102
RTVSPropertyOp45
 70
     1
102
RTVSPropertyOp46
 70
     1
102
RTVSPropertyOp47
 70
     1
102
RTVSPropertyOp48
 70
     1
102
RTVSPropertyOp49
 70
     1
102
RTVSPropertyOp50
 70
     1
102
RTVSPropertyOp51
 70
     0
102
RTVSPropertyOp52
 70
     0
102
RTVSPropertyOp53
 70
     1
102
RTVSPropertyOp54
 70
     1
102
RTVSPropertyOp55
 70
     1
102
RTVSPropertyOp56
 70
     1
102
RTVSPropertyOp57
 70
     1
102
RTVSPropertyOp58
 70
     1
102
RTVSPropertyOp59
 70
     1
102
RTVSPropertyOp60
 70
     1
102
RTVSPropertyOp61
 70
     1
102
RTVSPropertyOp62
 70
     1
  0
ENDSEC
  0
EOF
