  0
SECTION
  2
HEADER
  9
$ACADVER
  1
AC1015
  9
$ACADMAINTVER
 70
    18
  9
$DWGCODEPAGE
  3
ANSI_1252
  9
$INSBASE
 10
0.0
 20
0.0
 30
0.0
  9
$EXTMIN
 10
-234.6029656038188
 20
-321.4992367433142
 30
-0.0015258207003583
  9
$EXTMAX
 10
303.8232430301412
 20
353.1134956298786
 30
0.0000000349246037
  9
$LIMMIN
 10
0.0
 20
0.0
  9
$LIMMAX
 10
420.0
 20
297.0
  9
$ORTHOMODE
 70
     0
  9
$REGENMODE
 70
     1
  9
$FILLMODE
 70
     1
  9
$QTEXTMODE
 70
     0
  9
$MIRRTEXT
 70
     0
  9
$LTSCALE
 40
1.0
  9
$ATTMODE
 70
     1
  9
$TEXTSIZE
 40
2.5
  9
$TRACEWID
 40
1.0
  9
$TEXTSTYLE
  7
Standard
  9
$CLAYER
  8
0
  9
$CELTYPE
  6
ByLayer
  9
$CECOLOR
 62
   256
  9
$CELTSCALE
 40
1.0
  9
$DISPSILH
 70
     0
  9
$DIMSCALE
 40
1.0
  9
$DIMASZ
 40
2.5
  9
$DIMEXO
 40
0.625
  9
$DIMDLI
 40
3.75
  9
$DIMRND
 40
0.0
  9
$DIMDLE
 40
0.0
  9
$DIMEXE
 40
1.25
  9
$DIMTP
 40
0.0
  9
$DIMTM
 40
0.0
  9
$DIMTXT
 40
2.5
  9
$DIMCEN
 40
2.5
  9
$DIMTSZ
 40
0.0
  9
$DIMTOL
 70
     0
  9
$DIMLIM
 70
     0
  9
$DIMTIH
 70
     0
  9
$DIMTOH
 70
     0
  9
$DIMSE1
 70
     0
  9
$DIMSE2
 70
     0
  9
$DIMTAD
 70
     1
  9
$DIMZIN
 70
     8
  9
$DIMBLK
  1

  9
$DIMASO
 70
     1
  9
$DIMSHO
 70
     1
  9
$DIMPOST
  1

  9
$DIMAPOST
  1

  9
$DIMALT
 70
     0
  9
$DIMALTD
 70
     3
  9
$DIMALTF
 40
0.03937007874016
  9
$DIMLFAC
 40
1.0
  9
$DIMTOFL
 70
     1
  9
$DIMTVP
 40
0.0
  9
$DIMTIX
 70
     0
  9
$DIMSOXD
 70
     0
  9
$DIMSAH
 70
     0
  9
$DIMBLK1
  1

  9
$DIMBLK2
  1

  9
$DIMSTYLE
  2
ISO-25
  9
$DIMCLRD
 70
     0
  9
$DIMCLRE
 70
     0
  9
$DIMCLRT
 70
     0
  9
$DIMTFAC
 40
1.0
  9
$DIMGAP
 40
0.625
  9
$DIMJUST
 70
     0
  9
$DIMSD1
 70
     0
  9
$DIMSD2
 70
     0
  9
$DIMTOLJ
 70
     0
  9
$DIMTZIN
 70
     8
  9
$DIMALTZ
 70
     0
  9
$DIMALTTZ
 70
     0
  9
$DIMUPT
 70
     0
  9
$DIMDEC
 70
     2
  9
$DIMTDEC
 70
     2
  9
$DIMALTU
 70
     2
  9
$DIMALTTD
 70
     3
  9
$DIMTXSTY
  7
Standard
  9
$DIMAUNIT
 70
     0
  9
$DIMADEC
 70
     0
  9
$DIMALTRND
 40
0.0
  9
$DIMAZIN
 70
     0
  9
$DIMDSEP
 70
    44
  9
$DIMATFIT
 70
     3
  9
$DIMFRAC
 70
     0
  9
$DIMLDRBLK
  1

  9
$DIMLUNIT
 70
     2
  9
$DIMLWD
 70
    -2
  9
$DIMLWE
 70
    -2
  9
$DIMTMOVE
 70
     0
  9
$LUNITS
 70
     2
  9
$LUPREC
 70
     4
  9
$SKETCHINC
 40
1.0
  9
$FILLETRAD
 40
0.0
  9
$AUNITS
 70
     0
  9
$AUPREC
 70
     0
  9
$MENU
  1
.
  9
$ELEVATION
 40
0.0
  9
$PELEVATION
 40
0.0
  9
$THICKNESS
 40
0.0
  9
$LIMCHECK
 70
     0
  9
$CHAMFERA
 40
0.0
  9
$CHAMFERB
 40
0.0
  9
$CHAMFERC
 40
0.0
  9
$CHAMFERD
 40
0.0
  9
$SKPOLY
 70
     0
  9
$TDCREATE
 40
2460398.356956019
  9
$TDUCREATE
 40
2460398.065289352
  9
$TDUPDATE
 40
2460398.376365741
  9
$TDUUPDATE
 40
2460398.084699074
  9
$TDINDWG
 40
0.0081481481
  9
$TDUSRTIMER
 40
0.0081481481
  9
$USRTIMER
 70
     1
  9
$ANGBASE
 50
0.0
  9
$ANGDIR
 70
     0
  9
$PDMODE
 70
     0
  9
$PDSIZE
 40
0.0
  9
$PLINEWID
 40
0.0
  9
$SPLFRAME
 70
     0
  9
$SPLINETYPE
 70
     6
  9
$SPLINESEGS
 70
     8
  9
$HANDSEED
  5
C57F
  9
$SURFTAB1
 70
     6
  9
$SURFTAB2
 70
     6
  9
$SURFTYPE
 70
     6
  9
$SURFU
 70
     6
  9
$SURFV
 70
     6
  9
$UCSBASE
  2

  9
$UCSNAME
  2

  9
$UCSORG
 10
0.0
 20
0.0
 30
0.0
  9
$UCSXDIR
 10
1.0
 20
0.0
 30
0.0
  9
$UCSYDIR
 10
0.0
 20
1.0
 30
0.0
  9
$UCSORTHOREF
  2

  9
$UCSORTHOVIEW
 70
     0
  9
$UCSORGTOP
 10
0.0
 20
0.0
 30
0.0
  9
$UCSORGBOTTOM
 10
0.0
 20
0.0
 30
0.0
  9
$UCSORGLEFT
 10
0.0
 20
0.0
 30
0.0
  9
$UCSORGRIGHT
 10
0.0
 20
0.0
 30
0.0
  9
$UCSORGFRONT
 10
0.0
 20
0.0
 30
0.0
  9
$UCSORGBACK
 10
0.0
 20
0.0
 30
0.0
  9
$PUCSBASE
  2

  9
$PUCSNAME
  2

  9
$PUCSORG
 10
0.0
 20
0.0
 30
0.0
  9
$PUCSXDIR
 10
1.0
 20
0.0
 30
0.0
  9
$PUCSYDIR
 10
0.0
 20
1.0
 30
0.0
  9
$PUCSORTHOREF
  2

  9
$PUCSORTHOVIEW
 70
     0
  9
$PUCSORGTOP
 10
0.0
 20
0.0
 30
0.0
  9
$PUCSORGBOTTOM
 10
0.0
 20
0.0
 30
0.0
  9
$PUCSORGLEFT
 10
0.0
 20
0.0
 30
0.0
  9
$PUCSORGRIGHT
 10
0.0
 20
0.0
 30
0.0
  9
$PUCSORGFRONT
 10
0.0
 20
0.0
 30
0.0
  9
$PUCSORGBACK
 10
0.0
 20
0.0
 30
0.0
  9
$USERI1
 70
     0
  9
$USERI2
 70
     0
  9
$USERI3
 70
     0
  9
$USERI4
 70
     0
  9
$USERI5
 70
     0
  9
$USERR1
 40
0.0
  9
$USERR2
 40
0.0
  9
$USERR3
 40
0.0
  9
$USERR4
 40
0.0
  9
$USERR5
 40
0.0
  9
$WORLDVIEW
 70
     1
  9
$SHADEDGE
 70
     3
  9
$SHADEDIF
 70
    70
  9
$TILEMODE
 70
     1
  9
$MAXACTVP
 70
    48
  9
$PINSBASE
 10
0.0
 20
0.0
 30
0.0
  9
$PLIMCHECK
 70
     0
  9
$PEXTMIN
 10
0.0
 20
0.0
 30
0.0
  9
$PEXTMAX
 10
0.0
 20
0.0
 30
0.0
  9
$PLIMMIN
 10
0.0
 20
0.0
  9
$PLIMMAX
 10
12.0
 20
9.0
  9
$UNITMODE
 70
     0
  9
$VISRETAIN
 70
     1
  9
$PLINEGEN
 70
     0
  9
$PSLTSCALE
 70
     1
  9
$TREEDEPTH
 70
  3020
  9
$CMLSTYLE
  2
Standard
  9
$CMLJUST
 70
     0
  9
$CMLSCALE
 40
20.0
  9
$PROXYGRAPHICS
 70
     1
  9
$MEASUREMENT
 70
     1
  9
$CELWEIGHT
370
    -1
  9
$ENDCAPS
280
     0
  9
$JOINSTYLE
280
     0
  9
$LWDISPLAY
290
     0
  9
$INSUNITS
 70
     4
  9
$HYPERLINKBASE
  1

  9
$STYLESHEET
  1

  9
$XEDIT
290
     1
  9
$CEPSNTYPE
380
     0
  9
$PSTYLEMODE
290
     1
  9
$FINGERPRINTGUID
  2
{6C1266EE-7BC1-BF4A-B059-A6E7702B10CE}
  9
$VERSIONGUID
  2
{44AB4848-8BCB-6A45-AE01-5EA6F25262EE}
  9
$EXTNAMES
290
     1
  9
$PSVPSCALE
 40
0.0
  9
$OLESTARTUP
290
     0
  0
ENDSEC
  0
SECTION
  2
CLASSES
  0
CLASS
  1
ACDBDICTIONARYWDFLT
  2
AcDbDictionaryWithDefault
  3
ObjectDBX Classes
 90
        0
280
     0
281
     0
  0
CLASS
  1
ACDBPLACEHOLDER
  2
AcDbPlaceHolder
  3
ObjectDBX Classes
 90
        0
280
     0
281
     0
  0
CLASS
  1
LAYOUT
  2
AcDbLayout
  3
ObjectDBX Classes
 90
        0
280
     0
281
     0
  0
CLASS
  1
DICTIONARYVAR
  2
AcDbDictionaryVar
  3
ObjectDBX Classes
 90
        0
280
     0
281
     0
  0
CLASS
  1
TABLESTYLE
  2
AcDbTableStyle
  3
ObjectDBX Classes
 90
     4095
280
     0
281
     0
  0
CLASS
  1
MATERIAL
  2
AcDbMaterial
  3
ObjectDBX Classes
 90
     1153
280
     0
281
     0
  0
CLASS
  1
VISUALSTYLE
  2
AcDbVisualStyle
  3
ObjectDBX Classes
 90
     4095
280
     0
281
     0
  0
CLASS
  1
SCALE
  2
AcDbScale
  3
ObjectDBX Classes
 90
     1153
280
     0
281
     0
  0
CLASS
  1
MLEADERSTYLE
  2
AcDbMLeaderStyle
  3
ACDB_MLEADERSTYLE_CLASS
 90
     4095
280
     0
281
     0
  0
CLASS
  1
CELLSTYLEMAP
  2
AcDbCellStyleMap
  3
ObjectDBX Classes
 90
     1152
280
     0
281
     0
  0
CLASS
  1
EXACXREFPANELOBJECT
  2
ExAcXREFPanelObject
  3
EXAC_ESW
 90
    33793
280
     0
281
     0
  0
CLASS
  1
NPOCOLLECTION
  2
AcDbImpNonPersistentObjectsCollection
  3
ObjectDBX Classes
 90
    33921
280
     0
281
     0
  0
CLASS
  1
LAYER_INDEX
  2
AcDbLayerIndex
  3
ObjectDBX Classes
 90
    32768
280
     0
281
     0
  0
CLASS
  1
SPATIAL_INDEX
  2
AcDbSpatialIndex
  3
ObjectDBX Classes
 90
    32768
280
     0
281
     0
  0
CLASS
  1
IDBUFFER
  2
AcDbIdBuffer
  3
ObjectDBX Classes
 90
    32768
280
     0
281
     0
  0
CLASS
  1
ACDBSECTIONVIEWSTYLE
  2
AcDbSectionViewStyle
  3
ObjectDBX Classes
 90
     1025
280
     0
281
     0
  0
CLASS
  1
ACDBDETAILVIEWSTYLE
  2
AcDbDetailViewStyle
  3
ObjectDBX Classes
 90
     1025
280
     0
281
     0
  0
CLASS
  1
XRECORD
  2
AcDbXrecord
  3
ObjectDBX Classes
 90
        0
280
     0
281
     0
  0
ENDSEC
  0
SECTION
  2
TABLES
  0
TABLE
  2
VPORT
  5
8
102
{ACAD_XDICTIONARY
360
C48D
102
}
330
0
100
AcDbSymbolTable
 70
     1
  0
VPORT
  5
EA
330
8
100
AcDbSymbolTableRecord
100
AcDbViewportTableRecord
  2
*Active
 70
     0
 10
0.0
 20
0.0
 11
1.0
 21
1.0
 12
34.61013871316113
 22
15.80712944328218
 13
0.0
 23
0.0
 14
10.0
 24
10.0
 15
10.0
 25
10.0
 16
0.0
 26
0.0
 36
1.0
 17
0.0
 27
0.0
 37
0.0
 40
717.3895052360879
 41
0.9846153846153846
 42
50.0
 43
0.0
 44
0.0
 50
0.0
 51
0.0
 71
     0
 72
  1000
 73
     1
 74
     3
 75
     0
 76
     1
 77
     0
 78
     0
281
     0
 65
     1
110
0.0
120
0.0
130
0.0
111
1.0
121
0.0
131
0.0
112
0.0
122
1.0
132
0.0
 79
     0
146
0.0
1001
ACAD_NAV_VCDISPLAY
1070
     3
  0
ENDTAB
  0
TABLE
  2
LTYPE
  5
5
330
0
100
AcDbSymbolTable
 70
     1
  0
LTYPE
  5
14
330
5
100
AcDbSymbolTableRecord
100
AcDbLinetypeTableRecord
  2
ByBlock
 70
     0
  3

 72
    65
 73
     0
 40
0.0
  0
LTYPE
  5
15
330
5
100
AcDbSymbolTableRecord
100
AcDbLinetypeTableRecord
  2
ByLayer
 70
     0
  3

 72
    65
 73
     0
 40
0.0
  0
LTYPE
  5
16
330
5
100
AcDbSymbolTableRecord
100
AcDbLinetypeTableRecord
  2
Continuous
 70
     0
  3
Solid line
 72
    65
 73
     0
 40
0.0
  0
ENDTAB
  0
TABLE
  2
LAYER
  5
2
102
{ACAD_XDICTIONARY
360
1FF
102
}
330
0
100
AcDbSymbolTable
 70
     1
  0
LAYER
  5
10
102
{ACAD_XDICTIONARY
360
13C
102
}
330
2
100
AcDbSymbolTableRecord
100
AcDbLayerTableRecord
  2
0
 70
     0
 62
     7
  6
Continuous
370
    -3
390
F
  0
ENDTAB
  0
TABLE
  2
STYLE
  5
3
330
0
100
AcDbSymbolTable
 70
     1
  0
STYLE
  5
11
330
3
100
AcDbSymbolTableRecord
100
AcDbTextStyleTableRecord
  2
Standard
 70
     0
 40
0.0
 41
1.0
 50
0.0
 71
     0
 42
2.5
  3
arial.ttf
  4

1001
ACAD
1000
Arial
1071
       34
  0
ENDTAB
  0
TABLE
  2
VIEW
  5
6
330
0
100
AcDbSymbolTable
 70
     0
  0
ENDTAB
  0
TABLE
  2
UCS
  5
7
330
0
100
AcDbSymbolTable
 70
     0
  0
ENDTAB
  0
TABLE
  2
APPID
  5
9
330
0
100
AcDbSymbolTable
 70
     8
  0
APPID
  5
12
330
9
100
AcDbSymbolTableRecord
100
AcDbRegAppTableRecord
  2
ACAD
 70
     0
  0
APPID
  5
9E
330
9
100
AcDbSymbolTableRecord
100
AcDbRegAppTableRecord
  2
ACAD_PSEXT
 70
     0
  0
APPID
  5
133
330
9
100
AcDbSymbolTableRecord
100
AcDbRegAppTableRecord
  2
AcadAnnoPO
 70
     0
  0
APPID
  5
134
330
9
100
AcDbSymbolTableRecord
100
AcDbRegAppTableRecord
  2
AcadAnnotative
 70
     0
  0
APPID
  5
135
330
9
100
AcDbSymbolTableRecord
100
AcDbRegAppTableRecord
  2
ACAD_DSTYLE_DIMJAG
 70
     0
  0
APPID
  5
136
330
9
100
AcDbSymbolTableRecord
100
AcDbRegAppTableRecord
  2
ACAD_DSTYLE_DIMTALN
 70
     0
  0
APPID
  5
165
330
9
100
AcDbSymbolTableRecord
100
AcDbRegAppTableRecord
  2
ACAD_MLEADERVER
 70
     0
  0
APPID
  5
217
330
9
100
AcDbSymbolTableRecord
100
AcDbRegAppTableRecord
  2
ACAD_NAV_VCDISPLAY
 70
     0
  0
ENDTAB
  0
TABLE
  2
DIMSTYLE
  5
A
330
0
100
AcDbSymbolTable
 70
     1
100
AcDbDimStyleTable
 71
     0
  0
DIMSTYLE
105
27
330
A
100
AcDbSymbolTableRecord
100
AcDbDimStyleTableRecord
  2
ISO-25
 70
     0
 41
2.5
 42
0.625
 43
3.75
 44
1.25
 73
     0
 74
     0
 77
     1
 78
     8
140
2.5
141
2.5
143
0.03937007874016
147
0.625
171
     3
172
     1
271
     2
272
     2
274
     3
278
    44
283
     0
284
     8
340
11
  0
ENDTAB
  0
TABLE
  2
BLOCK_RECORD
  5
1
330
0
100
AcDbSymbolTable
 70
     7
  0
BLOCK_RECORD
  5
1F
102
{ACAD_XDICTIONARY
360
1CE
102
}
330
1
100
AcDbSymbolTableRecord
100
AcDbBlockTableRecord
  2
*Model_Space
340
22
  0
BLOCK_RECORD
  5
D2
102
{ACAD_XDICTIONARY
360
C440
102
}
330
1
100
AcDbSymbolTableRecord
100
AcDbBlockTableRecord
  2
*Paper_Space
340
D3
  0
BLOCK_RECORD
  5
D6
102
{ACAD_XDICTIONARY
360
C442
102
}
330
1
100
AcDbSymbolTableRecord
100
AcDbBlockTableRecord
  2
*Paper_Space0
340
D7
  0
BLOCK_RECORD
  5
C28E
330
1
100
AcDbSymbolTableRecord
100
AcDbBlockTableRecord
  2
SAE500_90_2-Front
340
0
102
{BLKREFS
331
C436
102
}
  0
BLOCK_RECORD
  5
C2ED
330
1
100
AcDbSymbolTableRecord
100
AcDbBlockTableRecord
  2
SAE500_90_2-Left
340
0
102
{BLKREFS
331
C437
102
}
  0
BLOCK_RECORD
  5
C30D
330
1
100
AcDbSymbolTableRecord
100
AcDbBlockTableRecord
  2
SAE500_90_2-Right
340
0
102
{BLKREFS
331
C438
102
}
  0
BLOCK_RECORD
  5
C32E
330
1
100
AcDbSymbolTableRecord
100
AcDbBlockTableRecord
  2
SAE500_90_2-Top
340
0
102
{BLKREFS
331
C439
102
}
  0
BLOCK_RECORD
  5
C35D
330
1
100
AcDbSymbolTableRecord
100
AcDbBlockTableRecord
  2
SAE500_90_2-Bottom
340
0
102
{BLKREFS
331
C43A
102
}
  0
BLOCK_RECORD
  5
C38E
330
1
100
AcDbSymbolTableRecord
100
AcDbBlockTableRecord
  2
SAE500_90_2-ISO
340
0
102
{BLKREFS
331
C43B
102
}
  0
ENDTAB
  0
ENDSEC
  0
SECTION
  2
BLOCKS
  0
BLOCK
  5
20
330
1F
100
AcDbEntity
  8
0
100
AcDbBlockBegin
  2
*Model_Space
 70
     0
 10
0.0
 20
0.0
 30
0.0
  3
*Model_Space
  1

  0
ENDBLK
  5
21
330
1F
100
AcDbEntity
  8
0
100
AcDbBlockEnd
  0
BLOCK
  5
D4
330
D2
100
AcDbEntity
 67
     1
  8
0
100
AcDbBlockBegin
  2
*Paper_Space
 70
     0
 10
0.0
 20
0.0
 30
0.0
  3
*Paper_Space
  1

  0
ENDBLK
  5
D5
330
D2
100
AcDbEntity
 67
     1
  8
0
100
AcDbBlockEnd
  0
BLOCK
  5
D8
330
D6
100
AcDbEntity
 67
     1
  8
0
100
AcDbBlockBegin
  2
*Paper_Space0
 70
     0
 10
0.0
 20
0.0
 30
0.0
  3
*Paper_Space0
  1

  0
ENDBLK
  5
D9
330
D6
100
AcDbEntity
 67
     1
  8
0
100
AcDbBlockEnd
  0
BLOCK
  5
C28F
330
C28E
100
AcDbEntity
  8
0
100
AcDbBlockBegin
  2
SAE500_90_2-Front
 70
     0
 10
0.0
 20
0.0
 30
0.0
  3
SAE500_90_2-Front
  1

  0
SPLINE
  5
C291
330
C28E
100
AcDbEntity
  8
0
100
AcDbSpline
210
0.0
220
0.0
230
1.0
 70
     8
 71
     3
 72
    11
 73
     7
 74
     0
 42
0.000000001
 43
0.0000000001
 40
0.0
 40
0.0
 40
0.0
 40
0.0
 40
0.3318274173334232
 40
0.3318274173334232
 40
0.3318274173334232
 40
0.9988176114183096
 40
0.9988176114183096
 40
0.9988176114183096
 40
0.9988176114183096
 10
49.66666666666675
 20
20.375
 30
0.0
 10
49.3537612221505
 20
20.1454188597533
 30
0.0
 10
48.94840688096955
 20
19.94966133602844
 30
0.0
 10
48.5564849069315
 20
19.75326996532571
 30
0.0
 10
47.76870155970104
 20
19.35851319834649
 30
0.0
 10
47.00270971234601
 20
18.91496720500887
 30
0.0
 10
47.00000717158304
 20
18.00484458839421
 30
0.0
  0
LINE
  5
C292
330
C28E
100
AcDbEntity
  8
0
100
AcDbLine
 10
47.0
 20
20.37500000000001
 30
0.0
 11
49.0
 21
20.37500000000001
 31
0.0
  0
SPLINE
  5
C293
330
C28E
100
AcDbEntity
  8
0
100
AcDbSpline
210
0.0
220
0.0
230
1.0
 70
     8
 71
     3
 72
    20
 73
    16
 74
     0
 42
0.000000001
 43
0.0000000001
 40
0.0118472989918651
 40
0.0118472989918651
 40
0.0118472989918651
 40
0.0118472989918651
 40
0.012531893578293
 40
0.012531893578293
 40
0.0134873709327859
 40
0.0134873709327859
 40
0.0141228796917567
 40
0.0141228796917567
 40
0.015141408637495
 40
0.015141408637495
 40
0.0160669089326105
 40
0.0160669089326105
 40
0.0173073624939178
 40
0.0173073624939178
 40
0.019831511160187
 40
0.019831511160187
 40
0.019831511160187
 40
0.019831511160187
 10
47.00028201842264
 20
18.05709909130666
 30
0.0
 10
47.00028201841961
 20
18.0570990910539
 30
0.0
 10
47.00028037776725
 20
18.05696255277447
 30
0.0
 10
47.00027206667237
 20
18.05624138582388
 30
0.0
 10
47.00026354100812
 20
18.05549450366099
 30
0.0
 10
47.00024329029517
 20
18.05356460370838
 30
0.0
 10
47.0002335264003
 20
18.05260265867472
 30
0.0
 10
47.00020514590959
 20
18.04960762591335
 30
0.0
 10
47.0001842824619
 20
18.04721526564973
 30
0.0
 10
47.00014613786915
 20
18.04204385877635
 30
0.0
 10
47.00012844346305
 20
18.03927754046255
 30
0.0
 10
47.00009351169377
 20
18.03265425311305
 30
0.0
 10
47.00007808318569
 20
18.02870390094608
 30
0.0
 10
47.00004665579988
 20
18.01659873708445
 30
0.0
 10
47.00004636763013
 20
18.00828465606327
 30
0.0
 10
47.00006198946102
 20
17.99999893051986
 30
0.0
  0
SPLINE
  5
C294
330
C28E
100
AcDbEntity
  8
0
100
AcDbSpline
210
0.0
220
0.0
230
1.0
 70
     8
 71
     3
 72
    20
 73
    16
 74
     0
 42
0.000000001
 43
0.0000000001
 40
0.0062272091115922
 40
0.0062272091115922
 40
0.0062272091115922
 40
0.0062272091115922
 40
0.00633908972243
 40
0.00633908972243
 40
0.0068553670793657
 40
0.0068553670793657
 40
0.0073931925639453
 40
0.0073931925639453
 40
0.0081029404801346
 40
0.0081029404801346
 40
0.0099354071989487
 40
0.0099354071989487
 40
0.0118121388850395
 40
0.0118121388850395
 40
0.0129946483390262
 40
0.0129946483390262
 40
0.0129946483390262
 40
0.0129946483390262
 10
47.00016146702675
 20
18.05163818945103
 30
0.0
 10
47.00016146702674
 20
18.05163818944973
 30
0.0
 10
47.00016135944378
 20
18.05162508326614
 30
0.0
 10
47.00016016867138
 20
18.051479538789
 30
0.0
 10
47.00015685284791
 20
18.05107526920034
 30
0.0
 10
47.00014671743338
 20
18.04978572832251
 30
0.0
 10
47.00013955463923
 20
18.04885050869752
 30
0.0
 10
47.00012217849866
 20
18.04644597952146
 30
0.0
 10
47.00011204927768
 20
18.04495326922652
 30
0.0
 10
47.00007642848821
 20
18.03922812728481
 30
0.0
 10
47.00005177339064
 20
18.03431101666063
 30
0.0
 10
47.00001600981823
 20
18.02356613420377
 30
0.0
 10
47.00000495066745
 20
18.01762331031239
 30
0.0
 10
47.00000180621673
 20
18.00776739260664
 30
0.0
 10
47.00000407124449
 20
18.0038903757577
 30
0.0
 10
47.00000965134478
 20
17.99999726727872
 30
0.0
  0
SPLINE
  5
C295
330
C28E
100
AcDbEntity
  8
0
100
AcDbSpline
210
0.0
220
0.0
230
1.0
 70
     8
 71
     3
 72
     8
 73
     4
 74
     0
 42
0.000000001
 43
0.0000000001
 40
0.0
 40
0.0
 40
0.0
 40
0.0
 40
0.0028225935513044
 40
0.0028225935513044
 40
0.0028225935513044
 40
0.0028225935513044
 10
44.99955434980519
 20
18.00000102373766
 30
0.0
 10
44.99956243524045
 20
18.00812408412231
 30
0.0
 10
44.99956820960708
 20
18.01595158514832
 30
0.0
 10
44.99957063003602
 20
18.02310506903539
 30
0.0
  0
LINE
  5
C296
330
C28E
100
AcDbEntity
  8
0
100
AcDbLine
 10
45.00000000000111
 20
18.00291663201754
 30
0.0
 11
44.99999795343101
 21
18.00303032812864
 31
0.0
  0
SPLINE
  5
C297
330
C28E
100
AcDbEntity
  8
0
100
AcDbSpline
210
0.0
220
0.0
230
1.0
 70
     8
 71
     3
 72
    32
 73
    28
 74
     0
 42
0.000000001
 43
0.0000000001
 40
0.0015064980636277
 40
0.0015064980636277
 40
0.0015064980636277
 40
0.0015064980636277
 40
0.0053420351671189
 40
0.0053420351671189
 40
0.0115694670055662
 40
0.0115694670055662
 40
0.0242242517658827
 40
0.0242242517658827
 40
0.0272104758219276
 40
0.0272104758219276
 40
0.0286956709959301
 40
0.0286956709959301
 40
0.0309788292272808
 40
0.0309788292272808
 40
0.0334152308249769
 40
0.0334152308249769
 40
0.0369303312502786
 40
0.0369303312502786
 40
0.0430141323179983
 40
0.0430141323179983
 40
0.0559013974898709
 40
0.0559013974898709
 40
0.0944913307766685
 40
0.0944913307766685
 40
0.183319584492826
 40
0.183319584492826
 40
0.2468429610454742
 40
0.2468429610454742
 40
0.2468429610454742
 40
0.2468429610454742
 10
44.999936733716
 20
18.00349187401461
 30
0.0
 10
44.99987269238292
 20
18.00701348079668
 30
0.0
 10
44.99978235449836
 20
18.01191164396177
 30
0.0
 10
44.99950146822598
 20
18.02680540840516
 30
0.0
 10
44.99928238130327
 20
18.03812394277802
 30
0.0
 10
44.99855842951581
 20
18.07458723594319
 30
0.0
 10
44.99801973347209
 20
18.10032190164407
 30
0.0
 10
44.99715850974123
 20
18.14297434408401
 30
0.0
 10
44.99697894146923
 20
18.15195592529967
 30
0.0
 10
44.99670098188703
 20
18.166225403514
 30
0.0
 10
44.9966064525769
 20
18.17113883854931
 30
0.0
 10
44.99636961383269
 20
18.18365472146211
 30
0.0
 10
44.99622672523385
 20
18.1914062884073
 30
0.0
 10
44.99595230749624
 20
18.2067716296839
 30
0.0
 10
44.99581936391078
 20
18.2144915801453
 30
0.0
 10
44.99552103745382
 20
18.23246369275423
 30
0.0
 10
44.99536443068392
 20
18.24248853507659
 30
0.0
 10
44.99498028065811
 20
18.26849810562498
 30
0.0
 10
44.99478081317085
 20
18.28370598192757
 30
0.0
 10
44.9942454475687
 20
18.32899859068994
 30
0.0
 10
44.99400022143902
 20
18.35708172107569
 30
0.0
 10
44.9932727064704
 20
18.46728094786309
 30
0.0
 10
44.99326469627553
 20
18.54710303335014
 30
0.0
 10
44.99437288487445
 20
18.84502262424256
 30
0.0
 10
44.99731944105135
 20
19.09632608639871
 30
0.0
 10
44.99965210680453
 20
19.55976385995658
 30
0.0
 10
44.99993075974393
 20
19.76920219860882
 30
0.0
 10
44.99999999999997
 20
19.97979720184959
 30
0.0
  0
SPLINE
  5
C298
330
C28E
100
AcDbEntity
  8
0
100
AcDbSpline
210
0.0
220
0.0
230
1.0
 70
     8
 71
     3
 72
    12
 73
     8
 74
     0
 42
0.000000001
 43
0.0000000001
 40
0.0
 40
0.0
 40
0.0
 40
0.0
 40
0.0030476956500064
 40
0.0030476956500064
 40
0.0059939854014063
 40
0.0059939854014063
 40
0.0075040104137268
 40
0.0075040104137268
 40
0.0075040104137268
 40
0.0075040104137268
 10
44.9999432388481
 20
17.99999987638432
 30
0.0
 10
44.99993102340582
 20
18.00666306303483
 30
0.0
 10
44.9999198718326
 20
18.0120906390821
 30
0.0
 10
44.99990274638843
 20
18.01960428078346
 30
0.0
 10
44.99989650539152
 20
18.02190087259353
 30
0.0
 10
44.99989178869276
 20
18.02354574882901
 30
0.0
 10
44.99989097901987
 20
18.02379877077559
 30
0.0
 10
44.99989097901998
 20
18.02379877073992
 30
0.0
  0
SPLINE
  5
C299
330
C28E
100
AcDbEntity
  8
0
100
AcDbSpline
210
0.0
220
0.0
230
1.0
 70
     8
 71
     3
 72
     8
 73
     4
 74
     0
 42
0.000000001
 43
0.0000000001
 40
0.0
 40
0.0
 40
0.0
 40
0.0
 40
0.0003847350049024
 40
0.0003847350049024
 40
0.0003847350049024
 40
0.0003847350049024
 10
49.66669019748189
 20
20.37496641911666
 30
0.0
 10
49.66635770096147
 20
20.37473396991973
 30
0.0
 10
49.6660191087736
 20
20.3744972920181
 30
0.0
 10
49.66567783434491
 20
20.37425870781599
 30
0.0
  0
SPLINE
  5
C29A
330
C28E
100
AcDbEntity
  8
0
100
AcDbSpline
210
0.0
220
0.0
230
1.0
 70
     8
 71
     3
 72
     8
 73
     4
 74
     0
 42
0.000000001
 43
0.0000000001
 40
0.0
 40
0.0
 40
0.0
 40
0.0
 40
0.0006765614165312
 40
0.0006765614165312
 40
0.0006765614165312
 40
0.0006765614165312
 10
49.66670459047507
 20
20.3749481114875
 30
0.0
 10
49.66533206589502
 20
20.37394441544149
 30
0.0
 10
49.66388102041372
 20
20.3728844254382
 30
0.0
 10
49.66237181007807
 20
20.37178329955246
 30
0.0
  0
LINE
  5
C29B
330
C28E
100
AcDbEntity
  8
0
100
AcDbLine
 10
42.99999999999997
 20
-2.0
 30
0.0
 11
-42.99999999999998
 21
-2.000000000000003
 31
0.0
  0
LINE
  5
C29C
330
C28E
100
AcDbEntity
  8
0
100
AcDbLine
 10
-42.99999999999998
 20
0.0
 30
0.0
 11
42.99999999999997
 21
0.0
 31
0.0
  0
LINE
  5
C29D
330
C28E
100
AcDbEntity
  8
0
100
AcDbLine
 10
-49.0
 20
20.37500000000001
 30
0.0
 11
-47.0
 21
20.37500000000001
 31
0.0
  0
SPLINE
  5
C29E
330
C28E
100
AcDbEntity
  8
0
100
AcDbSpline
210
0.0
220
0.0
230
1.0
 70
     8
 71
     3
 72
    11
 73
     7
 74
     0
 42
0.000000001
 43
0.0000000001
 40
0.0
 40
0.0
 40
0.0
 40
0.0
 40
0.3318274173334232
 40
0.3318274173334232
 40
0.3318274173334232
 40
0.9988180298222278
 40
0.9988180298222278
 40
0.9988180298222278
 40
0.9988180298222278
 10
-49.66666666666675
 20
20.375
 30
0.0
 10
-49.3537612221505
 20
20.1454188597533
 30
0.0
 10
-48.94840688096955
 20
19.94966133602844
 30
0.0
 10
-48.5564849069315
 20
19.75326996532571
 30
0.0
 10
-47.7687010655234
 20
19.35851295071499
 30
0.0
 10
-47.00270875133042
 20
18.91496664853476
 30
0.0
 10
-47.00000716649802
 20
18.00484287562994
 30
0.0
  0
SPLINE
  5
C29F
330
C28E
100
AcDbEntity
  8
0
100
AcDbSpline
210
0.0
220
0.0
230
1.0
 70
     8
 71
     3
 72
    32
 73
    28
 74
     0
 42
0.000000001
 43
0.0000000001
 40
0.0078951707987087
 40
0.0078951707987087
 40
0.0078951707987087
 40
0.0078951707987087
 40
0.0780400724487386
 40
0.0780400724487386
 40
0.1678937025182965
 40
0.1678937025182965
 40
0.2052985798736543
 40
0.2052985798736543
 40
0.2226824806914605
 40
0.2226824806914605
 40
0.2278991267576746
 40
0.2278991267576746
 40
0.2307772402883654
 40
0.2307772402883654
 40
0.2338108756718965
 40
0.2338108756718965
 40
0.2357665105299187
 40
0.2357665105299187
 40
0.237725198587696
 40
0.237725198587696
 40
0.2416834097482735
 40
0.2416834097482735
 40
0.2455748330871627
 40
0.2455748330871627
 40
0.2548946117166144
 40
0.2548946117166144
 40
0.2629036362565873
 40
0.2629036362565873
 40
0.2629036362565873
 40
0.2629036362565873
 10
-44.99999999999999
 20
20.07568786437616
 30
0.0
 10
-44.99990534195385
 20
19.84236495208316
 30
0.0
 10
-44.99982361156313
 20
19.60950274168449
 30
0.0
 10
-44.99752688629604
 20
19.11967711254753
 30
0.0
 10
-44.99452867215518
 20
18.86361845923416
 30
0.0
 10
-44.99329357411169
 20
18.56347073938343
 30
0.0
 10
-44.99325892281629
 20
18.48457920711787
 30
0.0
 10
-44.99389599675723
 20
18.36837578182704
 30
0.0
 10
-44.99419548276295
 20
18.33132997941817
 30
0.0
 10
-44.99487949030305
 20
18.27622950013145
 30
0.0
 10
-44.99505996032074
 20
18.26292224735986
 30
0.0
 10
-44.99539234945906
 20
18.24073590699185
 30
0.0
 10
-44.99552152357767
 20
18.23250282078403
 30
0.0
 10
-44.99581356239525
 20
18.214783730316
 30
0.0
 10
-44.99598070551176
 20
18.20509666083859
 30
0.0
 10
-44.99627636467849
 20
18.18871363819778
 30
0.0
 10
-44.9963990299849
 20
18.18209374232983
 30
0.0
 10
-44.99664515388063
 20
18.16910060656053
 30
0.0
 10
-44.99677037237725
 20
18.16263296740795
 30
0.0
 10
-44.9971327681845
 20
18.1441837439964
 30
0.0
 10
-44.99735906914136
 20
18.13300900080585
 30
0.0
 10
-44.99776351967722
 20
18.11315620734217
 30
0.0
 10
-44.99794877446619
 20
18.10413705774801
 30
0.0
 10
-44.99854878176498
 20
18.07484022061538
 30
0.0
 10
-44.99893515468656
 20
18.05578217353802
 30
0.0
 10
-44.99955510193424
 20
18.02409081811522
 30
0.0
 10
-44.99980248868053
 20
18.01083034571677
 30
0.0
 10
-44.99993675205368
 20
18.00347975168326
 30
0.0
  0
SPLINE
  5
C2A0
330
C28E
100
AcDbEntity
  8
0
100
AcDbSpline
210
0.0
220
0.0
230
1.0
 70
     8
 71
     3
 72
    10
 73
     6
 74
     0
 42
0.000000001
 43
0.0000000001
 40
0.0205372808925017
 40
0.0205372808925017
 40
0.0205372808925017
 40
0.0205372808925017
 40
0.0217057851305778
 40
0.0217057851305778
 40
0.0233727196733394
 40
0.0233727196733394
 40
0.0233727196733394
 40
0.0233727196733394
 10
-44.99957079800637
 20
18.02306799368244
 30
0.0
 10
-44.99956980317023
 20
18.02012312821237
 30
0.0
 10
-44.99956822366963
 20
18.01706872785082
 30
0.0
 10
-44.99956313978144
 20
18.00946126369451
 30
0.0
 10
-44.99955912480771
 20
18.00479824646989
 30
0.0
 10
-44.99955434980519
 20
18.00000102373767
 30
0.0
  0
LINE
  5
C2A1
330
C28E
100
AcDbEntity
  8
0
100
AcDbLine
 10
-44.99999795346027
 20
18.00303028348414
 30
0.0
 11
-44.99999999999999
 21
18.00291659132144
 31
0.0
  0
SPLINE
  5
C2A2
330
C28E
100
AcDbEntity
  8
0
100
AcDbSpline
210
0.0
220
0.0
230
1.0
 70
     8
 71
     3
 72
    12
 73
     8
 74
     0
 42
0.000000001
 43
0.0000000001
 40
0.0137676187570369
 40
0.0137676187570369
 40
0.0137676187570369
 40
0.0137676187570369
 40
0.0170361973921663
 40
0.0170361973921663
 40
0.0191027998472894
 40
0.0191027998472894
 40
0.0212752875520696
 40
0.0212752875520696
 40
0.0212752875520696
 40
0.0212752875520696
 10
-44.99989097901998
 20
18.02379877074272
 30
0.0
 10
-44.99989097899886
 20
18.02379877737622
 30
0.0
 10
-44.99989491305756
 20
18.0225818458813
 30
0.0
 10
-44.9999066791332
 20
18.0178849218863
 30
0.0
 10
-44.9999125499768
 20
18.01538537314731
 30
0.0
 10
-44.99992639310585
 20
18.00887591865841
 30
0.0
 10
-44.9999345313191
 20
18.00474959313277
 30
0.0
 10
-44.99994323884807
 20
17.99999987638431
 30
0.0
  0
SPLINE
  5
C2A3
330
C28E
100
AcDbEntity
  8
0
100
AcDbSpline
210
0.0
220
0.0
230
1.0
 70
     8
 71
     3
 72
    18
 73
    14
 74
     0
 42
0.000000001
 43
0.0000000001
 40
0.0
 40
0.0
 40
0.0
 40
0.0
 40
0.0029621466717071
 40
0.0029621466717071
 40
0.0045864595094204
 40
0.0045864595094204
 40
0.005432870009062
 40
0.005432870009062
 40
0.0066405307128712
 40
0.0066405307128712
 40
0.0078359299433088
 40
0.0078359299433088
 40
0.0079764071875496
 40
0.0079764071875496
 40
0.0079764071875496
 40
0.0079764071875496
 10
-47.00006198726166
 20
18.00000009708399
 30
0.0
 10
-47.00004365641031
 20
18.00972358644535
 30
0.0
 10
-47.00004751729195
 20
18.01951904945634
 30
0.0
 10
-47.00009872273682
 20
18.03409084984849
 30
0.0
 10
-47.0001268356078
 20
18.03928121809839
 30
0.0
 10
-47.00017494702787
 20
18.04600708355864
 30
0.0
 10
-47.00019227448596
 20
18.0481107160717
 30
0.0
 10
-47.00023029082353
 20
18.05235306032678
 30
0.0
 10
-47.00024948423608
 20
18.05417938431735
 30
0.0
 10
-47.00027418414456
 20
18.05644853336692
 30
0.0
 10
-47.00028063409015
 20
18.05698245340531
 30
0.0
 10
-47.00028195023048
 20
18.05709337554332
 30
0.0
 10
-47.00028201843648
 20
18.05709909246746
 30
0.0
 10
-47.00028201842264
 20
18.05709909130715
 30
0.0
  0
SPLINE
  5
C2A4
330
C28E
100
AcDbEntity
  8
0
100
AcDbSpline
210
0.0
220
0.0
230
1.0
 70
     8
 71
     3
 72
    18
 73
    14
 74
     0
 42
0.000000001
 43
0.0000000001
 40
0.0
 40
0.0
 40
0.0
 40
0.0
 40
0.0019403237060157
 40
0.0019403237060157
 40
0.0035405996758204
 40
0.0035405996758204
 40
0.0056556572098501
 40
0.0056556572098501
 40
0.0061093777121619
 40
0.0061093777121619
 40
0.0064442900882926
 40
0.0064442900882926
 40
0.0067622821362795
 40
0.0067622821362795
 40
0.0067622821362795
 40
0.0067622821362795
 10
-47.00000964740669
 20
18.00000001518209
 30
0.0
 10
-47.00000049382896
 20
18.00638801412484
 30
0.0
 10
-47.00000043119233
 20
18.01276068069008
 30
0.0
 10
-47.00001720679397
 20
18.02383984686896
 30
0.0
 10
-47.00003119915184
 20
18.0286885088406
 30
0.0
 10
-47.00007332268463
 20
18.03893569856428
 30
0.0
 10
-47.00010522701484
 20
18.04414292348448
 30
0.0
 10
-47.00014085657501
 20
18.04901919099708
 30
0.0
 10
-47.00014666799841
 20
18.04977760034111
 30
0.0
 10
-47.00015448590229
 20
18.05077523927721
 30
0.0
 10
-47.00015714190818
 20
18.05110569351049
 30
0.0
 10
-47.00016057910059
 20
18.05153037562488
 30
0.0
 10
-47.00016146702707
 20
18.05163818949289
 30
0.0
 10
-47.00016146702665
 20
18.05163818944192
 30
0.0
  0
SPLINE
  5
C2A5
330
C28E
100
AcDbEntity
  8
0
100
AcDbSpline
210
0.0
220
0.0
230
1.0
 70
     8
 71
     3
 72
     8
 73
     4
 74
     0
 42
0.000000001
 43
0.0000000001
 40
0.3037171144417456
 40
0.3037171144417456
 40
0.3037171144417456
 40
0.3037171144417456
 40
0.3043937990839188
 40
0.3043937990839188
 40
0.3043937990839188
 40
0.3043937990839188
 10
-49.66237157296953
 20
20.37178329811235
 30
0.0
 10
-49.66388152889717
 20
20.37288496798497
 30
0.0
 10
-49.66533181590996
 20
20.37394423263311
 30
0.0
 10
-49.66670459047506
 20
20.37494811148749
 30
0.0
  0
SPLINE
  5
C2A6
330
C28E
100
AcDbEntity
  8
0
100
AcDbSpline
210
0.0
220
0.0
230
1.0
 70
     8
 71
     3
 72
     8
 73
     4
 74
     0
 42
0.000000001
 43
0.0000000001
 40
0.0185048778184044
 40
0.0185048778184044
 40
0.0185048778184044
 40
0.0185048778184044
 40
0.0188897780279397
 40
0.0188897780279397
 40
0.0188897780279397
 40
0.0188897780279397
 10
-49.66567871906917
 20
20.37425930250705
 30
0.0
 10
-49.6660198544891
 20
20.37449778952845
 30
0.0
 10
-49.66635755818792
 20
20.3747338701064
 30
0.0
 10
-49.66669019748184
 20
20.37496641911667
 30
0.0
  0
ARC
  5
C2A7
330
C28E
100
AcDbEntity
  8
0
100
AcDbCircle
 10
-42.99999999999998
 20
2.0
 30
0.0
 40
4.000000000000003
100
AcDbArc
 50
180.0
 51
270.0
  0
ARC
  5
C2A8
330
C28E
100
AcDbEntity
  8
0
100
AcDbCircle
 10
-42.99999999999998
 20
2.0
 30
0.0
 40
2.000000000000001
100
AcDbArc
 50
180.0
 51
270.0
  0
ARC
  5
C2A9
330
C28E
100
AcDbEntity
  8
0
100
AcDbCircle
 10
42.99999999999998
 20
2.0
 30
0.0
 40
4.000000000000003
100
AcDbArc
 50
270.0
 51
0.0
  0
LINE
  5
C2AA
330
C28E
100
AcDbEntity
  8
0
100
AcDbLine
 10
49.66666666666676
 20
20.37500000000001
 30
0.0
 11
86.50000000000003
 21
47.99999999999997
 31
0.0
  0
LINE
  5
C2AB
330
C28E
100
AcDbEntity
  8
0
100
AcDbLine
 10
44.99999999999996
 20
18.0
 30
0.0
 11
44.99999999999997
 21
47.99999999999997
 31
0.0
  0
LINE
  5
C2AC
330
C28E
100
AcDbEntity
  8
0
100
AcDbLine
 10
46.99999999999997
 20
18.0
 30
0.0
 11
44.99999999999996
 21
18.0
 31
0.0
  0
LINE
  5
C2AD
330
C28E
100
AcDbEntity
  8
0
100
AcDbLine
 10
46.99999999999998
 20
47.99999999999997
 30
0.0
 11
46.99999999999997
 21
18.0
 31
0.0
  0
LINE
  5
C2AE
330
C28E
100
AcDbEntity
  8
0
100
AcDbLine
 10
46.99999999999998
 20
47.99999999999997
 30
0.0
 11
44.99999999999997
 21
47.99999999999997
 31
0.0
  0
LINE
  5
C2AF
330
C28E
100
AcDbEntity
  8
0
100
AcDbLine
 10
44.99999999999997
 20
47.99999999999997
 30
0.0
 11
44.99999999999997
 21
205.0
 31
0.0
  0
LINE
  5
C2B0
330
C28E
100
AcDbEntity
  8
0
100
AcDbLine
 10
46.99999999999998
 20
205.0
 30
0.0
 11
46.99999999999998
 21
47.99999999999997
 31
0.0
  0
LINE
  5
C2B1
330
C28E
100
AcDbEntity
  8
0
100
AcDbLine
 10
44.99999999999997
 20
205.0
 30
0.0
 11
46.99999999999998
 21
205.0
 31
0.0
  0
LINE
  5
C2B2
330
C28E
100
AcDbEntity
  8
0
100
AcDbLine
 10
46.99999999999997
 20
18.0
 30
0.0
 11
46.99999999999999
 21
1.999999999999999
 31
0.0
  0
LINE
  5
C2B3
330
C28E
100
AcDbEntity
  8
0
100
AcDbLine
 10
44.99999999999999
 20
2.0
 30
0.0
 11
44.99999999999996
 21
18.0
 31
0.0
  0
ARC
  5
C2B4
330
C28E
100
AcDbEntity
  8
0
100
AcDbCircle
 10
42.99999999999998
 20
2.0
 30
0.0
 40
2.000000000000001
100
AcDbArc
 50
270.0
 51
0.0
  0
LINE
  5
C2B5
330
C28E
100
AcDbEntity
  8
0
100
AcDbLine
 10
49.0
 20
205.0
 30
0.0
 11
47.0
 21
205.0
 31
0.0
  0
LINE
  5
C2B6
330
C28E
100
AcDbEntity
  8
0
100
AcDbLine
 10
86.50000000000003
 20
47.99999999999997
 30
0.0
 11
86.5
 21
205.0
 31
0.0
  0
LINE
  5
C2B7
330
C28E
100
AcDbEntity
  8
0
100
AcDbLine
 10
86.5
 20
205.0
 30
0.0
 11
49.0
 21
205.0
 31
0.0
  0
CIRCLE
  5
C2B8
330
C28E
100
AcDbEntity
  8
0
100
AcDbCircle
 10
67.0
 20
185.0
 30
0.0
 40
6.5
  0
CIRCLE
  5
C2B9
330
C28E
100
AcDbEntity
  8
0
100
AcDbCircle
 10
78.0
 20
190.0
 30
0.0
 40
2.5
  0
LINE
  5
C2BA
330
C28E
100
AcDbEntity
  8
0
100
AcDbLine
 10
-86.50000000000003
 20
47.99999999999997
 30
0.0
 11
-49.66666666666676
 21
20.37500000000001
 31
0.0
  0
LINE
  5
C2BB
330
C28E
100
AcDbEntity
  8
0
100
AcDbLine
 10
-44.99999999999997
 20
47.99999999999997
 30
0.0
 11
-44.99999999999996
 21
18.0
 31
0.0
  0
LINE
  5
C2BC
330
C28E
100
AcDbEntity
  8
0
100
AcDbLine
 10
-46.99999999999998
 20
47.99999999999997
 30
0.0
 11
-44.99999999999997
 21
47.99999999999997
 31
0.0
  0
LINE
  5
C2BD
330
C28E
100
AcDbEntity
  8
0
100
AcDbLine
 10
-46.99999999999997
 20
18.0
 30
0.0
 11
-46.99999999999998
 21
47.99999999999997
 31
0.0
  0
LINE
  5
C2BE
330
C28E
100
AcDbEntity
  8
0
100
AcDbLine
 10
-44.99999999999996
 20
18.0
 30
0.0
 11
-46.99999999999997
 21
18.0
 31
0.0
  0
LINE
  5
C2BF
330
C28E
100
AcDbEntity
  8
0
100
AcDbLine
 10
-44.99999999999997
 20
205.0
 30
0.0
 11
-44.99999999999997
 21
47.99999999999997
 31
0.0
  0
LINE
  5
C2C0
330
C28E
100
AcDbEntity
  8
0
100
AcDbLine
 10
-46.99999999999998
 20
205.0
 30
0.0
 11
-44.99999999999997
 21
205.0
 31
0.0
  0
LINE
  5
C2C1
330
C28E
100
AcDbEntity
  8
0
100
AcDbLine
 10
-46.99999999999998
 20
47.99999999999997
 30
0.0
 11
-46.99999999999998
 21
205.0
 31
0.0
  0
CIRCLE
  5
C2C2
330
C28E
100
AcDbEntity
  8
0
100
AcDbCircle
 10
-67.0
 20
55.0
 30
0.0
 40
6.5
  0
CIRCLE
  5
C2C3
330
C28E
100
AcDbEntity
  8
0
100
AcDbCircle
 10
67.0
 20
55.0
 30
0.0
 40
6.5
  0
CIRCLE
  5
C2C4
330
C28E
100
AcDbEntity
  8
0
100
AcDbCircle
 10
-67.0
 20
125.0
 30
0.0
 40
6.5
  0
CIRCLE
  5
C2C5
330
C28E
100
AcDbEntity
  8
0
100
AcDbCircle
 10
67.0
 20
125.0
 30
0.0
 40
6.5
  0
CIRCLE
  5
C2C6
330
C28E
100
AcDbEntity
  8
0
100
AcDbCircle
 10
-67.0
 20
185.0
 30
0.0
 40
6.5
  0
CIRCLE
  5
C2C7
330
C28E
100
AcDbEntity
  8
0
100
AcDbCircle
 10
-56.0
 20
40.0
 30
0.0
 40
2.5
  0
CIRCLE
  5
C2C8
330
C28E
100
AcDbEntity
  8
0
100
AcDbCircle
 10
-56.0
 20
60.0
 30
0.0
 40
2.5
  0
CIRCLE
  5
C2C9
330
C28E
100
AcDbEntity
  8
0
100
AcDbCircle
 10
-56.0
 20
80.0
 30
0.0
 40
2.5
  0
CIRCLE
  5
C2CA
330
C28E
100
AcDbEntity
  8
0
100
AcDbCircle
 10
-56.0
 20
100.0
 30
0.0
 40
2.5
  0
CIRCLE
  5
C2CB
330
C28E
100
AcDbEntity
  8
0
100
AcDbCircle
 10
-56.0
 20
120.0
 30
0.0
 40
2.5
  0
CIRCLE
  5
C2CC
330
C28E
100
AcDbEntity
  8
0
100
AcDbCircle
 10
-56.0
 20
140.0
 30
0.0
 40
2.5
  0
CIRCLE
  5
C2CD
330
C28E
100
AcDbEntity
  8
0
100
AcDbCircle
 10
-56.0
 20
160.0
 30
0.0
 40
2.5
  0
CIRCLE
  5
C2CE
330
C28E
100
AcDbEntity
  8
0
100
AcDbCircle
 10
-56.0
 20
180.0
 30
0.0
 40
2.5
  0
CIRCLE
  5
C2CF
330
C28E
100
AcDbEntity
  8
0
100
AcDbCircle
 10
56.0
 20
40.0
 30
0.0
 40
2.5
  0
CIRCLE
  5
C2D0
330
C28E
100
AcDbEntity
  8
0
100
AcDbCircle
 10
56.0
 20
60.0
 30
0.0
 40
2.5
  0
CIRCLE
  5
C2D1
330
C28E
100
AcDbEntity
  8
0
100
AcDbCircle
 10
56.0
 20
80.0
 30
0.0
 40
2.5
  0
CIRCLE
  5
C2D2
330
C28E
100
AcDbEntity
  8
0
100
AcDbCircle
 10
56.0
 20
100.0
 30
0.0
 40
2.5
  0
CIRCLE
  5
C2D3
330
C28E
100
AcDbEntity
  8
0
100
AcDbCircle
 10
56.0
 20
120.0
 30
0.0
 40
2.5
  0
CIRCLE
  5
C2D4
330
C28E
100
AcDbEntity
  8
0
100
AcDbCircle
 10
56.0
 20
140.0
 30
0.0
 40
2.5
  0
CIRCLE
  5
C2D5
330
C28E
100
AcDbEntity
  8
0
100
AcDbCircle
 10
56.0
 20
160.0
 30
0.0
 40
2.5
  0
CIRCLE
  5
C2D6
330
C28E
100
AcDbEntity
  8
0
100
AcDbCircle
 10
56.0
 20
180.0
 30
0.0
 40
2.5
  0
CIRCLE
  5
C2D7
330
C28E
100
AcDbEntity
  8
0
100
AcDbCircle
 10
-56.0
 20
200.0
 30
0.0
 40
2.5
  0
CIRCLE
  5
C2D8
330
C28E
100
AcDbEntity
  8
0
100
AcDbCircle
 10
56.0
 20
200.0
 30
0.0
 40
2.5
  0
CIRCLE
  5
C2D9
330
C28E
100
AcDbEntity
  8
0
100
AcDbCircle
 10
-78.0
 20
50.0
 30
0.0
 40
2.5
  0
CIRCLE
  5
C2DA
330
C28E
100
AcDbEntity
  8
0
100
AcDbCircle
 10
-78.0
 20
70.0
 30
0.0
 40
2.5
  0
CIRCLE
  5
C2DB
330
C28E
100
AcDbEntity
  8
0
100
AcDbCircle
 10
-78.0
 20
90.0
 30
0.0
 40
2.5
  0
CIRCLE
  5
C2DC
330
C28E
100
AcDbEntity
  8
0
100
AcDbCircle
 10
-78.0
 20
110.0
 30
0.0
 40
2.5
  0
CIRCLE
  5
C2DD
330
C28E
100
AcDbEntity
  8
0
100
AcDbCircle
 10
-78.0
 20
130.0
 30
0.0
 40
2.5
  0
CIRCLE
  5
C2DE
330
C28E
100
AcDbEntity
  8
0
100
AcDbCircle
 10
-78.0
 20
150.0
 30
0.0
 40
2.5
  0
CIRCLE
  5
C2DF
330
C28E
100
AcDbEntity
  8
0
100
AcDbCircle
 10
-78.0
 20
170.0
 30
0.0
 40
2.5
  0
CIRCLE
  5
C2E0
330
C28E
100
AcDbEntity
  8
0
100
AcDbCircle
 10
78.0
 20
50.0
 30
0.0
 40
2.5
  0
CIRCLE
  5
C2E1
330
C28E
100
AcDbEntity
  8
0
100
AcDbCircle
 10
78.0
 20
70.0
 30
0.0
 40
2.5
  0
CIRCLE
  5
C2E2
330
C28E
100
AcDbEntity
  8
0
100
AcDbCircle
 10
78.0
 20
90.0
 30
0.0
 40
2.5
  0
CIRCLE
  5
C2E3
330
C28E
100
AcDbEntity
  8
0
100
AcDbCircle
 10
78.0
 20
110.0
 30
0.0
 40
2.5
  0
CIRCLE
  5
C2E4
330
C28E
100
AcDbEntity
  8
0
100
AcDbCircle
 10
78.0
 20
130.0
 30
0.0
 40
2.5
  0
CIRCLE
  5
C2E5
330
C28E
100
AcDbEntity
  8
0
100
AcDbCircle
 10
78.0
 20
150.0
 30
0.0
 40
2.5
  0
CIRCLE
  5
C2E6
330
C28E
100
AcDbEntity
  8
0
100
AcDbCircle
 10
78.0
 20
170.0
 30
0.0
 40
2.5
  0
CIRCLE
  5
C2E7
330
C28E
100
AcDbEntity
  8
0
100
AcDbCircle
 10
-78.0
 20
190.0
 30
0.0
 40
2.5
  0
LINE
  5
C2E8
330
C28E
100
AcDbEntity
  8
0
100
AcDbLine
 10
-86.5
 20
205.0
 30
0.0
 11
-49.0
 21
205.0
 31
0.0
  0
LINE
  5
C2E9
330
C28E
100
AcDbEntity
  8
0
100
AcDbLine
 10
-86.50000000000003
 20
47.99999999999997
 30
0.0
 11
-86.5
 21
205.0
 31
0.0
  0
LINE
  5
C2EA
330
C28E
100
AcDbEntity
  8
0
100
AcDbLine
 10
-44.99999999999999
 20
2.0
 30
0.0
 11
-44.99999999999996
 21
18.0
 31
0.0
  0
LINE
  5
C2EB
330
C28E
100
AcDbEntity
  8
0
100
AcDbLine
 10
-46.99999999999997
 20
18.0
 30
0.0
 11
-46.99999999999999
 21
1.999999999999999
 31
0.0
  0
LINE
  5
C2EC
330
C28E
100
AcDbEntity
  8
0
100
AcDbLine
 10
-49.0
 20
205.0
 30
0.0
 11
-47.0
 21
205.0
 31
0.0
  0
ENDBLK
  5
C290
330
C28E
100
AcDbEntity
  8
0
100
AcDbBlockEnd
  0
BLOCK
  5
C2EE
330
C2ED
100
AcDbEntity
  8
0
100
AcDbBlockBegin
  2
SAE500_90_2-Left
 70
     0
 10
0.0
 20
0.0
 30
0.0
  3
SAE500_90_2-Left
  1

  0
LINE
  5
C2F0
330
C2ED
100
AcDbEntity
  8
0
100
AcDbLine
 10
1.999999999999997
 20
-2.0
 30
0.0
 11
86.00000000000001
 21
-2.000000000000003
 31
0.0
  0
LINE
  5
C2F1
330
C2ED
100
AcDbEntity
  8
0
100
AcDbLine
 10
2.000000000000002
 20
2.000000000000004
 30
0.0
 11
1.999999999999997
 21
-1.999999999999999
 31
0.0
  0
LINE
  5
C2F2
330
C2ED
100
AcDbEntity
  8
0
100
AcDbLine
 10
86.00000000000001
 20
-2.000000000000003
 30
0.0
 11
86.00000000000001
 21
2.0
 31
0.0
  0
SPLINE
  5
C2F3
330
C2ED
100
AcDbEntity
  8
0
100
AcDbSpline
210
0.0
220
0.0
230
1.0
 70
     8
 71
     3
 72
    14
 73
    10
 74
     0
 42
0.000000001
 43
0.0000000001
 40
-0.4382398707068244
 40
-0.4382398707068244
 40
-0.4382398707068244
 40
-0.4382398707068244
 40
-0.3797519051251502
 40
-0.3797519051251502
 40
-0.3797519051251502
 40
-0.0799947265059264
 40
-0.0799947265059264
 40
-0.0799947265059264
 40
0.0
 40
0.0
 40
0.0
 40
0.0
 10
0.8175993844676645
 20
19.70134698641189
 30
0.0
 10
0.7603863701790691
 20
19.71534934953804
 30
0.0
 10
0.7040619887920236
 20
19.72853621900756
 30
0.0
 10
0.649426821739433
 20
19.74212555183713
 30
0.0
 10
0.3694156542078009
 20
19.81177235913836
 30
0.0
 10
0.1286196353640717
 20
19.89183263730499
 30
0.0
 10
0.0375483486756419
 20
20.13705699996667
 30
0.0
 10
0.0132446015402379
 20
20.20249882162403
 30
0.0
 10
0.0000044908431247
 20
20.28210552456865
 30
0.0
 10
0.0000000000625646
 20
20.37500000002225
 30
0.0
  0
SPLINE
  5
C2F4
330
C2ED
100
AcDbEntity
  8
0
100
AcDbSpline
210
0.0
220
0.0
230
1.0
 70
     8
 71
     3
 72
    11
 73
     7
 74
     0
 42
0.000000001
 43
0.0000000001
 40
0.0
 40
0.0
 40
0.0
 40
0.0
 40
0.3318274173334232
 40
0.3318274173334232
 40
0.3318274173334232
 40
1.0
 40
1.0
 40
1.0
 40
1.0
 10
2.000000000000008
 20
20.375
 30
0.0
 10
2.000040446466513
 20
20.1454188597533
 30
0.0
 10
1.99620681345204
 20
19.94966133602844
 30
0.0
 10
1.998525490059508
 20
19.75326996532571
 30
0.0
 10
2.003194411481466
 20
19.35781340410969
 30
0.0
 10
2.000338506737779
 20
18.91339448368588
 30
0.0
 10
1.999999999986104
 20
18.00000000259667
 30
0.0
  0
LINE
  5
C2F5
330
C2ED
100
AcDbEntity
  8
0
100
AcDbLine
 10
0.0
 20
20.37500000000001
 30
0.0
 11
1.999999999999996
 21
20.37500000000001
 31
0.0
  0
SPLINE
  5
C2F6
330
C2ED
100
AcDbEntity
  8
0
100
AcDbSpline
210
0.0
220
0.0
230
1.0
 70
     8
 71
     3
 72
    16
 73
    12
 74
     0
 42
0.000000001
 43
0.0000000001
 40
0.0
 40
0.0
 40
0.0
 40
0.0
 40
0.0043964501324687
 40
0.0043964501324687
 40
0.0082502293850398
 40
0.0082502293850398
 40
0.0098497742613777
 40
0.0098497742613777
 40
0.0110773780550109
 40
0.0110773780550109
 40
0.0120668053173307
 40
0.0120668053173307
 40
0.0120668053173307
 40
0.0120668053173307
 10
1.999536602269928
 20
17.99999830067333
 30
0.0
 10
1.99948812961012
 20
18.01418792217221
 30
0.0
 10
1.999398492213156
 20
18.02801205077607
 30
0.0
 10
1.999175388131839
 20
18.05042724330344
 30
0.0
 10
1.999043424465236
 20
18.05988165507747
 30
0.0
 10
1.998876604995169
 20
18.0697179683686
 30
0.0
 10
1.998830119619903
 20
18.07219946909114
 30
0.0
 10
1.998763731173589
 20
18.07554970689983
 30
0.0
 10
1.998740013504138
 20
18.07666949175485
 30
0.0
 10
1.998712511069233
 20
18.07793504112509
 30
0.0
 10
1.998705637525111
 20
18.07823380951533
 30
0.0
 10
1.998705637594663
 20
18.07823380648613
 30
0.0
  0
SPLINE
  5
C2F7
330
C2ED
100
AcDbEntity
  8
0
100
AcDbSpline
210
0.0
220
0.0
230
1.0
 70
     8
 71
     3
 72
    32
 73
    28
 74
     0
 42
0.000000001
 43
0.0000000001
 40
0.0043768933619712
 40
0.0043768933619712
 40
0.0043768933619712
 40
0.0043768933619712
 40
0.0051019448579529
 40
0.0051019448579529
 40
0.0089392119974114
 40
0.0089392119974114
 40
0.0117173147617741
 40
0.0117173147617741
 40
0.0139846015613529
 40
0.0139846015613529
 40
0.0175209172836298
 40
0.0175209172836298
 40
0.0266832274267781
 40
0.0266832274267781
 40
0.0541909872450801
 40
0.0541909872450801
 40
0.0893682156288849
 40
0.0893682156288849
 40
0.1121555283350716
 40
0.1121555283350716
 40
0.1464889005534345
 40
0.1464889005534345
 40
0.1790636090043805
 40
0.1790636090043805
 40
0.2201079430467429
 40
0.2201079430467429
 40
0.2638443370055903
 40
0.2638443370055903
 40
0.2638443370055903
 40
0.2638443370055903
 10
1.999420728582126
 20
18.02299045899294
 30
0.0
 10
1.999386966605791
 20
18.0242068476434
 30
0.0
 10
1.999352564905622
 20
18.02542354594287
 30
0.0
 10
1.999130634471542
 20
18.03312910232794
 30
0.0
 10
1.998925656780272
 20
18.03977268220002
 30
0.0
 10
1.99839536173191
 20
18.0548911003196
 30
0.0
 10
1.998103120518945
 20
18.06269495479451
 30
0.0
 10
1.997467095604708
 20
18.07798601758767
 30
0.0
 10
1.997141480220019
 20
18.08530022040663
 30
0.0
 10
1.996238394946111
 20
18.1041438707837
 30
0.0
 10
1.995616716372732
 20
18.11587290394449
 30
0.0
 10
1.993159412848023
 20
18.15791535275319
 30
0.0
 10
1.990954234873285
 20
18.18837842867106
 30
0.0
 10
1.980329463343049
 20
18.30985157538346
 30
0.0
 10
1.968322807465232
 20
18.40046684996871
 30
0.0
 10
1.929421293712839
 20
18.60514599205179
 30
0.0
 10
1.898821891414183
 20
18.72019238853754
 30
0.0
 10
1.831030101921429
 20
18.90011709141373
 30
0.0
 10
1.799670348495232
 20
18.96901466971764
 30
0.0
 10
1.71091218951518
 20
19.13016645075131
 30
0.0
 10
1.646990997030543
 20
19.21815469145336
 30
0.0
 10
1.514408323214115
 20
19.36094076923752
 30
0.0
 10
1.445200363234802
 20
19.41898410236496
 30
0.0
 10
1.28861501351311
 20
19.52673227567084
 30
0.0
 10
1.19948920894496
 20
19.57211438928536
 30
0.0
 10
1.014273246404014
 20
19.64764413180764
 30
0.0
 10
0.9172501900249574
 20
19.67694731997997
 30
0.0
 10
0.8157475400350913
 20
19.70172102885726
 30
0.0
  0
LINE
  5
C2F8
330
C2ED
100
AcDbEntity
  8
0
100
AcDbLine
 10
2.000000000000002
 20
2.000000000000003
 30
0.0
 11
2.000000000000002
 21
18.0
 31
0.0
  0
LINE
  5
C2F9
330
C2ED
100
AcDbEntity
  8
0
100
AcDbLine
 10
2.000000000000001
 20
47.99999999999997
 30
0.0
 11
1.999999999999996
 21
20.37500000000001
 31
0.0
  0
LINE
  5
C2FA
330
C2ED
100
AcDbEntity
  8
0
100
AcDbLine
 10
0.0
 20
47.99999999999997
 30
0.0
 11
2.000000000000001
 21
47.99999999999997
 31
0.0
  0
LINE
  5
C2FB
330
C2ED
100
AcDbEntity
  8
0
100
AcDbLine
 10
0.0
 20
20.37500000000001
 30
0.0
 11
0.0
 21
47.99999999999997
 31
0.0
  0
LINE
  5
C2FC
330
C2ED
100
AcDbEntity
  8
0
100
AcDbLine
 10
86.00000000000006
 20
18.0
 30
0.0
 11
46.00000000000004
 21
47.99999999999997
 31
0.0
  0
LINE
  5
C2FD
330
C2ED
100
AcDbEntity
  8
0
100
AcDbLine
 10
46.00000000000004
 20
47.99999999999997
 30
0.0
 11
46.00000000000001
 21
205.0
 31
0.0
  0
LINE
  5
C2FE
330
C2ED
100
AcDbEntity
  8
0
100
AcDbLine
 10
2.000000000000001
 20
47.99999999999997
 30
0.0
 11
2.00000000000001
 21
205.0
 31
0.0
  0
LINE
  5
C2FF
330
C2ED
100
AcDbEntity
  8
0
100
AcDbLine
 10
86.00000000000006
 20
18.0
 30
0.0
 11
86.00000000000001
 21
1.999999999999999
 31
0.0
  0
LINE
  5
C300
330
C2ED
100
AcDbEntity
  8
0
100
AcDbLine
 10
4.000000000000003
 20
205.0
 30
0.0
 11
46.00000000000001
 21
205.0
 31
0.0
  0
LINE
  5
C301
330
C2ED
100
AcDbEntity
  8
0
100
AcDbLine
 10
0.0
 20
205.0
 30
0.0
 11
2.00000000000001
 21
205.0
 31
0.0
  0
LINE
  5
C302
330
C2ED
100
AcDbEntity
  8
0
100
AcDbLine
 10
0.0
 20
47.99999999999997
 30
0.0
 11
0.0
 21
205.0
 31
0.0
  0
LINE
  5
C303
330
C2ED
100
AcDbEntity
  8
0
100
AcDbLine
 10
2.000000000000001
 20
205.0
 30
0.0
 11
4.000000000000003
 21
205.0
 31
0.0
  0
CIRCLE
  5
C304
330
C2ED
100
AcDbEntity
  8
0
100
AcDbCircle
 10
38.50000000000001
 20
40.0
 30
0.0
 40
2.5
  0
CIRCLE
  5
C305
330
C2ED
100
AcDbEntity
  8
0
100
AcDbCircle
 10
38.50000000000001
 20
60.0
 30
0.0
 40
2.5
  0
CIRCLE
  5
C306
330
C2ED
100
AcDbEntity
  8
0
100
AcDbCircle
 10
38.50000000000001
 20
80.0
 30
0.0
 40
2.5
  0
CIRCLE
  5
C307
330
C2ED
100
AcDbEntity
  8
0
100
AcDbCircle
 10
38.50000000000001
 20
100.0
 30
0.0
 40
2.5
  0
CIRCLE
  5
C308
330
C2ED
100
AcDbEntity
  8
0
100
AcDbCircle
 10
38.50000000000001
 20
120.0
 30
0.0
 40
2.5
  0
CIRCLE
  5
C309
330
C2ED
100
AcDbEntity
  8
0
100
AcDbCircle
 10
38.50000000000001
 20
140.0
 30
0.0
 40
2.5
  0
CIRCLE
  5
C30A
330
C2ED
100
AcDbEntity
  8
0
100
AcDbCircle
 10
38.50000000000001
 20
160.0
 30
0.0
 40
2.5
  0
CIRCLE
  5
C30B
330
C2ED
100
AcDbEntity
  8
0
100
AcDbCircle
 10
38.50000000000001
 20
180.0
 30
0.0
 40
2.5
  0
CIRCLE
  5
C30C
330
C2ED
100
AcDbEntity
  8
0
100
AcDbCircle
 10
38.50000000000001
 20
200.0
 30
0.0
 40
2.5
  0
ENDBLK
  5
C2EF
330
C2ED
100
AcDbEntity
  8
0
100
AcDbBlockEnd
  0
BLOCK
  5
C30E
330
C30D
100
AcDbEntity
  8
0
100
AcDbBlockBegin
  2
SAE500_90_2-Right
 70
     0
 10
0.0
 20
0.0
 30
0.0
  3
SAE500_90_2-Right
  1

  0
SPLINE
  5
C310
330
C30D
100
AcDbEntity
  8
0
100
AcDbSpline
210
0.0
220
0.0
230
1.0
 70
     8
 71
     3
 72
    11
 73
     7
 74
     0
 42
0.000000001
 43
0.0000000001
 40
0.0
 40
0.0
 40
0.0
 40
0.0
 40
0.3318274173334232
 40
0.3318274173334232
 40
0.3318274173334232
 40
1.0
 40
1.0
 40
1.0
 40
1.0
 10
-2.000000000000008
 20
20.375
 30
0.0
 10
-2.000040446466513
 20
20.1454188597533
 30
0.0
 10
-1.99620681345204
 20
19.94966133602844
 30
0.0
 10
-1.998525490059508
 20
19.75326996532571
 30
0.0
 10
-2.003194411481466
 20
19.35781340410969
 30
0.0
 10
-2.000338506737779
 20
18.91339448368588
 30
0.0
 10
-1.999999999986104
 20
18.00000000259667
 30
0.0
  0
SPLINE
  5
C311
330
C30D
100
AcDbEntity
  8
0
100
AcDbSpline
210
0.0
220
0.0
230
1.0
 70
     8
 71
     3
 72
    14
 73
    10
 74
     0
 42
0.000000001
 43
0.0000000001
 40
-0.4382398707068305
 40
-0.4382398707068305
 40
-0.4382398707068305
 40
-0.4382398707068305
 40
-0.3797519051251502
 40
-0.3797519051251502
 40
-0.3797519051251502
 40
-0.0799947265059264
 40
-0.0799947265059264
 40
-0.0799947265059264
 40
0.0
 40
0.0
 40
0.0
 40
0.0
 10
-0.8175993844676824
 20
19.70134698641189
 30
0.0
 10
-0.7603863701790809
 20
19.71534934953804
 30
0.0
 10
-0.7040619887920292
 20
19.72853621900756
 30
0.0
 10
-0.649426821739433
 20
19.74212555183713
 30
0.0
 10
-0.3694156542078009
 20
19.81177235913836
 30
0.0
 10
-0.1286196353640717
 20
19.89183263730499
 30
0.0
 10
-0.0375483486756419
 20
20.13705699996667
 30
0.0
 10
-0.0132446015402379
 20
20.20249882162403
 30
0.0
 10
-0.0000044908431247
 20
20.28210552456865
 30
0.0
 10
-0.0000000000625646
 20
20.37500000002225
 30
0.0
  0
LINE
  5
C312
330
C30D
100
AcDbEntity
  8
0
100
AcDbLine
 10
-1.999999999999996
 20
20.37500000000001
 30
0.0
 11
0.0
 21
20.37500000000001
 31
0.0
  0
SPLINE
  5
C313
330
C30D
100
AcDbEntity
  8
0
100
AcDbSpline
210
0.0
220
0.0
230
1.0
 70
     8
 71
     3
 72
    16
 73
    12
 74
     0
 42
0.000000001
 43
0.0000000001
 40
0.0123265156231124
 40
0.0123265156231124
 40
0.0123265156231124
 40
0.0123265156231124
 40
0.0137908735880111
 40
0.0137908735880111
 40
0.0157495875534551
 40
0.0157495875534551
 40
0.0176904729912066
 40
0.0176904729912066
 40
0.0209012633655968
 40
0.0209012633655968
 40
0.0244101166812158
 40
0.0244101166812158
 40
0.0244101166812158
 40
0.0244101166812158
 10
-1.998705637594662
 20
18.07823380648613
 30
0.0
 10
-1.998705637573661
 20
18.07823380740081
 30
0.0
 10
-1.998720802169395
 20
18.0775755618399
 30
0.0
 10
-1.99878009239808
 20
18.07475626520102
 30
0.0
 10
-1.998832526481553
 20
18.07213676056554
 30
0.0
 10
-1.998947688085948
 20
18.06562096957816
 30
0.0
 10
-1.999011032620242
 20
18.06169604984827
 30
0.0
 10
-1.999173849371178
 20
18.05013154803357
 30
0.0
 10
-1.999271185270794
 20
18.04160151644684
 30
0.0
 10
-1.999433818082819
 20
18.02239220409646
 30
0.0
 10
-1.999497915727841
 20
18.01132318755785
 30
0.0
 10
-1.999536602269928
 20
17.99999830067332
 30
0.0
  0
SPLINE
  5
C314
330
C30D
100
AcDbEntity
  8
0
100
AcDbSpline
210
0.0
220
0.0
230
1.0
 70
     8
 71
     3
 72
    28
 73
    24
 74
     0
 42
0.000000001
 43
0.0000000001
 40
0.0
 40
0.0
 40
0.0
 40
0.0
 40
0.0700466609365906
 40
0.0700466609365906
 40
0.1167611586207407
 40
0.1167611586207407
 40
0.1392284813026617
 40
0.1392284813026617
 40
0.1729599914505431
 40
0.1729599914505431
 40
0.20577335562743
 40
0.20577335562743
 40
0.2274824590082382
 40
0.2274824590082382
 40
0.243625823426201
 40
0.243625823426201
 40
0.2516761020540575
 40
0.2516761020540575
 40
0.2534321107415685
 40
0.2534321107415685
 40
0.2570049511848043
 40
0.2570049511848043
 40
0.2592305187483974
 40
0.2592305187483974
 40
0.2592305187483974
 40
0.2592305187483974
 10
-0.8157475400351025
 20
19.70172102885725
 30
0.0
 10
-0.9783105925513822
 20
19.66204433334592
 30
0.0
 10
-1.130918638633255
 20
19.61137837578196
 30
0.0
 10
-1.382104227003083
 20
19.46856362945021
 30
0.0
 10
-1.483722895197398
 20
19.3933780562809
 30
0.0
 10
-1.621047573300329
 20
19.24637584376587
 30
0.0
 10
-1.663839646392616
 20
19.19270208088881
 30
0.0
 10
-1.761546003997446
 20
19.04663544308405
 30
0.0
 10
-1.812652244522225
 20
18.94626835202458
 30
0.0
 10
-1.892020244884302
 20
18.74050443788359
 30
0.0
 10
-1.921972134331831
 20
18.63367039602635
 30
0.0
 10
-1.95861160853604
 20
18.4560522604734
 30
0.0
 10
-1.969919679926688
 20
18.38480291023874
 30
0.0
 10
-1.984905104003151
 20
18.26001646664562
 30
0.0
 10
-1.989800676936228
 20
18.20649301697967
 30
0.0
 10
-1.995121474983743
 20
18.12623565321915
 30
0.0
 10
-1.996598239122603
 20
18.09841075000031
 30
0.0
 10
-1.997874674293508
 20
18.06826074838506
 30
0.0
 10
-1.998082035634849
 20
18.06305199795559
 30
0.0
 10
-1.998624054390148
 20
18.04874842684169
 30
0.0
 10
-1.998872622993306
 20
18.04123588281891
 30
0.0
 10
-1.999198131307574
 20
18.03078081363896
 30
0.0
 10
-1.999313110736352
 20
18.02688807303668
 30
0.0
 10
-1.999420214862522
 20
18.02304249973182
 30
0.0
  0
LINE
  5
C315
330
C30D
100
AcDbEntity
  8
0
100
AcDbLine
 10
-1.999999999999997
 20
-2.0
 30
0.0
 11
-86.00000000000001
 21
-2.0
 31
0.0
  0
LINE
  5
C316
330
C30D
100
AcDbEntity
  8
0
100
AcDbLine
 10
-2.000000000000002
 20
2.000000000000003
 30
0.0
 11
-2.000000000000002
 21
18.0
 31
0.0
  0
LINE
  5
C317
330
C30D
100
AcDbEntity
  8
0
100
AcDbLine
 10
-2.000000000000002
 20
2.000000000000004
 30
0.0
 11
-1.999999999999997
 21
-1.999999999999999
 31
0.0
  0
LINE
  5
C318
330
C30D
100
AcDbEntity
  8
0
100
AcDbLine
 10
-86.00000000000001
 20
-2.000000000000003
 30
0.0
 11
-86.00000000000001
 21
2.0
 31
0.0
  0
LINE
  5
C319
330
C30D
100
AcDbEntity
  8
0
100
AcDbLine
 10
0.0
 20
47.99999999999997
 30
0.0
 11
0.0
 21
20.37500000000001
 31
0.0
  0
LINE
  5
C31A
330
C30D
100
AcDbEntity
  8
0
100
AcDbLine
 10
-2.000000000000001
 20
47.99999999999997
 30
0.0
 11
0.0
 21
47.99999999999997
 31
0.0
  0
LINE
  5
C31B
330
C30D
100
AcDbEntity
  8
0
100
AcDbLine
 10
-1.999999999999996
 20
20.37500000000001
 30
0.0
 11
-2.000000000000001
 21
47.99999999999997
 31
0.0
  0
LINE
  5
C31C
330
C30D
100
AcDbEntity
  8
0
100
AcDbLine
 10
0.0
 20
47.99999999999997
 30
0.0
 11
0.0
 21
205.0
 31
0.0
  0
CIRCLE
  5
C31D
330
C30D
100
AcDbEntity
  8
0
100
AcDbCircle
 10
-38.50000000000004
 20
190.0
 30
0.0
 40
2.5
  0
LINE
  5
C31E
330
C30D
100
AcDbEntity
  8
0
100
AcDbLine
 10
-46.00000000000004
 20
47.99999999999997
 30
0.0
 11
-86.00000000000006
 21
18.0
 31
0.0
  0
LINE
  5
C31F
330
C30D
100
AcDbEntity
  8
0
100
AcDbLine
 10
-46.00000000000001
 20
205.0
 30
0.0
 11
-46.00000000000004
 21
47.99999999999997
 31
0.0
  0
LINE
  5
C320
330
C30D
100
AcDbEntity
  8
0
100
AcDbLine
 10
-86.00000000000006
 20
18.0
 30
0.0
 11
-86.00000000000001
 21
1.999999999999999
 31
0.0
  0
LINE
  5
C321
330
C30D
100
AcDbEntity
  8
0
100
AcDbLine
 10
-4.000000000000003
 20
205.0
 30
0.0
 11
-46.00000000000001
 21
205.0
 31
0.0
  0
LINE
  5
C322
330
C30D
100
AcDbEntity
  8
0
100
AcDbLine
 10
-2.000000000000001
 20
205.0
 30
0.0
 11
-4.000000000000003
 21
205.0
 31
0.0
  0
LINE
  5
C323
330
C30D
100
AcDbEntity
  8
0
100
AcDbLine
 10
0.0
 20
205.0
 30
0.0
 11
-2.00000000000001
 21
205.0
 31
0.0
  0
LINE
  5
C324
330
C30D
100
AcDbEntity
  8
0
100
AcDbLine
 10
-2.000000000000001
 20
47.99999999999997
 30
0.0
 11
-2.00000000000001
 21
205.0
 31
0.0
  0
CIRCLE
  5
C325
330
C30D
100
AcDbEntity
  8
0
100
AcDbCircle
 10
-38.50000000000004
 20
30.0
 30
0.0
 40
2.5
  0
CIRCLE
  5
C326
330
C30D
100
AcDbEntity
  8
0
100
AcDbCircle
 10
-38.50000000000004
 20
50.0
 30
0.0
 40
2.5
  0
CIRCLE
  5
C327
330
C30D
100
AcDbEntity
  8
0
100
AcDbCircle
 10
-38.50000000000004
 20
70.0
 30
0.0
 40
2.5
  0
CIRCLE
  5
C328
330
C30D
100
AcDbEntity
  8
0
100
AcDbCircle
 10
-38.50000000000004
 20
90.0
 30
0.0
 40
2.5
  0
CIRCLE
  5
C329
330
C30D
100
AcDbEntity
  8
0
100
AcDbCircle
 10
-38.50000000000004
 20
110.0
 30
0.0
 40
2.5
  0
CIRCLE
  5
C32A
330
C30D
100
AcDbEntity
  8
0
100
AcDbCircle
 10
-38.50000000000004
 20
130.0
 30
0.0
 40
2.5
  0
CIRCLE
  5
C32B
330
C30D
100
AcDbEntity
  8
0
100
AcDbCircle
 10
-38.50000000000004
 20
150.0
 30
0.0
 40
2.5
  0
CIRCLE
  5
C32C
330
C30D
100
AcDbEntity
  8
0
100
AcDbCircle
 10
-38.50000000000004
 20
170.0
 30
0.0
 40
2.5
  0
SPLINE
  5
C32D
330
C30D
100
AcDbEntity
  8
0
100
AcDbSpline
210
0.0
220
0.0
230
1.0
 70
     8
 71
     3
 72
     8
 73
     4
 74
     0
 42
0.000000001
 43
0.0000000001
 40
0.0219642559506336
 40
0.0219642559506336
 40
0.0219642559506336
 40
0.0219642559506336
 40
0.0244101166812158
 40
0.0244101166812158
 40
0.0244101166812158
 40
0.0244101166812158
 10
-1.999420214862607
 20
18.0230424997269
 30
0.0
 10
-1.999470322180885
 20
18.0156620958224
 30
0.0
 10
-1.999509635655601
 20
18.00789235996211
 30
0.0
 10
-1.999536602269928
 20
17.99999830067332
 30
0.0
  0
ENDBLK
  5
C30F
330
C30D
100
AcDbEntity
  8
0
100
AcDbBlockEnd
  0
BLOCK
  5
C32F
330
C32E
100
AcDbEntity
  8
0
100
AcDbBlockBegin
  2
SAE500_90_2-Top
 70
     0
 10
0.0
 20
0.0
 30
0.0
  3
SAE500_90_2-Top
  1

  0
LINE
  5
C331
330
C32E
100
AcDbEntity
  8
0
100
AcDbLine
 10
45.0
 20
-1.999999999999999
 30
0.0
 11
45.0
 21
-2.065911061924142
 31
0.0
  0
SPLINE
  5
C332
330
C32E
100
AcDbEntity
  8
0
100
AcDbSpline
210
0.0
220
0.0
230
1.0
 70
     8
 71
     3
 72
    11
 73
     7
 74
     0
 42
0.000000001
 43
0.0000000001
 40
-1.0
 40
-1.0
 40
-1.0
 40
-1.0
 40
-0.8013492148311593
 40
-0.8013492148311593
 40
-0.8013492148311593
 40
-0.6555820292446394
 40
-0.6555820292446394
 40
-0.6555820292446394
 40
-0.6555820292446394
 10
45.00000000000001
 20
-2.000000000000011
 30
0.0
 10
44.99999961282721
 20
-1.999251617300576
 30
0.0
 10
45.12461576613081
 20
-1.921360205915056
 30
0.0
 10
45.33197761235357
 20
-1.794366616541531
 30
0.0
 10
45.48413685348734
 20
-1.701180485438272
 30
0.0
 10
45.68327587107297
 20
-1.58264210119734
 30
0.0
 10
45.91485834810384
 20
-1.45114471562499
 30
0.0
  0
SPLINE
  5
C333
330
C32E
100
AcDbEntity
  8
0
100
AcDbSpline
210
0.0
220
0.0
230
1.0
 70
     8
 71
     3
 72
    24
 73
    20
 74
     0
 42
0.000000001
 43
0.0000000001
 40
0.0
 40
0.0
 40
0.0
 40
0.0
 40
0.0065342796911832
 40
0.0065342796911832
 40
0.0152718551569884
 40
0.0152718551569884
 40
0.0320193297998245
 40
0.0320193297998245
 40
0.0457471446704197
 40
0.0457471446704197
 40
0.0591040363903742
 40
0.0591040363903742
 40
0.0688368645855361
 40
0.0688368645855361
 40
0.0768570127670051
 40
0.0768570127670051
 40
0.0838577259306403
 40
0.0838577259306403
 40
0.0871567542503287
 40
0.0871567542503287
 40
0.0871567542503287
 40
0.0871567542503287
 10
49.6140931526865
 20
-2.000025836281299
 30
0.0
 10
49.59837100354455
 20
-2.000026520323467
 30
0.0
 10
49.58019964659373
 20
-2.000031937881417
 30
0.0
 10
49.53617803542993
 20
-2.000054177804678
 30
0.0
 10
49.50933573844872
 20
-2.000074414145375
 30
0.0
 10
49.42982312589819
 20
-2.000175093408392
 30
0.0
 10
49.37556578191872
 20
-2.000309870003954
 30
0.0
 10
49.27971681015332
 20
-2.000611035122913
 30
0.0
 10
49.23775356206755
 20
-2.000747421721226
 30
0.0
 10
49.15858816595994
 20
-2.00101955129636
 30
0.0
 10
49.12101720896462
 20
-2.00115355197483
 30
0.0
 10
49.05098356160544
 20
-2.001727977794964
 30
0.0
 10
49.02006503355828
 20
-2.00207708525088
 30
0.0
 10
48.96250789874837
 20
-2.00311767378809
 30
0.0
 10
48.935862747973
 20
-2.003743962033435
 30
0.0
 10
48.88588447234252
 20
-2.005368108463903
 30
0.0
 10
48.86233140823569
 20
-2.006319492663213
 30
0.0
 10
48.828456489484
 20
-2.008056552791744
 30
0.0
 10
48.81764841359033
 20
-2.00866748159298
 30
0.0
 10
48.80707994040367
 20
-2.009326282233571
 30
0.0
  0
SPLINE
  5
C334
330
C32E
100
AcDbEntity
  8
0
100
AcDbSpline
210
0.0
220
0.0
230
1.0
 70
     8
 71
     3
 72
    12
 73
     8
 74
     0
 42
0.000000001
 43
0.0000000001
 40
0.0293349488918446
 40
0.0293349488918446
 40
0.0293349488918446
 40
0.0293349488918446
 40
0.0302237114271364
 40
0.0302237114271364
 40
0.0325100390593121
 40
0.0325100390593121
 40
0.0364276887102078
 40
0.0364276887102078
 40
0.0364276887102078
 40
0.0364276887102078
 10
47.00106182038368
 20
-3.93483747954345
 30
0.0
 10
47.00100237381498
 20
-3.937746123651573
 30
0.0
 10
47.00094706831608
 20
-3.940619833704473
 30
0.0
 10
47.00076367770782
 20
-3.950709907823906
 30
0.0
 10
47.00065584768792
 20
-3.957742945059581
 30
0.0
 10
47.00040988310747
 20
-3.976561056578738
 30
0.0
 10
47.00030425882475
 20
-3.988205075096914
 30
0.0
 10
47.00023191687637
 20
-4.000001357808536
 30
0.0
  0
SPLINE
  5
C335
330
C32E
100
AcDbEntity
  8
0
100
AcDbSpline
210
0.0
220
0.0
230
1.0
 70
     8
 71
     3
 72
    12
 73
     8
 74
     0
 42
0.000000001
 43
0.0000000001
 40
0.0
 40
0.0
 40
0.0
 40
0.0
 40
0.0070612267760632
 40
0.0070612267760632
 40
0.0092297487557528
 40
0.0092297487557528
 40
0.0098238917658447
 40
0.0098238917658447
 40
0.0098238917658447
 40
0.0098238917658447
 10
44.99994586804535
 20
-3.999999557715528
 30
0.0
 10
44.99998616117919
 20
-3.987716403272287
 30
0.0
 10
45.00004217860781
 20
-3.975085008069177
 30
0.0
 10
45.00008822445267
 20
-3.966109944499338
 30
0.0
 10
45.00009627116717
 20
-3.964600951723795
 30
0.0
 10
45.00009988645188
 20
-3.96390840871137
 30
0.0
 10
45.0001002860329
 20
-3.963830760743271
 30
0.0
 10
45.00010028603293
 20
-3.963830760736046
 30
0.0
  0
SPLINE
  5
C336
330
C32E
100
AcDbEntity
  8
0
100
AcDbSpline
210
0.0
220
0.0
230
1.0
 70
     8
 71
     3
 72
     8
 73
     4
 74
     0
 42
0.000000001
 43
0.0000000001
 40
0.0041961618455166
 40
0.0041961618455166
 40
0.0041961618455166
 40
0.0041961618455166
 40
0.0079378005620131
 40
0.0079378005620131
 40
0.0079378005620131
 40
0.0079378005620131
 10
44.99996854624253
 20
-3.993406619504298
 30
0.0
 10
44.99996565399327
 20
-3.99214943935144
 30
0.0
 10
44.99996423139246
 20
-3.991506758641372
 30
0.0
 10
44.99996423139246
 20
-3.991506758641391
 30
0.0
  0
SPLINE
  5
C337
330
C32E
100
AcDbEntity
  8
0
100
AcDbSpline
210
0.0
220
0.0
230
1.0
 70
     8
 71
     3
 72
    30
 73
    26
 74
     0
 42
0.000000001
 43
0.0000000001
 40
0.0093913081631781
 40
0.0093913081631781
 40
0.0093913081631781
 40
0.0093913081631781
 40
0.0104756630812452
 40
0.0104756630812452
 40
0.011683137505356
 40
0.011683137505356
 40
0.0122879863070077
 40
0.0122879863070077
 40
0.0135026894456626
 40
0.0135026894456626
 40
0.0231228934695651
 40
0.0231228934695651
 40
0.0357194744000653
 40
0.0357194744000653
 40
0.0735160425114266
 40
0.0735160425114266
 40
0.1870836117365057
 40
0.1870836117365057
 40
0.2057710777691729
 40
0.2057710777691729
 40
0.2153837178303189
 40
0.2153837178303189
 40
0.2206063560964995
 40
0.2206063560964995
 40
0.2261143120064818
 40
0.2261143120064818
 40
0.2261143120064818
 40
0.2261143120064818
 10
44.99995419776445
 20
-3.997500767665277
 30
0.0
 10
44.99994845498982
 20
-3.997167761333662
 30
0.0
 10
44.99994099876905
 20
-3.996735324730575
 30
0.0
 10
44.99992016843751
 20
-3.995526987967956
 30
0.0
 10
44.99990441552559
 20
-3.994614129842436
 30
0.0
 10
44.99985500711741
 20
-3.991737078033189
 30
0.0
 10
44.99983372790707
 20
-3.990496320238064
 30
0.0
 10
44.99976067758156
 20
-3.986223967643552
 30
0.0
 10
44.99970084024439
 20
-3.982707205761388
 30
0.0
 10
44.99916874184098
 20
-3.951202580568992
 30
0.0
 10
44.99867995631723
 20
-3.92065768653024
 30
0.0
 10
44.99766028198154
 20
-3.852423944462378
 30
0.0
 10
44.99713478539959
 20
-3.813793956743963
 30
0.0
 10
44.99526014199361
 20
-3.660042482898088
 30
0.0
 10
44.99438008370947
 20
-3.54661510502184
 30
0.0
 10
44.99242443550639
 20
-3.089460102082749
 30
0.0
 10
44.99411266804326
 20
-2.722451048788181
 30
0.0
 10
44.99774764063392
 20
-2.320017972128927
 30
0.0
 10
44.99837653351338
 20
-2.262882368895498
 30
0.0
 10
44.99916285507704
 20
-2.179608703486666
 30
0.0
 10
44.999366518911
 20
-2.152145638504928
 30
0.0
 10
44.99952424831502
 20
-2.115257194965368
 30
0.0
 10
44.99955317445787
 20
-2.103161877699788
 30
0.0
 10
44.99957748622349
 20
-2.081518992279316
 30
0.0
 10
44.99957112060495
 20
-2.071888880573851
 30
0.0
 10
44.9995615030776
 20
-2.065911061924142
 30
0.0
  0
LINE
  5
C338
330
C32E
100
AcDbEntity
  8
0
100
AcDbLine
 10
-45.0
 20
-1.999999999999999
 30
0.0
 11
-45.0
 21
-2.065911061923645
 31
0.0
  0
SPLINE
  5
C339
330
C32E
100
AcDbEntity
  8
0
100
AcDbSpline
210
0.0
220
0.0
230
1.0
 70
     8
 71
     3
 72
    11
 73
     7
 74
     0
 42
0.000000001
 43
0.0000000001
 40
-1.0
 40
-1.0
 40
-1.0
 40
-1.0
 40
-0.8013492148311593
 40
-0.8013492148311593
 40
-0.8013492148311593
 40
-0.6555820292446394
 40
-0.6555820292446394
 40
-0.6555820292446394
 40
-0.6555820292446394
 10
-45.00000000000001
 20
-2.000000000000011
 30
0.0
 10
-44.99999961282721
 20
-1.999251617300576
 30
0.0
 10
-45.12461576613081
 20
-1.921360205915056
 30
0.0
 10
-45.33197761235357
 20
-1.794366616541531
 30
0.0
 10
-45.48413685348734
 20
-1.701180485438272
 30
0.0
 10
-45.68327587107297
 20
-1.58264210119734
 30
0.0
 10
-45.91485834810384
 20
-1.45114471562499
 30
0.0
  0
SPLINE
  5
C33A
330
C32E
100
AcDbEntity
  8
0
100
AcDbSpline
210
0.0
220
0.0
230
1.0
 70
     8
 71
     3
 72
    36
 73
    32
 74
     0
 42
0.000000001
 43
0.0000000001
 40
0.0
 40
0.0
 40
0.0
 40
0.0
 40
0.0042155667044198
 40
0.0042155667044198
 40
0.0094084671401118
 40
0.0094084671401118
 40
0.0174405052781768
 40
0.0174405052781768
 40
0.0285098451667218
 40
0.0285098451667218
 40
0.0616591493282855
 40
0.0616591493282855
 40
0.1610782499386624
 40
0.1610782499386624
 40
0.1905100866011808
 40
0.1905100866011808
 40
0.2050888241898949
 40
0.2050888241898949
 40
0.2122946409522068
 40
0.2122946409522068
 40
0.2133106274712181
 40
0.2133106274712181
 40
0.2138955592857965
 40
0.2138955592857965
 40
0.2143724092356465
 40
0.2143724092356465
 40
0.215044670179823
 40
0.215044670179823
 40
0.2158874673543383
 40
0.2158874673543383
 40
0.2168735479257509
 40
0.2168735479257509
 40
0.2168735479257509
 40
0.2168735479257509
 10
-44.99956150307759
 20
-2.065911061923645
 30
0.0
 10
-44.99956886394407
 20
-2.070486242566889
 30
0.0
 10
-44.99957445762413
 20
-2.077223516904986
 30
0.0
 10
-44.9995666635768
 20
-2.094683320365372
 30
0.0
 10
-44.99954861083875
 20
-2.106114872753603
 30
0.0
 10
-44.99944065534683
 20
-2.137666253837319
 30
0.0
 10
-44.99931047691934
 20
-2.159557995450036
 30
0.0
 10
-44.9988608467451
 20
-2.214095774790254
 30
0.0
 10
-44.99849767850484
 20
-2.247637888465231
 30
0.0
 10
-44.99713719087707
 20
-2.381160946930091
 30
0.0
 10
-44.99628753362109
 20
-2.482656984159935
 30
0.0
 10
-44.99337105002878
 20
-2.897217702632312
 30
0.0
 10
-44.99252094548729
 20
-3.209541200972972
 30
0.0
 10
-44.99480159636918
 20
-3.598008261316529
 30
0.0
 10
-44.99558239419692
 20
-3.686672028023869
 30
0.0
 10
-44.99722341298595
 20
-3.820962141909029
 30
0.0
 10
-44.99784358760951
 20
-3.865724484135392
 30
0.0
 10
-44.99887292696654
 20
-3.932631090981295
 30
0.0
 10
-44.99923720039997
 20
-3.955177872234601
 30
0.0
 10
-44.99964546035002
 20
-3.979433873852924
 30
0.0
 10
-44.99969569452773
 20
-3.982400727997651
 30
0.0
 10
-44.99976941891259
 20
-3.986733387611979
 30
0.0
 10
-44.99979529686203
 20
-3.988249340808391
 30
0.0
 10
-44.99983660501986
 20
-3.990663767519222
 30
0.0
 10
-44.99985313527583
 20
-3.991627776037926
 30
0.0
 10
-44.99988598181283
 20
-3.993541055679096
 30
0.0
 10
-44.99989974523477
 20
-3.994340793767287
 30
0.0
 10
-44.99992289423787
 20
-3.995685297917788
 30
0.0
 10
-44.99993094034247
 20
-3.996151906171699
 30
0.0
 10
-44.9999447425593
 20
-3.996952311989623
 30
0.0
 10
-44.99995004134291
 20
-3.997259481717654
 30
0.0
 10
-44.9999541988198
 20
-3.997500456167168
 30
0.0
  0
SPLINE
  5
C33B
330
C32E
100
AcDbEntity
  8
0
100
AcDbSpline
210
0.0
220
0.0
230
1.0
 70
     8
 71
     3
 72
    14
 73
    10
 74
     0
 42
0.000000001
 43
0.0000000001
 40
0.0084605952910282
 40
0.0084605952910282
 40
0.0084605952910282
 40
0.0084605952910282
 40
0.0097983643459715
 40
0.0097983643459715
 40
0.0122913203926776
 40
0.0122913203926776
 40
0.0160467330808307
 40
0.0160467330808307
 40
0.0182945612352442
 40
0.0182945612352442
 40
0.0182945612352442
 40
0.0182945612352442
 10
-45.0001002860329
 20
-3.96383076073778
 30
0.0
 10
-45.00010028603471
 20
-3.963830760385672
 30
0.0
 10
-45.00009820704914
 20
-3.964230504767259
 30
0.0
 10
-45.00008742008134
 20
-3.966282396026049
 30
0.0
 10
-45.00007450207541
 20
-3.968728661662483
 30
0.0
 10
-45.00003721096923
 20
-3.976322927181744
 30
0.0
 10
-45.00001078938826
 20
-3.982218455364813
 30
0.0
 10
-44.99997236229154
 20
-3.992220259985682
 30
0.0
 10
-44.99995869471749
 20
-3.996089412742244
 30
0.0
 10
-44.99994586804536
 20
-3.999999557715528
 30
0.0
  0
SPLINE
  5
C33C
330
C32E
100
AcDbEntity
  8
0
100
AcDbSpline
210
0.0
220
0.0
230
1.0
 70
     8
 71
     3
 72
     8
 73
     4
 74
     0
 42
0.000000001
 43
0.0000000001
 40
0.0104939971490206
 40
0.0104939971490206
 40
0.0104939971490206
 40
0.0104939971490206
 40
0.0142445597511555
 40
0.0142445597511555
 40
0.0142445597511555
 40
0.0142445597511555
 10
-44.99996423139244
 20
-3.991506758641923
 30
0.0
 10
-44.9999642314028
 20
-3.991506762456519
 30
0.0
 10
-44.99996564458752
 20
-3.992145425834955
 30
0.0
 10
-44.99996853210451
 20
-3.993400548999152
 30
0.0
  0
SPLINE
  5
C33D
330
C32E
100
AcDbEntity
  8
0
100
AcDbSpline
210
0.0
220
0.0
230
1.0
 70
     8
 71
     3
 72
    10
 73
     6
 74
     0
 42
0.000000001
 43
0.0000000001
 40
0.0
 40
0.0
 40
0.0
 40
0.0
 40
0.0047481067816329
 40
0.0047481067816329
 40
0.0070750474277019
 40
0.0070750474277019
 40
0.0070750474277019
 40
0.0070750474277019
 10
-47.0002319165929
 20
-4.000001404030143
 30
0.0
 10
-47.00031959336394
 20
-3.985704563676485
 30
0.0
 10
-47.0004551533092
 20
-3.971651075500269
 30
0.0
 10
-47.00077703689642
 20
-3.949931787795716
 30
0.0
 10
-47.0009058756776
 20
-3.942470362337048
 30
0.0
 10
-47.00106165578711
 20
-3.934848242042794
 30
0.0
  0
SPLINE
  5
C33E
330
C32E
100
AcDbEntity
  8
0
100
AcDbSpline
210
0.0
220
0.0
230
1.0
 70
     8
 71
     3
 72
    22
 73
    18
 74
     0
 42
0.000000001
 43
0.0000000001
 40
0.0521012219468997
 40
0.0521012219468997
 40
0.0521012219468997
 40
0.0521012219468997
 40
0.0521634737817537
 40
0.0521634737817537
 40
0.0583544656609184
 40
0.0583544656609184
 40
0.067317409422354
 40
0.067317409422354
 40
0.0799077487398674
 40
0.0799077487398674
 40
0.0955108005748534
 40
0.0955108005748534
 40
0.1136299820321289
 40
0.1136299820321289
 40
0.1262142083329109
 40
0.1262142083329109
 40
0.1391761048754528
 40
0.1391761048754528
 40
0.1391761048754528
 40
0.1391761048754528
 10
-48.80707993822103
 20
-2.009326284539376
 30
0.0
 10
-48.8072788402458
 20
-2.009313885701908
 30
0.0
 10
-48.80747780174012
 20
-2.009301502980705
 30
0.0
 10
-48.82746895401729
 20
-2.008059742079655
 30
0.0
 10
-48.84809738853381
 20
-2.007001187342142
 30
0.0
 10
-48.89847331848709
 20
-2.004855710412943
 30
0.0
 10
-48.92865256334346
 20
-2.003940695152958
 30
0.0
 10
-48.99947788874072
 20
-2.002322192064657
 30
0.0
 10
-49.04017284334379
 20
-2.001822881331187
 30
0.0
 10
-49.12585079223913
 20
-2.001106549024269
 30
0.0
 10
-49.16935175771327
 20
-2.000978552366102
 30
0.0
 10
-49.26892939017722
 20
-2.000647296408912
 30
0.0
 10
-49.32628028791485
 20
-2.000447583796988
 30
0.0
 10
-49.4240636275771
 20
-2.000194269560271
 30
0.0
 10
-49.46437539881937
 20
-2.000124494297634
 30
0.0
 10
-49.54305528680087
 20
-2.000044112444818
 30
0.0
 10
-49.58290549616813
 20
-2.000027193199617
 30
0.0
 10
-49.61409315268659
 20
-2.000025836281299
 30
0.0
  0
LINE
  5
C33F
330
C32E
100
AcDbEntity
  8
0
100
AcDbLine
 10
-45.0
 20
-1.999999999999999
 30
0.0
 11
-43.0
 21
-1.999999999999997
 31
0.0
  0
LINE
  5
C340
330
C32E
100
AcDbEntity
  8
0
100
AcDbLine
 10
-44.99999999999999
 20
-86.00000000000001
 30
0.0
 11
-42.99999999999998
 21
-86.00000000000001
 31
0.0
  0
LINE
  5
C341
330
C32E
100
AcDbEntity
  8
0
100
AcDbLine
 10
43.0
 20
-1.999999999999997
 30
0.0
 11
-43.0
 21
-1.999999999999997
 31
0.0
  0
LINE
  5
C342
330
C32E
100
AcDbEntity
  8
0
100
AcDbLine
 10
-42.99999999999998
 20
-86.00000000000001
 30
0.0
 11
42.99999999999997
 21
-86.00000000000001
 31
0.0
  0
CIRCLE
  5
C343
330
C32E
100
AcDbEntity
  8
0
100
AcDbCircle
 10
0.0
 20
-47.99999999999998
 30
0.0
 40
2.5
  0
CIRCLE
  5
C344
330
C32E
100
AcDbEntity
  8
0
100
AcDbCircle
 10
0.0
 20
-67.99999999999998
 30
0.0
 40
2.5
  0
LINE
  5
C345
330
C32E
100
AcDbEntity
  8
0
100
AcDbLine
 10
45.0
 20
-1.999999999999999
 30
0.0
 11
43.0
 21
-1.999999999999997
 31
0.0
  0
LINE
  5
C346
330
C32E
100
AcDbEntity
  8
0
100
AcDbLine
 10
49.0
 20
0.0
 30
0.0
 11
86.5
 21
0.0
 31
0.0
  0
ARC
  5
C347
330
C32E
100
AcDbEntity
  8
0
100
AcDbCircle
 10
49.0
 20
-4.000000000000003
 30
0.0
 40
4.000000000000003
100
AcDbArc
 50
90.0
 51
180.0
  0
LINE
  5
C348
330
C32E
100
AcDbEntity
  8
0
100
AcDbLine
 10
44.99999999999996
 20
-86.00000000000006
 30
0.0
 11
44.99999999999997
 21
-46.00000000000004
 31
0.0
  0
LINE
  5
C349
330
C32E
100
AcDbEntity
  8
0
100
AcDbLine
 10
46.99999999999997
 20
-86.00000000000006
 30
0.0
 11
44.99999999999996
 21
-86.00000000000006
 31
0.0
  0
LINE
  5
C34A
330
C32E
100
AcDbEntity
  8
0
100
AcDbLine
 10
46.99999999999998
 20
-46.00000000000004
 30
0.0
 11
46.99999999999997
 21
-86.00000000000006
 31
0.0
  0
LINE
  5
C34B
330
C32E
100
AcDbEntity
  8
0
100
AcDbLine
 10
44.99999999999997
 20
-46.00000000000001
 30
0.0
 11
46.99999999999998
 21
-46.00000000000001
 31
0.0
  0
LINE
  5
C34C
330
C32E
100
AcDbEntity
  8
0
100
AcDbLine
 10
47.0
 20
-4.000000000000003
 30
0.0
 11
46.99999999999998
 21
-46.00000000000001
 31
0.0
  0
LINE
  5
C34D
330
C32E
100
AcDbEntity
  8
0
100
AcDbLine
 10
44.99999999999997
 20
-46.00000000000001
 30
0.0
 11
45.0
 21
-4.000000000000003
 31
0.0
  0
LINE
  5
C34E
330
C32E
100
AcDbEntity
  8
0
100
AcDbLine
 10
44.99999999999999
 20
-86.00000000000001
 30
0.0
 11
42.99999999999998
 21
-86.00000000000001
 31
0.0
  0
ARC
  5
C34F
330
C32E
100
AcDbEntity
  8
0
100
AcDbCircle
 10
49.0
 20
-4.000000000000003
 30
0.0
 40
2.000000000000001
100
AcDbArc
 50
90.0
 51
180.0
  0
LINE
  5
C350
330
C32E
100
AcDbEntity
  8
0
100
AcDbLine
 10
86.5
 20
0.0
 30
0.0
 11
86.5
 21
-2.00000000000001
 31
0.0
  0
LINE
  5
C351
330
C32E
100
AcDbEntity
  8
0
100
AcDbLine
 10
86.5
 20
-2.00000000000001
 30
0.0
 11
49.0
 21
-2.000000000000001
 31
0.0
  0
LINE
  5
C352
330
C32E
100
AcDbEntity
  8
0
100
AcDbLine
 10
-86.5
 20
-2.00000000000001
 30
0.0
 11
-49.0
 21
-2.000000000000001
 31
0.0
  0
LINE
  5
C353
330
C32E
100
AcDbEntity
  8
0
100
AcDbLine
 10
-44.99999999999997
 20
-46.00000000000001
 30
0.0
 11
-45.0
 21
-4.000000000000003
 31
0.0
  0
LINE
  5
C354
330
C32E
100
AcDbEntity
  8
0
100
AcDbLine
 10
-47.0
 20
-4.000000000000003
 30
0.0
 11
-46.99999999999998
 21
-46.00000000000001
 31
0.0
  0
LINE
  5
C355
330
C32E
100
AcDbEntity
  8
0
100
AcDbLine
 10
-49.0
 20
0.0
 30
0.0
 11
-86.5
 21
0.0
 31
0.0
  0
LINE
  5
C356
330
C32E
100
AcDbEntity
  8
0
100
AcDbLine
 10
-86.5
 20
0.0
 30
0.0
 11
-86.5
 21
-2.00000000000001
 31
0.0
  0
ARC
  5
C357
330
C32E
100
AcDbEntity
  8
0
100
AcDbCircle
 10
-49.0
 20
-4.000000000000003
 30
0.0
 40
2.000000000000001
100
AcDbArc
 50
0.0
 51
90.0
  0
ARC
  5
C358
330
C32E
100
AcDbEntity
  8
0
100
AcDbCircle
 10
-49.0
 20
-4.000000000000003
 30
0.0
 40
4.000000000000003
100
AcDbArc
 50
0.0
 51
90.0
  0
LINE
  5
C359
330
C32E
100
AcDbEntity
  8
0
100
AcDbLine
 10
-44.99999999999997
 20
-46.00000000000004
 30
0.0
 11
-44.99999999999996
 21
-86.00000000000006
 31
0.0
  0
LINE
  5
C35A
330
C32E
100
AcDbEntity
  8
0
100
AcDbLine
 10
-46.99999999999997
 20
-86.00000000000006
 30
0.0
 11
-46.99999999999998
 21
-46.00000000000004
 31
0.0
  0
LINE
  5
C35B
330
C32E
100
AcDbEntity
  8
0
100
AcDbLine
 10
-44.99999999999996
 20
-86.00000000000006
 30
0.0
 11
-46.99999999999997
 21
-86.00000000000006
 31
0.0
  0
LINE
  5
C35C
330
C32E
100
AcDbEntity
  8
0
100
AcDbLine
 10
-46.99999999999998
 20
-46.00000000000001
 30
0.0
 11
-44.99999999999997
 21
-46.00000000000001
 31
0.0
  0
ENDBLK
  5
C330
330
C32E
100
AcDbEntity
  8
0
100
AcDbBlockEnd
  0
BLOCK
  5
C35E
330
C35D
100
AcDbEntity
  8
0
100
AcDbBlockBegin
  2
SAE500_90_2-Bottom
 70
     0
 10
0.0
 20
0.0
 30
0.0
  3
SAE500_90_2-Bottom
  1

  0
SPLINE
  5
C360
330
C35D
100
AcDbEntity
  8
0
100
AcDbSpline
210
0.0
220
0.0
230
1.0
 70
     8
 71
     3
 72
    11
 73
     7
 74
     0
 42
0.000000001
 43
0.0000000001
 40
0.0
 40
0.0
 40
0.0
 40
0.0
 40
0.3318274173334232
 40
0.3318274173334232
 40
0.3318274173334232
 40
1.0
 40
1.0
 40
1.0
 40
1.0
 10
49.66666666666675
 20
2.000000000000008
 30
0.0
 10
49.3537612221505
 20
2.000040446466513
 30
0.0
 10
48.94840688096955
 20
1.99620681345204
 30
0.0
 10
48.5564849069315
 20
1.998525490059508
 30
0.0
 10
47.76730503836853
 20
2.003194411481466
 30
0.0
 10
46.9999939987298
 20
2.000338506737779
 30
0.0
 10
46.9999999991625
 20
1.999999999986104
 30
0.0
  0
LINE
  5
C361
330
C35D
100
AcDbEntity
  8
0
100
AcDbLine
 10
49.0
 20
1.999999999999996
 30
0.0
 11
49.04021603144229
 21
1.999999999999996
 31
0.0
  0
LINE
  5
C362
330
C35D
100
AcDbEntity
  8
0
100
AcDbLine
 10
49.61409315268646
 20
1.999999999999996
 30
0.0
 11
49.66666666666676
 21
1.999999999999996
 31
0.0
  0
ARC
  5
C363
330
C35D
100
AcDbEntity
  8
0
100
AcDbCircle
 10
49.0
 20
4.000000000000003
 30
0.0
 40
2.000000000000001
100
AcDbArc
 50
181.4532021461617
 51
264.2434877893264
  0
ARC
  5
C364
330
C35D
100
AcDbEntity
  8
0
100
AcDbCircle
 10
49.0
 20
4.000000000000003
 30
0.0
 40
2.000000000000001
100
AcDbArc
 50
269.9797287535152
 51
270.0
  0
ARC
  5
C365
330
C35D
100
AcDbEntity
  8
0
100
AcDbCircle
 10
49.0
 20
4.000000000000003
 30
0.0
 40
4.000000000000002
100
AcDbArc
 50
219.5790975380952
 51
270.0
  0
LINE
  5
C366
330
C35D
100
AcDbEntity
  8
0
100
AcDbLine
 10
49.66666666666677
 20
0.0
 30
0.0
 11
49.0
 21
0.0
 31
0.0
  0
SPLINE
  5
C367
330
C35D
100
AcDbEntity
  8
0
100
AcDbSpline
210
0.0
220
0.0
230
1.0
 70
     8
 71
     3
 72
    17
 73
    13
 74
     0
 42
0.000000001
 43
0.0000000001
 40
-1.0
 40
-1.0
 40
-1.0
 40
-1.0
 40
-0.8013492148311593
 40
-0.8013492148311593
 40
-0.8013492148311593
 40
-0.3797519051251502
 40
-0.3797519051251502
 40
-0.3797519051251502
 40
-0.0799947265059264
 40
-0.0799947265059264
 40
-0.0799947265059264
 40
0.0
 40
0.0
 40
0.0
 40
0.0
 10
45.00000000000001
 20
2.000000000000011
 30
0.0
 10
44.99999961282721
 20
1.999251617300576
 30
0.0
 10
45.12461576613081
 20
1.921360205915056
 30
0.0
 10
45.33197761235357
 20
1.794366616541531
 30
0.0
 10
45.77206243974997
 20
1.524847643413476
 30
0.0
 10
46.60514230819806
 20
1.043252102130579
 30
0.0
 10
47.47952029193656
 20
0.649426821739433
 30
0.0
 10
48.10120613152361
 20
0.3694156542078009
 30
0.0
 10
48.73500570563068
 20
0.1286196353640717
 30
0.0
 10
49.26598459948673
 20
0.0375483486756419
 30
0.0
 10
49.40768432988214
 20
0.0132446015402379
 30
0.0
 10
49.53970905965135
 20
0.0000044908431247
 30
0.0
 10
49.66666666669745
 20
0.0000000000625646
 30
0.0
  0
LINE
  5
C368
330
C35D
100
AcDbEntity
  8
0
100
AcDbLine
 10
49.66666666666677
 20
1.999999999999996
 30
0.0
 11
49.66666666666677
 21
0.0
 31
0.0
  0
SPLINE
  5
C369
330
C35D
100
AcDbEntity
  8
0
100
AcDbSpline
210
0.0
220
0.0
230
1.0
 70
     8
 71
     3
 72
    12
 73
     8
 74
     0
 42
0.000000001
 43
0.0000000001
 40
0.0
 40
0.0
 40
0.0
 40
0.0
 40
0.0015662117158077
 40
0.0015662117158077
 40
0.0030356283963595
 40
0.0030356283963595
 40
0.0035040605555962
 40
0.0035040605555962
 40
0.0035040605555962
 40
0.0035040605555962
 10
47.00196232777382
 20
3.898406236108291
 30
0.0
 10
47.00203682953302
 20
3.89598631045243
 30
0.0
 10
47.0021034381501
 20
3.893900826700951
 30
0.0
 10
47.00220405838609
 20
3.890802678994051
 30
0.0
 10
47.00224040749585
 20
3.889712635634714
 30
0.0
 10
47.00226028022221
 20
3.889117473948408
 30
0.0
 10
47.00226292084791
 20
3.889038658033206
 30
0.0
 10
47.00226292084906
 20
3.889038657998765
 30
0.0
  0
SPLINE
  5
C36A
330
C35D
100
AcDbEntity
  8
0
100
AcDbSpline
210
0.0
220
0.0
230
1.0
 70
     8
 71
     3
 72
    32
 73
    28
 74
     0
 42
0.000000001
 43
0.0000000001
 40
0.0197975216369809
 40
0.0197975216369809
 40
0.0197975216369809
 40
0.0197975216369809
 40
0.0206869047707346
 40
0.0206869047707346
 40
0.0214097594435477
 40
0.0214097594435477
 40
0.0218984219715013
 40
0.0218984219715013
 40
0.0222701909651632
 40
0.0222701909651632
 40
0.0224198849630015
 40
0.0224198849630015
 40
0.0226212181777067
 40
0.0226212181777067
 40
0.0228211708764604
 40
0.0228211708764604
 40
0.0230908632573679
 40
0.0230908632573679
 40
0.0235306977934952
 40
0.0235306977934952
 40
0.0243876481504693
 40
0.0243876481504693
 40
0.0264139738506437
 40
0.0264139738506437
 40
0.0324413331291952
 40
0.0324413331291952
 40
0.033401942861046
 40
0.033401942861046
 40
0.033401942861046
 40
0.033401942861046
 10
47.00015575632907
 20
3.985729252799443
 30
0.0
 10
47.00015575640893
 20
3.985729246042153
 30
0.0
 10
47.00016119881765
 20
3.985269048439286
 30
0.0
 10
47.00017095679635
 20
3.984455963112445
 30
0.0
 10
47.00017623574027
 20
3.984017984773498
 30
0.0
 10
47.00018948117592
 20
3.982938714329819
 30
0.0
 10
47.00019602234926
 20
3.982408455346732
 30
0.0
 10
47.00021279471783
 20
3.981076112459127
 30
0.0
 10
47.0002221294787
 20
3.980340469603328
 30
0.0
 10
47.00023950926831
 20
3.979003784318516
 30
0.0
 10
47.00024505110664
 20
3.978580721165838
 30
0.0
 10
47.00025896487949
 20
3.977529195878244
 30
0.0
 10
47.00026782164314
 20
3.976867863427412
 30
0.0
 10
47.000285832532
 20
3.975542266503573
 30
0.0
 10
47.00029513985346
 20
3.974866397267016
 30
0.0
 10
47.00031687164654
 20
3.973309399979395
 30
0.0
 10
47.00032943659099
 20
3.97242533013499
 30
0.0
 10
47.00036209271019
 20
3.970165519177349
 30
0.0
 10
47.00038219479973
 20
3.968812627782702
 30
0.0
 10
47.00044105465191
 20
3.964945940298124
 30
0.0
 10
47.00047985744248
 20
3.96251812244265
 30
0.0
 10
47.00061206557676
 20
3.954578426371043
 30
0.0
 10
47.00070770162233
 20
3.94937079976003
 30
0.0
 10
47.00111438240321
 20
3.928953446018172
 30
0.0
 10
47.0014981693511
 20
3.914030550351772
 30
0.0
 10
47.00186778523531
 20
3.901506226137856
 30
0.0
 10
47.00191663336726
 20
3.899890456991019
 30
0.0
 10
47.00196232777383
 20
3.898406236108291
 30
0.0
  0
SPLINE
  5
C36B
330
C35D
100
AcDbEntity
  8
0
100
AcDbSpline
210
0.0
220
0.0
230
1.0
 70
     8
 71
     3
 72
    30
 73
    26
 74
     0
 42
0.000000001
 43
0.0000000001
 40
0.0394322331302781
 40
0.0394322331302781
 40
0.0394322331302781
 40
0.0394322331302781
 40
0.041389023253935
 40
0.041389023253935
 40
0.0431764041379955
 40
0.0431764041379955
 40
0.0452453884212721
 40
0.0452453884212721
 40
0.048030511958689
 40
0.048030511958689
 40
0.0521634737817943
 40
0.0521634737817943
 40
0.0583544656609509
 40
0.0583544656609509
 40
0.0673174094224049
 40
0.0673174094224049
 40
0.0799077487399442
 40
0.0799077487399442
 40
0.0955108005749408
 40
0.0955108005749408
 40
0.1136299820322704
 40
0.1136299820322704
 40
0.1262142083329681
 40
0.1262142083329681
 40
0.1391761048754319
 40
0.1391761048754319
 40
0.1391761048754319
 40
0.1391761048754319
 10
48.72056543330632
 20
2.016376406661161
 30
0.0
 10
48.72056543421784
 20
2.016376406562278
 30
0.0
 10
48.72172618545143
 20
2.016249903836259
 30
0.0
 10
48.72596706374225
 20
2.015810564645722
 30
0.0
 10
48.72887719813257
 20
2.015515126792432
 30
0.0
 10
48.73635669836183
 20
2.014787403864048
 30
0.0
 10
48.74116991118975
 20
2.014335868076697
 30
0.0
 10
48.75340219705791
 20
2.013246639214682
 30
0.0
 10
48.76124544193432
 20
2.0125898409983
 30
0.0
 10
48.78149108397934
 20
2.011015730836725
 30
0.0
 10
48.79446404648445
 20
2.010109859208912
 30
0.0
 10
48.82746895401779
 20
2.008059742079629
 30
0.0
 10
48.84809738853428
 20
2.007001187342119
 30
0.0
 10
48.89847331848759
 20
2.004855710412925
 30
0.0
 10
48.92865256334403
 20
2.003940695152943
 30
0.0
 10
48.99947788874141
 20
2.002322192064646
 30
0.0
 10
49.04017284334454
 20
2.00182288133118
 30
0.0
 10
49.12585079223993
 20
2.001106549024266
 30
0.0
 10
49.16935175771408
 20
2.000978552366099
 30
0.0
 10
49.26892939017829
 20
2.000647296408909
 30
0.0
 10
49.32628028791612
 20
2.000447583796983
 30
0.0
 10
49.42406362757829
 20
2.000194269560268
 30
0.0
 10
49.46437539882026
 20
2.000124494297634
 30
0.0
 10
49.54305528680125
 20
2.000044112444819
 30
0.0
 10
49.58290549616823
 20
2.000027193199617
 30
0.0
 10
49.61409315268646
 20
2.000025836281298
 30
0.0
  0
SPLINE
  5
C36C
330
C35D
100
AcDbEntity
  8
0
100
AcDbSpline
210
0.0
220
0.0
230
1.0
 70
     8
 71
     3
 72
     8
 73
     4
 74
     0
 42
0.000000001
 43
0.0000000001
 40
0.0
 40
0.0
 40
0.0
 40
0.0
 40
0.0037335417422359
 40
0.0037335417422359
 40
0.0037335417422359
 40
0.0037335417422359
 10
47.00007577876511
 20
3.999999762815696
 30
0.0
 10
47.00005001719241
 20
3.993588595040142
 30
0.0
 10
47.00002374303379
 20
3.986244360463921
 30
0.0
 10
46.99999999999995
 20
3.978688686355731
 30
0.0
  0
SPLINE
  5
C36D
330
C35D
100
AcDbEntity
  8
0
100
AcDbSpline
210
0.0
220
0.0
230
1.0
 70
     8
 71
     3
 72
    10
 73
     6
 74
     0
 42
0.000000001
 43
0.0000000001
 40
0.0144162637166133
 40
0.0144162637166133
 40
0.0144162637166133
 40
0.0144162637166133
 40
0.0176321737628865
 40
0.0176321737628865
 40
0.0186222378965837
 40
0.0186222378965837
 40
0.0186222378965837
 40
0.0186222378965837
 10
47.00005545512759
 20
3.994747567272463
 30
0.0
 10
47.00005843543364
 20
3.994449476268398
 30
0.0
 10
47.00006082421471
 20
3.994215093069702
 30
0.0
 10
47.00006225914842
 20
3.994075214179627
 30
0.0
 10
47.0000624583849
 20
3.994055882626904
 30
0.0
 10
47.00006245838505
 20
3.994055882612637
 30
0.0
  0
SPLINE
  5
C36E
330
C35D
100
AcDbEntity
  8
0
100
AcDbSpline
210
0.0
220
0.0
230
1.0
 70
     8
 71
     3
 72
    22
 73
    18
 74
     0
 42
0.000000001
 43
0.0000000001
 40
0.0
 40
0.0
 40
0.0
 40
0.0
 40
0.0047481278038807
 40
0.0047481278038807
 40
0.0079696664183777
 40
0.0079696664183777
 40
0.0086324537401964
 40
0.0086324537401964
 40
0.009595417241196
 40
0.009595417241196
 40
0.0105555076957228
 40
0.0105555076957228
 40
0.0124867140033711
 40
0.0124867140033711
 40
0.0143949310254988
 40
0.0143949310254988
 40
0.0176513033704884
 40
0.0176513033704884
 40
0.0176513033704884
 40
0.0176513033704884
 10
47.00023191687636
 20
4.000001357808537
 30
0.0
 10
47.00031959414389
 20
3.985704454584124
 30
0.0
 10
47.00045515499589
 20
3.971650905789049
 30
0.0
 10
47.00081774137538
 20
3.947185266641721
 30
0.0
 10
47.0010080844498
 20
3.936706113324428
 30
0.0
 10
47.00130435163295
 20
3.923762896913895
 30
0.0
 10
47.00135737947355
 20
3.921538820871198
 30
0.0
 10
47.00148952478607
 20
3.916211165645644
 30
0.0
 10
47.00157108126835
 20
3.913110711825583
 30
0.0
 10
47.00172467695378
 20
3.907539615284818
 30
0.0
 10
47.00179833203807
 20
3.90500247022229
 30
0.0
 10
47.00200066975949
 20
3.898269005054531
 30
0.0
 10
47.00211475190363
 20
3.894794384445022
 30
0.0
 10
47.0023037541545
 20
3.889237680532809
 30
0.0
 10
47.00238131624595
 20
3.887086495273475
 30
0.0
 10
47.00254805249541
 20
3.882571380520103
 30
0.0
 10
47.00260825590554
 20
3.881086211054589
 30
0.0
 10
47.00260825590452
 20
3.881086211080199
 30
0.0
  0
CIRCLE
  5
C36F
330
C35D
100
AcDbEntity
  8
0
100
AcDbCircle
 10
0.0
 20
67.99999999999998
 30
0.0
 40
2.5
  0
CIRCLE
  5
C370
330
C35D
100
AcDbEntity
  8
0
100
AcDbCircle
 10
0.0
 20
47.99999999999998
 30
0.0
 40
2.5
  0
LINE
  5
C371
330
C35D
100
AcDbEntity
  8
0
100
AcDbLine
 10
43.0
 20
1.999999999999997
 30
0.0
 11
-43.0
 21
1.999999999999997
 31
0.0
  0
LINE
  5
C372
330
C35D
100
AcDbEntity
  8
0
100
AcDbLine
 10
42.99999999999997
 20
86.00000000000001
 30
0.0
 11
-42.99999999999998
 21
86.00000000000001
 31
0.0
  0
SPLINE
  5
C373
330
C35D
100
AcDbEntity
  8
0
100
AcDbSpline
210
0.0
220
0.0
230
1.0
 70
     8
 71
     3
 72
    17
 73
    13
 74
     0
 42
0.000000001
 43
0.0000000001
 40
-1.0
 40
-1.0
 40
-1.0
 40
-1.0
 40
-0.8013492148311593
 40
-0.8013492148311593
 40
-0.8013492148311593
 40
-0.3797519051251502
 40
-0.3797519051251502
 40
-0.3797519051251502
 40
-0.0799947265059264
 40
-0.0799947265059264
 40
-0.0799947265059264
 40
0.0
 40
0.0
 40
0.0
 40
0.0
 10
-45.00000000000001
 20
2.000000000000011
 30
0.0
 10
-44.99999961282721
 20
1.999251617300576
 30
0.0
 10
-45.12461576613081
 20
1.921360205915056
 30
0.0
 10
-45.33197761235357
 20
1.794366616541531
 30
0.0
 10
-45.77206243974997
 20
1.524847643413476
 30
0.0
 10
-46.60514230819806
 20
1.043252102130579
 30
0.0
 10
-47.47952029193656
 20
0.649426821739433
 30
0.0
 10
-48.10120613152361
 20
0.3694156542078009
 30
0.0
 10
-48.73500570563068
 20
0.1286196353640717
 30
0.0
 10
-49.26598459948673
 20
0.0375483486756419
 30
0.0
 10
-49.40768432988214
 20
0.0132446015402379
 30
0.0
 10
-49.53970905965135
 20
0.0000044908431247
 30
0.0
 10
-49.66666666669745
 20
0.0000000000625646
 30
0.0
  0
LINE
  5
C374
330
C35D
100
AcDbEntity
  8
0
100
AcDbLine
 10
-49.0
 20
0.0
 30
0.0
 11
-49.66666666666677
 21
0.0
 31
0.0
  0
ARC
  5
C375
330
C35D
100
AcDbEntity
  8
0
100
AcDbCircle
 10
-49.0
 20
4.000000000000003
 30
0.0
 40
4.000000000000003
100
AcDbArc
 50
270.0
 51
320.4209024619047
  0
ARC
  5
C376
330
C35D
100
AcDbEntity
  8
0
100
AcDbCircle
 10
-49.0
 20
4.000000000000003
 30
0.0
 40
2.000000000000001
100
AcDbArc
 50
270.0
 51
270.0202712464833
  0
ARC
  5
C377
330
C35D
100
AcDbEntity
  8
0
100
AcDbCircle
 10
-49.0
 20
4.000000000000003
 30
0.0
 40
2.000000000000001
100
AcDbArc
 50
275.7565122106726
 51
358.5467978538944
  0
LINE
  5
C378
330
C35D
100
AcDbEntity
  8
0
100
AcDbLine
 10
-49.66666666666676
 20
1.999999999999996
 30
0.0
 11
-49.61409315268639
 21
1.999999999999996
 31
0.0
  0
LINE
  5
C379
330
C35D
100
AcDbEntity
  8
0
100
AcDbLine
 10
-49.04021603144245
 20
1.999999999999996
 30
0.0
 11
-49.0
 21
1.999999999999996
 31
0.0
  0
SPLINE
  5
C37A
330
C35D
100
AcDbEntity
  8
0
100
AcDbSpline
210
0.0
220
0.0
230
1.0
 70
     8
 71
     3
 72
    11
 73
     7
 74
     0
 42
0.000000001
 43
0.0000000001
 40
0.0
 40
0.0
 40
0.0
 40
0.0
 40
0.3318274173334232
 40
0.3318274173334232
 40
0.3318274173334232
 40
1.0
 40
1.0
 40
1.0
 40
1.0
 10
-49.66666666666675
 20
2.000000000000008
 30
0.0
 10
-49.3537612221505
 20
2.000040446466513
 30
0.0
 10
-48.94840688096955
 20
1.99620681345204
 30
0.0
 10
-48.5564849069315
 20
1.998525490059508
 30
0.0
 10
-47.76730503836853
 20
2.003194411481466
 30
0.0
 10
-46.9999939987298
 20
2.000338506737779
 30
0.0
 10
-46.9999999991625
 20
1.999999999986104
 30
0.0
  0
LINE
  5
C37B
330
C35D
100
AcDbEntity
  8
0
100
AcDbLine
 10
-49.66666666666677
 20
0.0
 30
0.0
 11
-49.66666666666677
 21
1.999999999999996
 31
0.0
  0
SPLINE
  5
C37C
330
C35D
100
AcDbEntity
  8
0
100
AcDbSpline
210
0.0
220
0.0
230
1.0
 70
     8
 71
     3
 72
    32
 73
    28
 74
     0
 42
0.000000001
 43
0.0000000001
 40
0.0
 40
0.0
 40
0.0
 40
0.0
 40
0.00372559633568
 40
0.00372559633568
 40
0.0080873264642421
 40
0.0080873264642421
 40
0.0092705128637428
 40
0.0092705128637428
 40
0.0101598946900709
 40
0.0101598946900709
 40
0.0105199473576119
 40
0.0105199473576119
 40
0.0107968346556031
 40
0.0107968346556031
 40
0.0109389209604113
 40
0.0109389209604113
 40
0.0111446539665964
 40
0.0111446539665964
 40
0.0113412949643315
 40
0.0113412949643315
 40
0.0115998338613481
 40
0.0115998338613481
 40
0.0120179308095396
 40
0.0120179308095396
 40
0.0128419377857048
 40
0.0128419377857048
 40
0.0136146711484756
 40
0.0136146711484756
 40
0.0136146711484756
 40
0.0136146711484756
 10
-47.00196232777373
 20
3.89840623611084
 30
0.0
 10
-47.00178510813077
 20
3.904162588247623
 30
0.0
 10
-47.00156191426019
 20
3.911903050483932
 30
0.0
 10
-47.00109622558067
 20
3.930338020467609
 30
0.0
 10
-47.00085672688736
 20
3.941258354260475
 30
0.0
 10
-47.00059372627279
 20
3.955738232908928
 30
0.0
 10
-47.00053903036736
 20
3.958908696718373
 30
0.0
 10
-47.00044462450151
 20
3.964720359709504
 30
0.0
 10
-47.00040439770925
 20
3.967306716972166
 30
0.0
 10
-47.00034726540331
 20
3.971184356203846
 30
0.0
 10
-47.00033056977511
 20
3.972341758971871
 30
0.0
 10
-47.00030107208925
 20
3.974436203309905
 30
0.0
 10
-47.00028801449639
 20
3.975380604329562
 30
0.0
 10
-47.00026926750048
 20
3.976762082573232
 30
0.0
 10
-47.00026302576977
 20
3.977226632323405
 30
0.0
 10
-47.0002486290565
 20
3.978307696806744
 30
0.0
 10
-47.00024072579505
 20
3.978909897902995
 30
0.0
 10
-47.00022742225999
 20
3.979933737698084
 30
0.0
 10
-47.00022176158118
 20
3.98037457651084
 30
0.0
 10
-47.00021042958772
 20
3.981263238746963
 30
0.0
 10
-47.00020518158389
 20
3.981679950937216
 30
0.0
 10
-47.0001934575453
 20
3.982616521211042
 30
0.0
 10
-47.00018808465023
 20
3.983052274706826
 30
0.0
 10
-47.00017473132195
 20
3.984141070371082
 30
0.0
 10
-47.00016913636868
 20
3.984606822294687
 30
0.0
 10
-47.00016018672376
 20
3.985354618308718
 30
0.0
 10
-47.00015575655135
 20
3.98572923399336
 30
0.0
 10
-47.00015575632892
 20
3.985729252813209
 30
0.0
  0
SPLINE
  5
C37D
330
C35D
100
AcDbEntity
  8
0
100
AcDbSpline
210
0.0
220
0.0
230
1.0
 70
     8
 71
     3
 72
    12
 73
     8
 74
     0
 42
0.000000001
 43
0.0000000001
 40
0.029907125645527
 40
0.029907125645527
 40
0.029907125645527
 40
0.029907125645527
 40
0.0304366648274161
 40
0.0304366648274161
 40
0.0319258294767857
 40
0.0319258294767857
 40
0.033411577656274
 40
0.033411577656274
 40
0.033411577656274
 40
0.033411577656274
 10
-47.00226292084888
 20
3.889038658004328
 30
0.0
 10
-47.00226292084948
 20
3.889038657986604
 30
0.0
 10
-47.00225955637042
 20
3.889139061245181
 30
0.0
 10
-47.00223642734089
 20
3.889832160431843
 30
0.0
 10
-47.00219798462348
 20
3.890986499706267
 30
0.0
 10
-47.00209654239867
 20
3.89411689267886
 30
0.0
 10
-47.00203300203314
 20
3.896110633222837
 30
0.0
 10
-47.00196232777373
 20
3.89840623611084
 30
0.0
  0
SPLINE
  5
C37E
330
C35D
100
AcDbEntity
  8
0
100
AcDbSpline
210
0.0
220
0.0
230
1.0
 70
     8
 71
     3
 72
    10
 73
     6
 74
     0
 42
0.000000001
 43
0.0000000001
 40
0.019680040062788
 40
0.019680040062788
 40
0.019680040062788
 40
0.019680040062788
 40
0.0199755393895982
 40
0.0199755393895982
 40
0.0234139292675422
 40
0.0234139292675422
 40
0.0234139292675422
 40
0.0234139292675422
 10
-46.99999999721187
 20
3.978686604852003
 30
0.0
 10
-47.00000187656794
 20
3.979284666666945
 30
0.0
 10
-47.00000377348501
 20
3.979883563071109
 30
0.0
 10
-47.00002787813418
 20
3.987403277073377
 30
0.0
 10
-47.00005205349087
 20
3.994095355000321
 30
0.0
 10
-47.0000757785085
 20
3.999999698965043
 30
0.0
  0
SPLINE
  5
C37F
330
C35D
100
AcDbEntity
  8
0
100
AcDbSpline
210
0.0
220
0.0
230
1.0
 70
     8
 71
     3
 72
     8
 73
     4
 74
     0
 42
0.000000001
 43
0.0000000001
 40
0.0050013581433622
 40
0.0050013581433622
 40
0.0050013581433622
 40
0.0050013581433622
 40
0.009206886506145
 40
0.009206886506145
 40
0.009206886506145
 40
0.009206886506145
 10
-47.00006245838507
 20
3.994055882607026
 30
0.0
 10
-47.00006245835066
 20
3.994055885946741
 30
0.0
 10
-47.00005927367489
 20
3.994365075179902
 30
0.0
 10
-47.00005537596348
 20
3.994754925310768
 30
0.0
  0
SPLINE
  5
C380
330
C35D
100
AcDbEntity
  8
0
100
AcDbSpline
210
0.0
220
0.0
230
1.0
 70
     8
 71
     3
 72
    26
 73
    22
 74
     0
 42
0.000000001
 43
0.0000000001
 40
0.0187580710830538
 40
0.0187580710830538
 40
0.0187580710830538
 40
0.0187580710830538
 40
0.0213377980508726
 40
0.0213377980508726
 40
0.0232599117225533
 40
0.0232599117225533
 40
0.0250966855307701
 40
0.0250966855307701
 40
0.0263310051527293
 40
0.0263310051527293
 40
0.0270251494443778
 40
0.0270251494443778
 40
0.0280228855298139
 40
0.0280228855298139
 40
0.0289536228393364
 40
0.0289536228393364
 40
0.0302236832451383
 40
0.0302236832451383
 40
0.03251000783906
 40
0.03251000783906
 40
0.0364276685505364
 40
0.0364276685505364
 40
0.0364276685505364
 40
0.0364276685505364
 10
-47.0026082559045
 20
3.881086211080866
 30
0.0
 10
-47.00260825589914
 20
3.881086211214853
 30
0.0
 10
-47.00257016382422
 20
3.88203112610563
 30
0.0
 10
-47.00245201910776
 20
3.885159349981608
 30
0.0
 10
-47.00238484809967
 20
3.886973450103566
 30
0.0
 10
-47.0022225296612
 20
3.891595007802388
 30
0.0
 10
-47.00212790611632
 20
3.89437236851877
 30
0.0
 10
-47.00193997703978
 20
3.900290103317686
 30
0.0
 10
-47.00185479356192
 20
3.903066603590021
 30
0.0
 10
-47.00170942073684
 20
3.908101977967701
 30
0.0
 10
-47.00165405750823
 20
3.910076624464634
 30
0.0
 10
-47.00151675227369
 20
3.915163718247791
 30
0.0
 10
-47.00143212477306
 20
3.918465521756077
 30
0.0
 10
-47.00127811973141
 20
3.924856472431297
 30
0.0
 10
-47.00120665975386
 20
3.927998944961201
 30
0.0
 10
-47.00105054733903
 20
3.935272548594616
 30
0.0
 10
-47.00096909230772
 20
3.939408084525316
 30
0.0
 10
-47.00076367832402
 20
3.950709871078804
 30
0.0
 10
-47.00065584836491
 20
3.957742899702345
 30
0.0
 10
-47.00040988322118
 20
3.976561036846
 30
0.0
 10
-47.00030425865619
 20
3.988205087660822
 30
0.0
 10
-47.0002319165929
 20
4.000001404030143
 30
0.0
  0
SPLINE
  5
C381
330
C35D
100
AcDbEntity
  8
0
100
AcDbSpline
210
0.0
220
0.0
230
1.0
 70
     8
 71
     3
 72
    34
 73
    30
 74
     0
 42
0.000000001
 43
0.0000000001
 40
0.0
 40
0.0
 40
0.0
 40
0.0
 40
0.006534279691128
 40
0.006534279691128
 40
0.0152718551568961
 40
0.0152718551568961
 40
0.032019329799633
 40
0.032019329799633
 40
0.0457471446702889
 40
0.0457471446702889
 40
0.0591040363902676
 40
0.0591040363902676
 40
0.0688368645854656
 40
0.0688368645854656
 40
0.0768570127669549
 40
0.0768570127669549
 40
0.0838577259305816
 40
0.0838577259305816
 40
0.0892729264173783
 40
0.0892729264173783
 40
0.0930683684657215
 40
0.0930683684657215
 40
0.0955757822905437
 40
0.0955757822905437
 40
0.0971396980657037
 40
0.0971396980657037
 40
0.0982708138497751
 40
0.0982708138497751
 40
0.0998278077873459
 40
0.0998278077873459
 40
0.0998278077873459
 40
0.0998278077873459
 10
-49.61409315268639
 20
2.000025836281297
 30
0.0
 10
-49.59837100354459
 20
2.000026520323466
 30
0.0
 10
-49.58019964659399
 20
2.000031937881418
 30
0.0
 10
-49.5361780354305
 20
2.000054177804678
 30
0.0
 10
-49.50933573844936
 20
2.000074414145375
 30
0.0
 10
-49.42982312589929
 20
2.000175093408389
 30
0.0
 10
-49.37556578192017
 20
2.00030987000395
 30
0.0
 10
-49.27971681015482
 20
2.000611035122908
 30
0.0
 10
-49.23775356206885
 20
2.000747421721221
 30
0.0
 10
-49.15858816596093
 20
2.001019551296357
 30
0.0
 10
-49.12101720896555
 20
2.001153551974824
 30
0.0
 10
-49.05098356160627
 20
2.001727977794955
 30
0.0
 10
-49.02006503355898
 20
2.002077085250871
 30
0.0
 10
-48.96250789874891
 20
2.003117673788079
 30
0.0
 10
-48.93586274797347
 20
2.003743962033422
 30
0.0
 10
-48.88588447234297
 20
2.005368108463887
 30
0.0
 10
-48.86233140823616
 20
2.006319492663192
 30
0.0
 10
-48.8214965905063
 20
2.008413447020813
 30
0.0
 10
-48.80379536355878
 20
2.00947744626262
 30
0.0
 10
-48.77538682032188
 20
2.011469670289692
 30
0.0
 10
-48.76400852128412
 20
2.0123559845385
 30
0.0
 10
-48.74703152870993
 20
2.013802314207376
 30
0.0
 10
-48.74070877784108
 20
2.014377332906138
 30
0.0
 10
-48.73211112176342
 20
2.015197056826086
 30
0.0
 10
-48.72917942542205
 20
2.015487027832409
 30
0.0
 10
-48.72514029103399
 20
2.015895714644129
 30
0.0
 10
-48.72373942942011
 20
2.0160408211831
 30
0.0
 10
-48.72128829868952
 20
2.0162977137696
 30
0.0
 10
-48.7205654226852
 20
2.016376407813365
 30
0.0
 10
-48.72056543330599
 20
2.016376406661197
 30
0.0
  0
LINE
  5
C382
330
C35D
100
AcDbEntity
  8
0
100
AcDbLine
 10
-47.0
 20
2.000000000000002
 30
0.0
 11
-43.0
 21
1.999999999999997
 31
0.0
  0
LINE
  5
C383
330
C35D
100
AcDbEntity
  8
0
100
AcDbLine
 10
-42.99999999999998
 20
86.00000000000001
 30
0.0
 11
-46.99999999999999
 21
86.00000000000001
 31
0.0
  0
LINE
  5
C384
330
C35D
100
AcDbEntity
  8
0
100
AcDbLine
 10
-46.99999999999999
 20
2.000000000000002
 30
0.0
 11
-46.99999999999999
 21
86.00000000000001
 31
0.0
  0
LINE
  5
C385
330
C35D
100
AcDbEntity
  8
0
100
AcDbLine
 10
47.0
 20
2.000000000000002
 30
0.0
 11
43.0
 21
1.999999999999997
 31
0.0
  0
LINE
  5
C386
330
C35D
100
AcDbEntity
  8
0
100
AcDbLine
 10
46.99999999999999
 20
2.000000000000002
 30
0.0
 11
46.99999999999999
 21
86.00000000000001
 31
0.0
  0
LINE
  5
C387
330
C35D
100
AcDbEntity
  8
0
100
AcDbLine
 10
42.99999999999998
 20
86.00000000000001
 30
0.0
 11
46.99999999999999
 21
86.00000000000001
 31
0.0
  0
LINE
  5
C388
330
C35D
100
AcDbEntity
  8
0
100
AcDbLine
 10
86.50000000000003
 20
0.0
 30
0.0
 11
49.66666666666677
 21
0.0
 31
0.0
  0
LINE
  5
C389
330
C35D
100
AcDbEntity
  8
0
100
AcDbLine
 10
86.50000000000003
 20
2.000000000000001
 30
0.0
 11
86.50000000000003
 21
0.0
 31
0.0
  0
LINE
  5
C38A
330
C35D
100
AcDbEntity
  8
0
100
AcDbLine
 10
49.66666666666676
 20
1.999999999999996
 30
0.0
 11
86.50000000000003
 21
2.000000000000001
 31
0.0
  0
LINE
  5
C38B
330
C35D
100
AcDbEntity
  8
0
100
AcDbLine
 10
-86.50000000000003
 20
2.000000000000001
 30
0.0
 11
-49.66666666666676
 21
1.999999999999996
 31
0.0
  0
LINE
  5
C38C
330
C35D
100
AcDbEntity
  8
0
100
AcDbLine
 10
-86.50000000000003
 20
0.0
 30
0.0
 11
-86.50000000000003
 21
2.000000000000001
 31
0.0
  0
LINE
  5
C38D
330
C35D
100
AcDbEntity
  8
0
100
AcDbLine
 10
-49.66666666666677
 20
0.0
 30
0.0
 11
-86.50000000000003
 21
0.0
 31
0.0
  0
ENDBLK
  5
C35F
330
C35D
100
AcDbEntity
  8
0
100
AcDbBlockEnd
  0
BLOCK
  5
C38F
330
C38E
100
AcDbEntity
  8
0
100
AcDbBlockBegin
  2
SAE500_90_2-ISO
 70
     0
 10
0.0
 20
0.0
 30
0.0
  3
SAE500_90_2-ISO
  1

  0
LINE
  5
C391
330
C38E
100
AcDbEntity
  8
0
100
AcDbLine
 10
61.989317774809
 20
-70.76325450690098
 30
0.0
 11
60.57510421243589
 21
-71.5797510878287
 31
0.0
  0
SPLINE
  5
C392
330
C38E
100
AcDbEntity
  8
0
100
AcDbSpline
210
0.0
220
0.0
230
1.0
 70
     8
 71
     3
 72
    11
 73
     7
 74
     0
 42
0.000000001
 43
0.0000000001
 40
0.0
 40
0.0
 40
0.0
 40
0.0
 40
0.3318274173334232
 40
0.3318274173334232
 40
0.3318274173334232
 40
1.0
 40
1.0
 40
1.0
 40
1.0
 10
63.87493585797316
 20
-69.9127372351013
 30
0.0
 10
63.65364969631479
 20
-69.97246285055843
 30
0.0
 10
63.36973168078345
 20
-69.965247908427
 30
0.0
 10
63.09096144329261
 20
-69.96654591099437
 30
0.0
 10
62.52962558065753
 20
-69.96915958811219
 30
0.0
 10
61.98907417086036
 20
-70.01760677872193
 30
0.0
 10
61.98931777422661
 20
-70.76325450443322
 30
0.0
  0
LINE
  5
C393
330
C38E
100
AcDbEntity
  8
0
100
AcDbLine
 10
63.40353133718209
 20
-69.64057170812535
 30
0.0
 11
63.87493585797319
 21
-69.9127372351013
 31
0.0
  0
ELLIPSE
  5
C394
330
C38E
100
AcDbEntity
  8
0
100
AcDbEllipse
 10
61.989317774809
 20
-70.45706828905308
 30
0.0
 11
2.000000000000001
 21
-0.0000000000001195
 31
0.0
210
0.0
220
0.0
230
1.0
 40
0.5773502691896258
 41
0.7853981633976908
 42
2.356194490192606
  0
LINE
  5
C395
330
C38E
100
AcDbEntity
  8
0
100
AcDbLine
 10
60.57510421243588
 20
-71.5797510878287
 30
0.0
 11
60.57510421243588
 21
-69.64057170812535
 31
0.0
  0
ELLIPSE
  5
C396
330
C38E
100
AcDbEntity
  8
0
100
AcDbEllipse
 10
-17.91374849927086
 20
-94.8499036442689
 30
0.0
 11
-2.5
 21
-0.0000000000001492
 31
0.0
210
0.0
220
0.0
230
1.0
 40
0.5773502691896257
 41
3.742856870268575
 42
5.68192109050012
  0
ELLIPSE
  5
C397
330
C38E
100
AcDbEntity
  8
0
100
AcDbEllipse
 10
-3.771612875539909
 20
-86.68493783499162
 30
0.0
 11
-2.5
 21
-0.0000000000001492
 31
0.0
210
0.0
220
0.0
230
1.0
 40
0.5773502691896257
 41
3.742856870268575
 42
5.68192109050012
  0
LINE
  5
C398
330
C38E
100
AcDbEntity
  8
0
100
AcDbLine
 10
-0.2360789696072185
 20
-119.7530493625645
 30
0.0
 11
-61.04726215165027
 21
-84.64369638267232
 31
0.0
  0
LINE
  5
C399
330
C38E
100
AcDbEntity
  8
0
100
AcDbLine
 10
-3.064506094353385
 20
-33.20441178422559
 30
0.0
 11
-3.06450609435338
 21
-46.2683570790692
 31
0.0
  0
LINE
  5
C39A
330
C38E
100
AcDbEntity
  8
0
100
AcDbLine
 10
27.84616176894424
 20
-65.74763265263065
 30
0.0
 11
-1.650292531980284
 21
-48.71784682185237
 31
0.0
  0
LINE
  5
C39B
330
C38E
100
AcDbEntity
  8
0
100
AcDbLine
 10
-61.04726215165027
 20
-83.01070322081688
 30
0.0
 11
-0.2360789696072185
 21
-118.120056200709
 31
0.0
  0
ELLIPSE
  5
C39C
330
C38E
100
AcDbEntity
  8
0
100
AcDbEllipse
 10
-3.771612875539909
 20
-85.05194467313618
 30
0.0
 11
-2.499999999999999
 21
0.0000000000001493
 31
0.0
210
0.0
220
0.0
230
1.0
 40
0.5773502691896258
 41
0.0
 42
6.283185307179586
  0
ELLIPSE
  5
C39D
330
C38E
100
AcDbEntity
  8
0
100
AcDbEllipse
 10
-17.91374849927086
 20
-93.21691048241342
 30
0.0
 11
-2.499999999999999
 21
0.0000000000001493
 31
0.0
210
0.0
220
0.0
230
1.0
 40
0.5773502691896258
 41
0.0
 42
6.283185307179586
  0
LINE
  5
C39E
330
C38E
100
AcDbEntity
  8
0
100
AcDbLine
 10
-3.064506094353385
 20
-33.20441178422559
 30
0.0
 11
-3.148307713613394
 21
-33.25279467166388
 31
0.0
  0
SPLINE
  5
C39F
330
C38E
100
AcDbEntity
  8
0
100
AcDbSpline
210
0.0
220
0.0
230
1.0
 70
     8
 71
     3
 72
    11
 73
     7
 74
     0
 42
0.000000001
 43
0.0000000001
 40
-1.0
 40
-1.0
 40
-1.0
 40
-1.0
 40
-0.8013492148311593
 40
-0.8013492148311593
 40
-0.8013492148311593
 40
-0.6677757329319427
 40
-0.6677757329319427
 40
-0.6677757329319427
 40
-0.6677757329319427
 10
-3.064506094353394
 20
-33.20441178422557
 30
0.0
 10
-3.06397663409919
 20
-32.81150214066463
 30
0.0
 10
-3.09701601595866
 20
-32.45726596615887
 30
0.0
 10
-3.153844955368891
 20
-32.1236723922791
 30
0.0
 10
-3.192056932750273
 20
-31.89936290785168
 30
0.0
 10
-3.243110321176292
 20
-31.68593122185163
 30
0.0
 10
-3.305839111865265
 20
-31.47999130961984
 30
0.0
  0
ELLIPSE
  5
C3A0
330
C38E
100
AcDbEntity
  8
0
100
AcDbEllipse
 10
-7.307146781472666
 20
-30.44873582359451
 30
0.0
 11
4.000000000000002
 21
0.0000000000000003
 31
0.0
210
0.0
220
0.0
230
1.0
 40
0.5773502691896258
 41
6.08178802714637
 42
6.283185307179586
  0
ELLIPSE
  5
C3A1
330
C38E
100
AcDbEntity
  8
0
100
AcDbEllipse
 10
-7.307146781472666
 20
-30.44873582359451
 30
0.0
 11
4.000000000000002
 21
-0.0000000000000001
 31
0.0
210
0.0
220
0.0
230
1.0
 40
0.5773502691896257
 41
5.497787143782129
 42
6.081788027146371
  0
LINE
  5
C3A2
330
C38E
100
AcDbEntity
  8
0
100
AcDbLine
 10
-4.478719656726468
 20
-32.08172898544997
 30
0.0
 11
-4.478719656726468
 21
-34.02090836515332
 31
0.0
  0
LINE
  5
C3A3
330
C38E
100
AcDbEntity
  8
0
100
AcDbLine
 10
-3.148307713613394
 20
-33.25279467166388
 30
0.0
 11
-4.478719656726481
 21
-34.02090836515331
 31
0.0
  0
SPLINE
  5
C3A4
330
C38E
100
AcDbEntity
  8
0
100
AcDbSpline
210
0.0
220
0.0
230
1.0
 70
     8
 71
     3
 72
    16
 73
    12
 74
     0
 42
0.000000001
 43
0.0000000001
 40
0.0
 40
0.0
 40
0.0
 40
0.0
 40
0.0282630965513593
 40
0.0282630965513593
 40
0.046146700975575
 40
0.046146700975575
 40
0.0689250280455895
 40
0.0689250280455895
 40
0.0923098705798439
 40
0.0923098705798439
 40
0.1012009520462424
 40
0.1012009520462424
 40
0.1012009520462424
 40
0.1012009520462424
 10
-3.319448157664099
 20
-30.62972387310946
 30
0.0
 10
-3.332149413956053
 20
-30.72300873797003
 30
0.0
 10
-3.344025247862338
 20
-30.81797637717662
 30
0.0
 10
-3.356482027442009
 20
-30.96788818268835
 30
0.0
 10
-3.3595891568301
 20
-31.02527831734262
 30
0.0
 10
-3.361248131159007
 20
-31.14703977985353
 30
0.0
 10
-3.358287549560645
 20
-31.20983517805072
 30
0.0
 10
-3.345819876351141
 20
-31.32216571487873
 30
0.0
 10
-3.336342312387192
 20
-31.37271166036114
 30
0.0
 10
-3.318751257320058
 20
-31.44194546693884
 30
0.0
 10
-3.313391335695121
 20
-31.46106136837789
 30
0.0
 10
-3.307421296499089
 20
-31.48061573689326
 30
0.0
  0
ELLIPSE
  5
C3A5
330
C38E
100
AcDbEntity
  8
0
100
AcDbEllipse
 10
-1.650292531980279
 20
-47.08485365999693
 30
0.0
 11
1.000000000000105
 21
-1.732050807568815
 31
0.0
210
0.0
220
0.0
230
1.0
 40
0.5773502691896266
 41
3.926990816986995
 42
5.497787143781893
  0
LINE
  5
C3A6
330
C38E
100
AcDbEntity
  8
0
100
AcDbLine
 10
-1.650292531980284
 20
-48.71784682185237
 30
0.0
 11
-61.04726215165027
 21
-83.01070322081688
 31
0.0
  0
ELLIPSE
  5
C3A7
330
C38E
100
AcDbEntity
  8
0
100
AcDbEllipse
 10
-61.04726215165027
 20
-81.37771005896142
 30
0.0
 11
2.000000000000209
 21
-3.464101615137637
 31
0.0
210
0.0
220
0.0
230
1.0
 40
0.577350269189626
 41
3.926990816986997
 42
5.497787143781892
  0
LINE
  5
C3A8
330
C38E
100
AcDbEntity
  8
0
100
AcDbLine
 10
-62.46147571402336
 20
-80.56121347803371
 30
0.0
 11
-3.064506094353367
 21
-46.2683570790692
 31
0.0
  0
LINE
  5
C3A9
330
C38E
100
AcDbEntity
  8
0
100
AcDbLine
 10
-63.87568927639645
 20
-79.74471689710597
 30
0.0
 11
-62.46147571402336
 21
-80.56121347803371
 31
0.0
  0
LINE
  5
C3AA
330
C38E
100
AcDbEntity
  8
0
100
AcDbLine
 10
-61.04726215165027
 20
-84.64369638267232
 30
0.0
 11
-61.04726215165027
 21
-83.01070322081688
 31
0.0
  0
ELLIPSE
  5
C3AB
330
C38E
100
AcDbEntity
  8
0
100
AcDbEllipse
 10
-61.04726215165027
 20
-81.37771005896142
 30
0.0
 11
1.000000000000104
 21
-1.732050807568818
 31
0.0
210
0.0
220
0.0
230
1.0
 40
0.577350269189626
 41
3.926990816986995
 42
5.497787143781902
  0
LINE
  5
C3AC
330
C38E
100
AcDbEntity
  8
0
100
AcDbLine
 10
61.98931777480898
 20
-83.82719980174458
 30
0.0
 11
61.989317774809
 21
-70.76325450690098
 31
0.0
  0
ELLIPSE
  5
C3AD
330
C38E
100
AcDbEntity
  8
0
100
AcDbEllipse
 10
59.16089065006281
 20
-82.19420663988914
 30
0.0
 11
1.999999999999999
 21
-3.464101615137753
 31
0.0
210
0.0
220
0.0
230
1.0
 40
0.5773502691896252
 41
0.0
 42
0.7853981633974465
  0
LINE
  5
C3AE
330
C38E
100
AcDbEntity
  8
0
100
AcDbLine
 10
-0.2360789696072185
 20
-118.120056200709
 30
0.0
 11
1.178134592765873
 21
-117.3035596197813
 31
0.0
  0
LINE
  5
C3AF
330
C38E
100
AcDbEntity
  8
0
100
AcDbLine
 10
61.98931777480898
 20
-83.82719980174458
 30
0.0
 11
2.592348155138983
 21
-118.120056200709
 31
0.0
  0
ELLIPSE
  5
C3B0
330
C38E
100
AcDbEntity
  8
0
100
AcDbEllipse
 10
-0.2360789696072052
 20
-116.4870630388536
 30
0.0
 11
2.000000000000002
 21
-3.464101615137756
 31
0.0
210
0.0
220
0.0
230
1.0
 40
0.5773502691896258
 41
5.497787143782137
 42
7.068583470577033
  0
LINE
  5
C3B1
330
C38E
100
AcDbEntity
  8
0
100
AcDbLine
 10
89.92003563167763
 20
-62.39416455239183
 30
0.0
 11
91.33424919405072
 21
-61.57766797146409
 31
0.0
  0
LINE
  5
C3B2
330
C38E
100
AcDbEntity
  8
0
100
AcDbLine
 10
63.87493585797319
 20
-69.9127372351013
 30
0.0
 11
89.92003563167763
 21
-62.39416455239183
 31
0.0
  0
ELLIPSE
  5
C3B3
330
C38E
100
AcDbEntity
  8
0
100
AcDbEllipse
 10
77.54566696091304
 20
58.24320527967969
 30
0.0
 11
-3.249999999999998
 21
5.629165124598848
 31
0.0
210
0.0
220
0.0
230
1.0
 40
0.5773502691896257
 41
0.2193254863005959
 42
2.922267167289197
  0
ELLIPSE
  5
C3B4
330
C38E
100
AcDbEntity
  8
0
100
AcDbEllipse
 10
85.32384155396506
 20
57.83495698921583
 30
0.0
 11
1.250000000000128
 21
-2.165063509461021
 31
0.0
210
0.0
220
0.0
230
1.0
 40
0.5773502691896258
 41
3.742856870268601
 42
5.681921090500121
  0
LINE
  5
C3B5
330
C38E
100
AcDbEntity
  8
0
100
AcDbLine
 10
64.81774489955518
 20
81.92160612658373
 30
0.0
 11
91.3342491940507
 21
66.61229523418888
 31
0.0
  0
LINE
  5
C3B6
330
C38E
100
AcDbEntity
  8
0
100
AcDbLine
 10
91.33424919405072
 20
-61.57766797146409
 30
0.0
 11
91.3342491940507
 21
66.61229523418888
 31
0.0
  0
ELLIPSE
  5
C3B7
330
C38E
100
AcDbEntity
  8
0
100
AcDbEllipse
 10
61.989317774809
 20
80.28861296472827
 30
0.0
 11
4.000000000000002
 21
-0.0000000000002387
 31
0.0
210
0.0
220
0.0
230
1.0
 40
0.5773502691896258
 41
0.785398163397689
 42
2.356194490192581
  0
ELLIPSE
  5
C3B8
330
C38E
100
AcDbEntity
  8
0
100
AcDbEllipse
 10
34.76570669912688
 20
55.58959139166455
 30
0.0
 11
1.249999999999871
 21
2.16506350946117
 31
0.0
210
0.0
220
0.0
230
1.0
 40
0.5773502691896259
 41
3.742856870268578
 42
5.681921090500104
  0
ELLIPSE
  5
C3B9
330
C38E
100
AcDbEntity
  8
0
100
AcDbEllipse
 10
36.17992026149997
 20
54.77309481073683
 30
0.0
 11
-1.25
 21
-2.165063509461095
 31
0.0
210
0.0
220
0.0
230
1.0
 40
0.577350269189626
 41
0.0
 42
6.283185307179586
  0
LINE
  5
C3BA
330
C38E
100
AcDbEntity
  8
0
100
AcDbLine
 10
1.178134592765847
 20
-104.2396143249377
 30
0.0
 11
29.46240584022776
 21
-63.41478527855148
 31
0.0
  0
LINE
  5
C3BB
330
C38E
100
AcDbEntity
  8
0
100
AcDbLine
 10
2.592348155138948
 20
-105.0561109058655
 30
0.0
 11
1.178134592765847
 21
-104.2396143249377
 31
0.0
  0
LINE
  5
C3BC
330
C38E
100
AcDbEntity
  8
0
100
AcDbLine
 10
30.87661940260087
 20
-64.2312818594792
 30
0.0
 11
2.592348155138948
 21
-105.0561109058655
 31
0.0
  0
LINE
  5
C3BD
330
C38E
100
AcDbEntity
  8
0
100
AcDbLine
 10
30.87661940260087
 20
-64.2312818594792
 30
0.0
 11
29.46240584022776
 21
-63.41478527855148
 31
0.0
  0
LINE
  5
C3BE
330
C38E
100
AcDbEntity
  8
0
100
AcDbLine
 10
29.46240584022776
 20
-63.41478527855148
 30
0.0
 11
29.46240584022778
 21
64.77517792710148
 31
0.0
  0
LINE
  5
C3BF
330
C38E
100
AcDbEntity
  8
0
100
AcDbLine
 10
30.87661940260088
 20
63.95868134617375
 30
0.0
 11
30.87661940260087
 21
-64.2312818594792
 31
0.0
  0
LINE
  5
C3C0
330
C38E
100
AcDbEntity
  8
0
100
AcDbLine
 10
29.46240584022778
 20
64.77517792710148
 30
0.0
 11
30.87661940260088
 21
63.95868134617375
 31
0.0
  0
LINE
  5
C3C1
330
C38E
100
AcDbEntity
  8
0
100
AcDbLine
 10
2.592348155138948
 20
-105.0561109058655
 30
0.0
 11
2.592348155138988
 21
-118.1200562007091
 31
0.0
  0
LINE
  5
C3C2
330
C38E
100
AcDbEntity
  8
0
100
AcDbLine
 10
60.57510421243588
 20
-69.64057170812535
 30
0.0
 11
60.57510421243589
 21
81.10510954565599
 31
0.0
  0
LINE
  5
C3C3
330
C38E
100
AcDbEntity
  8
0
100
AcDbLine
 10
60.57510421243589
 20
81.10510954565599
 30
0.0
 11
30.87661940260088
 21
63.95868134617375
 31
0.0
  0
LINE
  5
C3C4
330
C38E
100
AcDbEntity
  8
0
100
AcDbLine
 10
29.46240584022778
 20
64.77517792710148
 30
0.0
 11
59.16089065006279
 21
81.92160612658373
 31
0.0
  0
LINE
  5
C3C5
330
C38E
100
AcDbEntity
  8
0
100
AcDbLine
 10
1.178134592765887
 20
-117.3035596197813
 30
0.0
 11
1.178134592765847
 21
-104.2396143249377
 31
0.0
  0
LINE
  5
C3C6
330
C38E
100
AcDbEntity
  8
0
100
AcDbLine
 10
-0.2360789696072185
 20
-118.120056200709
 30
0.0
 11
-0.2360789696072185
 21
-119.7530493625645
 31
0.0
  0
LINE
  5
C3C7
330
C38E
100
AcDbEntity
  8
0
100
AcDbLine
 10
1.178134592765887
 20
-117.3035596197813
 30
0.0
 11
2.592348155138988
 21
-118.120056200709
 31
0.0
  0
ELLIPSE
  5
C3C8
330
C38E
100
AcDbEntity
  8
0
100
AcDbEllipse
 10
-0.2360789696072052
 20
-116.4870630388536
 30
0.0
 11
1.000000000000001
 21
-1.732050807568878
 31
0.0
210
0.0
220
0.0
230
1.0
 40
0.5773502691896258
 41
5.497787143782142
 42
7.068583470577038
  0
LINE
  5
C3C9
330
C38E
100
AcDbEntity
  8
0
100
AcDbLine
 10
63.40353133718209
 20
-69.64057170812535
 30
0.0
 11
63.40353133718209
 21
81.10510954565601
 31
0.0
  0
ELLIPSE
  5
C3CA
330
C38E
100
AcDbEntity
  8
0
100
AcDbEllipse
 10
61.989317774809
 20
80.28861296472827
 30
0.0
 11
-2.000000000000001
 21
-0.0000000000001193
 31
0.0
210
0.0
220
0.0
230
1.0
 40
0.5773502691896258
 41
3.926990816986995
 42
5.497787143781901
  0
LINE
  5
C3CB
330
C38E
100
AcDbEntity
  8
0
100
AcDbLine
 10
91.3342491940507
 20
66.61229523418888
 30
0.0
 11
89.92003563167759
 21
65.79579865326113
 31
0.0
  0
LINE
  5
C3CC
330
C38E
100
AcDbEntity
  8
0
100
AcDbLine
 10
89.92003563167763
 20
-62.39416455239183
 30
0.0
 11
89.92003563167759
 21
65.79579865326114
 31
0.0
  0
LINE
  5
C3CD
330
C38E
100
AcDbEntity
  8
0
100
AcDbLine
 10
60.57510421243589
 20
81.10510954565599
 30
0.0
 11
59.16089065006279
 21
81.92160612658373
 31
0.0
  0
LINE
  5
C3CE
330
C38E
100
AcDbEntity
  8
0
100
AcDbLine
 10
63.40353133718209
 20
81.10510954565599
 30
0.0
 11
64.81774489955518
 21
81.92160612658373
 31
0.0
  0
LINE
  5
C3CF
330
C38E
100
AcDbEntity
  8
0
100
AcDbLine
 10
89.92003563167759
 20
65.79579865326113
 30
0.0
 11
63.40353133718209
 21
81.10510954565599
 31
0.0
  0
ELLIPSE
  5
C3D0
330
C38E
100
AcDbEntity
  8
0
100
AcDbEllipse
 10
76.13145339853994
 20
57.42670869875197
 30
0.0
 11
-3.249999999999999
 21
5.629165124598848
 31
0.0
210
0.0
220
0.0
230
0.9999999999999996
 40
0.5773502691896258
 41
0.0
 42
6.283185307179586
  0
ELLIPSE
  5
C3D1
330
C38E
100
AcDbEntity
  8
0
100
AcDbEllipse
 10
83.90962799159197
 20
57.01846040828811
 30
0.0
 11
-1.25
 21
2.165063509461095
 31
0.0
210
0.0
220
0.0
230
1.0
 40
0.5773502691896258
 41
0.0
 42
6.283185307179586
  0
LINE
  5
C3D2
330
C38E
100
AcDbEntity
  8
0
100
AcDbLine
 10
1.763921030392796
 20
-119.9511646539914
 30
0.0
 11
61.16089065006281
 21
-85.6583082550269
 31
0.0
  0
ELLIPSE
  5
C3D3
330
C38E
100
AcDbEntity
  8
0
100
AcDbEllipse
 10
77.54566696091304
 20
-47.90135024092466
 30
0.0
 11
-3.249999999999998
 21
5.629165124598848
 31
0.0
210
0.0
220
0.0
230
1.0
 40
0.5773502691896257
 41
0.2193254863005959
 42
2.922267167289203
  0
ELLIPSE
  5
C3D4
330
C38E
100
AcDbEntity
  8
0
100
AcDbEllipse
 10
76.13145339853994
 20
-48.71784682185237
 30
0.0
 11
-3.249999999999999
 21
5.629165124598848
 31
0.0
210
0.0
220
0.0
230
0.9999999999999996
 40
0.5773502691896258
 41
0.0
 42
6.283185307179586
  0
ELLIPSE
  5
C3D5
330
C38E
100
AcDbEntity
  8
0
100
AcDbEllipse
 10
77.54566696091304
 20
9.25341042401615
 30
0.0
 11
-3.25
 21
5.62916512459885
 31
0.0
210
0.0
220
0.0
230
0.9999999999999998
 40
0.5773502691896258
 41
0.2193254863005917
 42
2.922267167289202
  0
ELLIPSE
  5
C3D6
330
C38E
100
AcDbEntity
  8
0
100
AcDbEllipse
 10
76.13145339853994
 20
8.436913843088422
 30
0.0
 11
-3.249999999999999
 21
5.629165124598848
 31
0.0
210
0.0
220
0.0
230
0.9999999999999996
 40
0.5773502691896258
 41
0.0
 42
6.283185307179586
  0
ELLIPSE
  5
C3D7
330
C38E
100
AcDbEntity
  8
0
100
AcDbEllipse
 10
69.76749236786101
 20
-55.65806775973805
 30
0.0
 11
1.250000000000128
 21
-2.165063509461021
 31
0.0
210
0.0
220
0.0
230
1.0
 40
0.5773502691896258
 41
3.742856870268582
 42
5.681921090500122
  0
ELLIPSE
  5
C3D8
330
C38E
100
AcDbEntity
  8
0
100
AcDbEllipse
 10
69.76749236786101
 20
-39.32813614118354
 30
0.0
 11
1.250000000000128
 21
-2.165063509461021
 31
0.0
210
0.0
220
0.0
230
1.0
 40
0.5773502691896258
 41
3.74285687026858
 42
5.681921090500122
  0
ELLIPSE
  5
C3D9
330
C38E
100
AcDbEntity
  8
0
100
AcDbEllipse
 10
69.76749236786101
 20
-22.99820452262903
 30
0.0
 11
1.250000000000128
 21
-2.165063509461021
 31
0.0
210
0.0
220
0.0
230
1.0
 40
0.5773502691896258
 41
3.74285687026858
 42
5.681921090500122
  0
ELLIPSE
  5
C3DA
330
C38E
100
AcDbEntity
  8
0
100
AcDbEllipse
 10
69.76749236786101
 20
-6.668272904074497
 30
0.0
 11
1.250000000000128
 21
-2.165063509461021
 31
0.0
210
0.0
220
0.0
230
1.0
 40
0.5773502691896258
 41
3.742856870268578
 42
5.681921090500122
  0
ELLIPSE
  5
C3DB
330
C38E
100
AcDbEntity
  8
0
100
AcDbEllipse
 10
69.76749236786101
 20
9.66165871448001
 30
0.0
 11
1.250000000000128
 21
-2.165063509461021
 31
0.0
210
0.0
220
0.0
230
1.0
 40
0.5773502691896258
 41
3.742856870268578
 42
5.681921090500122
  0
ELLIPSE
  5
C3DC
330
C38E
100
AcDbEntity
  8
0
100
AcDbEllipse
 10
69.76749236786101
 20
25.99159033303453
 30
0.0
 11
1.250000000000128
 21
-2.165063509461021
 31
0.0
210
0.0
220
0.0
230
1.0
 40
0.5773502691896258
 41
3.74285687026858
 42
5.681921090500122
  0
ELLIPSE
  5
C3DD
330
C38E
100
AcDbEntity
  8
0
100
AcDbEllipse
 10
69.76749236786101
 20
42.32152195158905
 30
0.0
 11
1.250000000000128
 21
-2.165063509461021
 31
0.0
210
0.0
220
0.0
230
1.0
 40
0.5773502691896258
 41
3.742856870268582
 42
5.681921090500122
  0
ELLIPSE
  5
C3DE
330
C38E
100
AcDbEntity
  8
0
100
AcDbEllipse
 10
69.76749236786101
 20
58.65145357014357
 30
0.0
 11
1.250000000000128
 21
-2.165063509461021
 31
0.0
210
0.0
220
0.0
230
1.0
 40
0.5773502691896258
 41
3.742856870268585
 42
5.681921090500116
  0
ELLIPSE
  5
C3DF
330
C38E
100
AcDbEntity
  8
0
100
AcDbEllipse
 10
68.35327880548792
 20
-56.47456434066578
 30
0.0
 11
-1.25
 21
2.165063509461095
 31
0.0
210
0.0
220
0.0
230
1.0
 40
0.5773502691896258
 41
0.0
 42
6.283185307179586
  0
ELLIPSE
  5
C3E0
330
C38E
100
AcDbEntity
  8
0
100
AcDbEllipse
 10
68.35327880548792
 20
-40.14463272211125
 30
0.0
 11
-1.25
 21
2.165063509461095
 31
0.0
210
0.0
220
0.0
230
1.0
 40
0.5773502691896258
 41
0.0
 42
6.283185307179586
  0
ELLIPSE
  5
C3E1
330
C38E
100
AcDbEntity
  8
0
100
AcDbEllipse
 10
68.35327880548792
 20
-23.81470110355675
 30
0.0
 11
-1.25
 21
2.165063509461095
 31
0.0
210
0.0
220
0.0
230
1.0
 40
0.5773502691896258
 41
0.0
 42
6.283185307179586
  0
ELLIPSE
  5
C3E2
330
C38E
100
AcDbEntity
  8
0
100
AcDbEllipse
 10
68.35327880548792
 20
-7.484769485002225
 30
0.0
 11
-1.25
 21
2.165063509461095
 31
0.0
210
0.0
220
0.0
230
1.0
 40
0.5773502691896258
 41
0.0
 42
6.283185307179586
  0
ELLIPSE
  5
C3E3
330
C38E
100
AcDbEntity
  8
0
100
AcDbEllipse
 10
68.35327880548792
 20
8.845162133552282
 30
0.0
 11
-1.25
 21
2.165063509461095
 31
0.0
210
0.0
220
0.0
230
1.0
 40
0.5773502691896258
 41
0.0
 42
6.283185307179586
  0
ELLIPSE
  5
C3E4
330
C38E
100
AcDbEntity
  8
0
100
AcDbEllipse
 10
68.35327880548792
 20
25.17509375210679
 30
0.0
 11
-1.25
 21
2.165063509461095
 31
0.0
210
0.0
220
0.0
230
1.0
 40
0.5773502691896258
 41
0.0
 42
6.283185307179586
  0
ELLIPSE
  5
C3E5
330
C38E
100
AcDbEntity
  8
0
100
AcDbEllipse
 10
68.35327880548792
 20
41.50502537066131
 30
0.0
 11
-1.25
 21
2.165063509461095
 31
0.0
210
0.0
220
0.0
230
1.0
 40
0.5773502691896258
 41
0.0
 42
6.283185307179586
  0
ELLIPSE
  5
C3E6
330
C38E
100
AcDbEntity
  8
0
100
AcDbEllipse
 10
68.35327880548792
 20
57.83495698921583
 30
0.0
 11
-1.25
 21
2.165063509461095
 31
0.0
210
0.0
220
0.0
230
1.0
 40
0.5773502691896258
 41
0.0
 42
6.283185307179586
  0
ELLIPSE
  5
C3E7
330
C38E
100
AcDbEntity
  8
0
100
AcDbEllipse
 10
69.76749236786101
 20
74.9813851886981
 30
0.0
 11
1.250000000000128
 21
-2.165063509461021
 31
0.0
210
0.0
220
0.0
230
1.0
 40
0.5773502691896258
 41
3.742856870268585
 42
5.681921090500116
  0
ELLIPSE
  5
C3E8
330
C38E
100
AcDbEntity
  8
0
100
AcDbEllipse
 10
-10.84268068740539
 20
119.888697139723
 30
0.0
 11
1.25
 21
-2.165063509461095
 31
0.0
210
0.0
220
0.0
230
1.0
 40
0.5773502691896259
 41
0.0
 42
6.283185307179586
  0
ELLIPSE
  5
C3E9
330
C38E
100
AcDbEntity
  8
0
100
AcDbEllipse
 10
-9.4284671250323
 20
120.7051937206507
 30
0.0
 11
1.250000000000129
 21
-2.165063509461021
 31
0.0
210
0.0
220
0.0
230
1.0
 40
0.5773502691896259
 41
3.742856870268578
 42
5.68192109050012
  0
ELLIPSE
  5
C3EA
330
C38E
100
AcDbEntity
  8
0
100
AcDbEllipse
 10
68.35327880548792
 20
74.16488860777036
 30
0.0
 11
-1.25
 21
2.165063509461095
 31
0.0
210
0.0
220
0.0
230
1.0
 40
0.5773502691896258
 41
0.0
 42
6.283185307179586
  0
ELLIPSE
  5
C3EB
330
C38E
100
AcDbEntity
  8
0
100
AcDbEllipse
 10
85.32384155396506
 20
-56.47456434066578
 30
0.0
 11
1.250000000000128
 21
-2.165063509461021
 31
0.0
210
0.0
220
0.0
230
1.0
 40
0.5773502691896258
 41
3.742856870268573
 42
5.681921090500111
  0
ELLIPSE
  5
C3EC
330
C38E
100
AcDbEntity
  8
0
100
AcDbEllipse
 10
85.32384155396506
 20
-40.14463272211127
 30
0.0
 11
1.250000000000128
 21
-2.165063509461021
 31
0.0
210
0.0
220
0.0
230
1.0
 40
0.5773502691896258
 41
3.742856870268578
 42
5.681921090500111
  0
ELLIPSE
  5
C3ED
330
C38E
100
AcDbEntity
  8
0
100
AcDbEllipse
 10
85.32384155396506
 20
-23.81470110355675
 30
0.0
 11
1.250000000000128
 21
-2.165063509461021
 31
0.0
210
0.0
220
0.0
230
1.0
 40
0.5773502691896258
 41
3.742856870268578
 42
5.681921090500111
  0
ELLIPSE
  5
C3EE
330
C38E
100
AcDbEntity
  8
0
100
AcDbEllipse
 10
85.32384155396506
 20
-7.484769485002242
 30
0.0
 11
1.250000000000128
 21
-2.165063509461021
 31
0.0
210
0.0
220
0.0
230
1.0
 40
0.5773502691896258
 41
3.742856870268575
 42
5.681921090500111
  0
ELLIPSE
  5
C3EF
330
C38E
100
AcDbEntity
  8
0
100
AcDbEllipse
 10
85.32384155396506
 20
8.845162133552282
 30
0.0
 11
1.250000000000128
 21
-2.165063509461021
 31
0.0
210
0.0
220
0.0
230
1.0
 40
0.5773502691896258
 41
3.742856870268576
 42
5.681921090500111
  0
ELLIPSE
  5
C3F0
330
C38E
100
AcDbEntity
  8
0
100
AcDbEllipse
 10
85.32384155396506
 20
25.17509375210679
 30
0.0
 11
1.250000000000128
 21
-2.165063509461021
 31
0.0
210
0.0
220
0.0
230
1.0
 40
0.5773502691896258
 41
3.742856870268578
 42
5.681921090500111
  0
ELLIPSE
  5
C3F1
330
C38E
100
AcDbEntity
  8
0
100
AcDbEllipse
 10
85.32384155396506
 20
41.50502537066131
 30
0.0
 11
1.250000000000128
 21
-2.165063509461021
 31
0.0
210
0.0
220
0.0
230
1.0
 40
0.5773502691896258
 41
3.742856870268601
 42
5.681921090500122
  0
ELLIPSE
  5
C3F2
330
C38E
100
AcDbEntity
  8
0
100
AcDbEllipse
 10
83.90962799159197
 20
-57.2910609215935
 30
0.0
 11
-1.25
 21
2.165063509461095
 31
0.0
210
0.0
220
0.0
230
1.0
 40
0.5773502691896258
 41
0.0
 42
6.283185307179586
  0
ELLIPSE
  5
C3F3
330
C38E
100
AcDbEntity
  8
0
100
AcDbEllipse
 10
83.90962799159197
 20
-40.96112930303899
 30
0.0
 11
-1.25
 21
2.165063509461095
 31
0.0
210
0.0
220
0.0
230
1.0
 40
0.5773502691896258
 41
0.0
 42
6.283185307179586
  0
ELLIPSE
  5
C3F4
330
C38E
100
AcDbEntity
  8
0
100
AcDbEllipse
 10
83.90962799159197
 20
-24.63119768448447
 30
0.0
 11
-1.25
 21
2.165063509461095
 31
0.0
210
0.0
220
0.0
230
1.0
 40
0.5773502691896258
 41
0.0
 42
6.283185307179586
  0
ELLIPSE
  5
C3F5
330
C38E
100
AcDbEntity
  8
0
100
AcDbEllipse
 10
83.90962799159197
 20
-8.301266065929961
 30
0.0
 11
-1.25
 21
2.165063509461095
 31
0.0
210
0.0
220
0.0
230
1.0
 40
0.5773502691896258
 41
0.0
 42
6.283185307179586
  0
ELLIPSE
  5
C3F6
330
C38E
100
AcDbEntity
  8
0
100
AcDbEllipse
 10
83.90962799159197
 20
8.028665552624563
 30
0.0
 11
-1.25
 21
2.165063509461095
 31
0.0
210
0.0
220
0.0
230
1.0
 40
0.5773502691896258
 41
0.0
 42
6.283185307179586
  0
ELLIPSE
  5
C3F7
330
C38E
100
AcDbEntity
  8
0
100
AcDbEllipse
 10
83.90962799159197
 20
24.35859717117907
 30
0.0
 11
-1.25
 21
2.165063509461095
 31
0.0
210
0.0
220
0.0
230
1.0
 40
0.5773502691896258
 41
0.0
 42
6.283185307179586
  0
ELLIPSE
  5
C3F8
330
C38E
100
AcDbEntity
  8
0
100
AcDbEllipse
 10
83.90962799159197
 20
40.68852878973359
 30
0.0
 11
-1.25
 21
2.165063509461095
 31
0.0
210
0.0
220
0.0
230
1.0
 40
0.5773502691896258
 41
0.0
 42
6.283185307179586
  0
LINE
  5
C3F9
330
C38E
100
AcDbEntity
  8
0
100
AcDbLine
 10
-29.51274222847628
 20
4.05177019129729
 30
0.0
 11
-28.81800132089423
 21
3.048998066273433
 31
0.0
  0
LINE
  5
C3FA
330
C38E
100
AcDbEntity
  8
0
100
AcDbLine
 10
-34.17720446656147
 20
-26.67243913680384
 30
0.0
 11
-62.46147571402336
 21
-67.4972681831901
 31
0.0
  0
LINE
  5
C3FB
330
C38E
100
AcDbEntity
  8
0
100
AcDbLine
 10
-35.59141802893458
 20
-25.85594255587611
 30
0.0
 11
-34.17720446656147
 21
-26.67243913680384
 31
0.0
  0
LINE
  5
C3FC
330
C38E
100
AcDbEntity
  8
0
100
AcDbLine
 10
-63.87568927639648
 20
-66.68077160226238
 30
0.0
 11
-35.59141802893458
 21
-25.85594255587611
 31
0.0
  0
LINE
  5
C3FD
330
C38E
100
AcDbEntity
  8
0
100
AcDbLine
 10
-62.46147571402336
 20
-67.4972681831901
 30
0.0
 11
-63.87568927639648
 21
-66.68077160226238
 31
0.0
  0
LINE
  5
C3FE
330
C38E
100
AcDbEntity
  8
0
100
AcDbLine
 10
-34.17720446656145
 20
101.5175240688491
 30
0.0
 11
-34.17720446656147
 21
-26.67243913680384
 31
0.0
  0
LINE
  5
C3FF
330
C38E
100
AcDbEntity
  8
0
100
AcDbLine
 10
-35.59141802893456
 20
102.3340206497769
 30
0.0
 11
-34.17720446656145
 21
101.5175240688491
 31
0.0
  0
LINE
  5
C400
330
C38E
100
AcDbEntity
  8
0
100
AcDbLine
 10
-35.59141802893458
 20
-25.85594255587611
 30
0.0
 11
-35.59141802893456
 21
102.3340206497768
 31
0.0
  0
ELLIPSE
  5
C401
330
C38E
100
AcDbEntity
  8
0
100
AcDbEllipse
 10
-18.62085528045742
 20
112.1319796209096
 30
0.0
 11
-3.250000000000004
 21
5.629165124598848
 31
0.0
210
0.0
220
0.0
230
1.0
 40
0.5773502691896258
 41
4.71238898038469
 42
7.853981633974483
  0
ELLIPSE
  5
C402
330
C38E
100
AcDbEntity
  8
0
100
AcDbEllipse
 10
-17.20664171808433
 20
112.9484762018373
 30
0.0
 11
-3.250000000000001
 21
5.62916512459885
 31
0.0
210
0.0
220
0.0
230
0.9999999999999998
 40
0.577350269189626
 41
0.2193254863005899
 42
1.570796326794897
  0
ELLIPSE
  5
C403
330
C38E
100
AcDbEntity
  8
0
100
AcDbEllipse
 10
-26.39902987350944
 20
120.7051937206507
 30
0.0
 11
1.25
 21
-2.165063509461095
 31
0.0
210
0.0
220
0.0
230
1.0
 40
0.5773502691896259
 41
0.0
 42
6.283185307179586
  0
ELLIPSE
  5
C404
330
C38E
100
AcDbEntity
  8
0
100
AcDbEllipse
 10
-24.98481631113635
 20
121.5216903015784
 30
0.0
 11
1.250000000000129
 21
-2.165063509461021
 31
0.0
210
0.0
220
0.0
230
1.0
 40
0.5773502691896259
 41
3.742856870268576
 42
5.681921090500117
  0
LINE
  5
C405
330
C38E
100
AcDbEntity
  8
0
100
AcDbLine
 10
-5.892933219099569
 20
119.4804488492591
 30
0.0
 11
-5.892933219099569
 21
121.1134420111145
 31
0.0
  0
ELLIPSE
  5
C406
330
C38E
100
AcDbEntity
  8
0
100
AcDbEllipse
 10
-7.307146781472666
 20
120.2969454301868
 30
0.0
 11
2.000000000000001
 21
0.0
 31
0.0
210
0.0
220
0.0
230
1.0
 40
0.5773502691896257
 41
5.497787143782129
 42
7.068583470577028
  0
LINE
  5
C407
330
C38E
100
AcDbEntity
  8
0
100
AcDbLine
 10
-4.478719656726477
 20
118.6639522683314
 30
0.0
 11
-4.478719656726468
 21
-32.08172898544996
 31
0.0
  0
ELLIPSE
  5
C408
330
C38E
100
AcDbEntity
  8
0
100
AcDbEllipse
 10
-7.307146781472666
 20
120.2969454301868
 30
0.0
 11
4.000000000000003
 21
0.0
 31
0.0
210
0.0
220
0.0
230
1.0
 40
0.5773502691896257
 41
5.497787143782137
 42
7.068583470577034
  0
LINE
  5
C409
330
C38E
100
AcDbEntity
  8
0
100
AcDbLine
 10
-5.892933219099569
 20
121.1134420111145
 30
0.0
 11
-4.478719656726473
 21
121.9299385920423
 31
0.0
  0
LINE
  5
C40A
330
C38E
100
AcDbEntity
  8
0
100
AcDbLine
 10
-5.892933219099569
 20
119.4804488492591
 30
0.0
 11
-4.478719656726477
 21
118.6639522683314
 31
0.0
  0
LINE
  5
C40B
330
C38E
100
AcDbEntity
  8
0
100
AcDbLine
 10
-3.307146781472662
 20
-30.44873582359451
 30
0.0
 11
-3.307146781472662
 21
120.2969454301868
 31
0.0
  0
LINE
  5
C40C
330
C38E
100
AcDbEntity
  8
0
100
AcDbLine
 10
-32.4094375135951
 20
136.4227529035094
 30
0.0
 11
-5.892933219099569
 21
121.1134420111145
 31
0.0
  0
LINE
  5
C40D
330
C38E
100
AcDbEntity
  8
0
100
AcDbLine
 10
-32.40943751359511
 20
104.1711379568643
 30
0.0
 11
-32.4094375135951
 21
136.4227529035094
 31
0.0
  0
LINE
  5
C40E
330
C38E
100
AcDbEntity
  8
0
100
AcDbLine
 10
-62.46147571402336
 20
-80.56121347803371
 30
0.0
 11
-62.46147571402336
 21
-67.4972681831901
 31
0.0
  0
LINE
  5
C40F
330
C38E
100
AcDbEntity
  8
0
100
AcDbLine
 10
-34.17720446656145
 20
101.5175240688491
 30
0.0
 11
-4.478719656726477
 21
118.6639522683314
 31
0.0
  0
LINE
  5
C410
330
C38E
100
AcDbEntity
  8
0
100
AcDbLine
 10
-63.87568927639648
 20
-66.68077160226238
 30
0.0
 11
-63.87568927639645
 21
-79.74471689710597
 31
0.0
  0
LINE
  5
C411
330
C38E
100
AcDbEntity
  8
0
100
AcDbLine
 10
-5.892933219099569
 20
119.4804488492591
 30
0.0
 11
-35.59141802893456
 21
102.3340206497769
 31
0.0
  0
LINE
  5
C412
330
C38E
100
AcDbEntity
  8
0
100
AcDbLine
 10
-4.478719656726473
 20
121.9299385920423
 30
0.0
 11
-30.99522395122201
 21
137.2392494844371
 31
0.0
  0
LINE
  5
C413
330
C38E
100
AcDbEntity
  8
0
100
AcDbLine
 10
-30.99522395122201
 20
137.2392494844371
 30
0.0
 11
-32.4094375135951
 21
136.4227529035094
 31
0.0
  0
ELLIPSE
  5
C414
330
C38E
100
AcDbEntity
  8
0
100
AcDbEllipse
 10
34.76570669912688
 20
-75.04986155677156
 30
0.0
 11
1.249999999999871
 21
2.16506350946117
 31
0.0
210
0.0
220
0.0
230
1.0
 40
0.5773502691896259
 41
3.742856870268578
 42
5.681921090500116
  0
ELLIPSE
  5
C415
330
C38E
100
AcDbEntity
  8
0
100
AcDbEllipse
 10
36.17992026149997
 20
-75.86635813769928
 30
0.0
 11
-1.25
 21
-2.165063509461095
 31
0.0
210
0.0
220
0.0
230
1.0
 40
0.577350269189626
 41
0.0
 42
6.283185307179586
  0
ELLIPSE
  5
C416
330
C38E
100
AcDbEntity
  8
0
100
AcDbEllipse
 10
34.76570669912688
 20
-58.71992993821703
 30
0.0
 11
1.249999999999871
 21
2.16506350946117
 31
0.0
210
0.0
220
0.0
230
1.0
 40
0.5773502691896259
 41
3.742856870268578
 42
5.681921090500118
  0
ELLIPSE
  5
C417
330
C38E
100
AcDbEntity
  8
0
100
AcDbEllipse
 10
36.17992026149997
 20
-59.53642651914477
 30
0.0
 11
-1.25
 21
-2.165063509461095
 31
0.0
210
0.0
220
0.0
230
1.0
 40
0.577350269189626
 41
0.0
 42
6.283185307179586
  0
ELLIPSE
  5
C418
330
C38E
100
AcDbEntity
  8
0
100
AcDbEllipse
 10
34.76570669912688
 20
-42.38999831966252
 30
0.0
 11
1.249999999999871
 21
2.16506350946117
 31
0.0
210
0.0
220
0.0
230
1.0
 40
0.5773502691896259
 41
3.742856870268578
 42
5.681921090500118
  0
ELLIPSE
  5
C419
330
C38E
100
AcDbEntity
  8
0
100
AcDbEllipse
 10
36.17992026149997
 20
-43.20649490059025
 30
0.0
 11
-1.25
 21
-2.165063509461095
 31
0.0
210
0.0
220
0.0
230
1.0
 40
0.577350269189626
 41
0.0
 42
6.283185307179586
  0
ELLIPSE
  5
C41A
330
C38E
100
AcDbEntity
  8
0
100
AcDbEllipse
 10
34.76570669912688
 20
-26.06006670110801
 30
0.0
 11
1.249999999999871
 21
2.16506350946117
 31
0.0
210
0.0
220
0.0
230
1.0
 40
0.5773502691896259
 41
3.742856870268578
 42
5.681921090500118
  0
ELLIPSE
  5
C41B
330
C38E
100
AcDbEntity
  8
0
100
AcDbEllipse
 10
36.17992026149997
 20
-26.87656328203573
 30
0.0
 11
-1.25
 21
-2.165063509461095
 31
0.0
210
0.0
220
0.0
230
1.0
 40
0.577350269189626
 41
0.0
 42
6.283185307179586
  0
ELLIPSE
  5
C41C
330
C38E
100
AcDbEntity
  8
0
100
AcDbEllipse
 10
34.76570669912688
 20
-9.730135082553497
 30
0.0
 11
1.249999999999871
 21
2.16506350946117
 31
0.0
210
0.0
220
0.0
230
1.0
 40
0.5773502691896259
 41
3.742856870268578
 42
5.681921090500118
  0
ELLIPSE
  5
C41D
330
C38E
100
AcDbEntity
  8
0
100
AcDbEllipse
 10
36.17992026149997
 20
-10.54663166348122
 30
0.0
 11
-1.25
 21
-2.165063509461095
 31
0.0
210
0.0
220
0.0
230
1.0
 40
0.577350269189626
 41
0.0
 42
6.283185307179586
  0
ELLIPSE
  5
C41E
330
C38E
100
AcDbEntity
  8
0
100
AcDbEllipse
 10
34.76570669912688
 20
6.599796536001028
 30
0.0
 11
1.249999999999871
 21
2.16506350946117
 31
0.0
210
0.0
220
0.0
230
1.0
 40
0.5773502691896259
 41
3.742856870268578
 42
5.681921090500118
  0
ELLIPSE
  5
C41F
330
C38E
100
AcDbEntity
  8
0
100
AcDbEllipse
 10
36.17992026149997
 20
5.783299955073299
 30
0.0
 11
-1.25
 21
-2.165063509461095
 31
0.0
210
0.0
220
0.0
230
1.0
 40
0.577350269189626
 41
0.0
 42
6.283185307179586
  0
ELLIPSE
  5
C420
330
C38E
100
AcDbEntity
  8
0
100
AcDbEllipse
 10
34.76570669912688
 20
22.92972815455554
 30
0.0
 11
1.249999999999871
 21
2.16506350946117
 31
0.0
210
0.0
220
0.0
230
1.0
 40
0.5773502691896259
 41
3.742856870268578
 42
5.681921090500118
  0
ELLIPSE
  5
C421
330
C38E
100
AcDbEntity
  8
0
100
AcDbEllipse
 10
36.17992026149997
 20
22.11323157362781
 30
0.0
 11
-1.25
 21
-2.165063509461095
 31
0.0
210
0.0
220
0.0
230
1.0
 40
0.577350269189626
 41
0.0
 42
6.283185307179586
  0
ELLIPSE
  5
C422
330
C38E
100
AcDbEntity
  8
0
100
AcDbEllipse
 10
34.76570669912688
 20
39.25965977311007
 30
0.0
 11
1.249999999999871
 21
2.16506350946117
 31
0.0
210
0.0
220
0.0
230
1.0
 40
0.5773502691896259
 41
3.742856870268578
 42
5.681921090500104
  0
ELLIPSE
  5
C423
330
C38E
100
AcDbEntity
  8
0
100
AcDbEllipse
 10
36.17992026149997
 20
38.44316319218233
 30
0.0
 11
-1.25
 21
-2.165063509461095
 31
0.0
210
0.0
220
0.0
230
1.0
 40
0.577350269189626
 41
0.0
 42
6.283185307179586
  0
ELLIPSE
  5
C424
330
C38E
100
AcDbEntity
  8
0
100
AcDbEllipse
 10
-30.28811717003545
 20
-29.32605302481891
 30
0.0
 11
1.24999999999987
 21
2.16506350946117
 31
0.0
210
0.0
220
0.0
230
0.9999999999999998
 40
0.5773502691896258
 41
3.742856870268578
 42
5.681921090500116
  0
ELLIPSE
  5
C425
330
C38E
100
AcDbEntity
  8
0
100
AcDbEllipse
 10
-28.87390360766236
 20
-30.14254960574663
 30
0.0
 11
1.249999999999999
 21
2.165063509461096
 31
0.0
210
0.0
220
0.0
230
1.0
 40
0.5773502691896258
 41
0.0
 42
6.283185307179586
  0
ELLIPSE
  5
C426
330
C38E
100
AcDbEntity
  8
0
100
AcDbEllipse
 10
-30.28811717003545
 20
-12.99612140626438
 30
0.0
 11
1.24999999999987
 21
2.16506350946117
 31
0.0
210
0.0
220
0.0
230
0.9999999999999998
 40
0.5773502691896258
 41
3.742856870268578
 42
5.681921090500114
  0
ELLIPSE
  5
C427
330
C38E
100
AcDbEntity
  8
0
100
AcDbEllipse
 10
-28.87390360766236
 20
-13.81261798719211
 30
0.0
 11
1.249999999999999
 21
2.165063509461096
 31
0.0
210
0.0
220
0.0
230
1.0
 40
0.5773502691896258
 41
0.0
 42
6.283185307179586
  0
ELLIPSE
  5
C428
330
C38E
100
AcDbEntity
  8
0
100
AcDbEllipse
 10
-30.28811717003545
 20
3.333810212290124
 30
0.0
 11
1.24999999999987
 21
2.16506350946117
 31
0.0
210
0.0
220
0.0
230
0.9999999999999998
 40
0.5773502691896258
 41
3.742856870268578
 42
5.681921090500111
  0
ELLIPSE
  5
C429
330
C38E
100
AcDbEntity
  8
0
100
AcDbEllipse
 10
-28.87390360766236
 20
2.517313631362405
 30
0.0
 11
1.249999999999999
 21
2.165063509461096
 31
0.0
210
0.0
220
0.0
230
1.0
 40
0.5773502691896258
 41
0.0
 42
6.283185307179586
  0
ELLIPSE
  5
C42A
330
C38E
100
AcDbEntity
  8
0
100
AcDbEllipse
 10
-30.28811717003545
 20
19.66374183084465
 30
0.0
 11
1.24999999999987
 21
2.16506350946117
 31
0.0
210
0.0
220
0.0
230
0.9999999999999998
 40
0.5773502691896258
 41
3.742856870268578
 42
5.681921090500118
  0
ELLIPSE
  5
C42B
330
C38E
100
AcDbEntity
  8
0
100
AcDbEllipse
 10
-28.87390360766236
 20
18.84724524991693
 30
0.0
 11
1.249999999999999
 21
2.165063509461096
 31
0.0
210
0.0
220
0.0
230
1.0
 40
0.5773502691896258
 41
0.0
 42
6.283185307179586
  0
ELLIPSE
  5
C42C
330
C38E
100
AcDbEntity
  8
0
100
AcDbEllipse
 10
-30.28811717003545
 20
35.99367344939916
 30
0.0
 11
1.24999999999987
 21
2.16506350946117
 31
0.0
210
0.0
220
0.0
230
0.9999999999999998
 40
0.5773502691896258
 41
3.742856870268578
 42
5.681921090500118
  0
ELLIPSE
  5
C42D
330
C38E
100
AcDbEntity
  8
0
100
AcDbEllipse
 10
-28.87390360766236
 20
35.17717686847144
 30
0.0
 11
1.249999999999999
 21
2.165063509461096
 31
0.0
210
0.0
220
0.0
230
1.0
 40
0.5773502691896258
 41
0.0
 42
6.283185307179586
  0
ELLIPSE
  5
C42E
330
C38E
100
AcDbEntity
  8
0
100
AcDbEllipse
 10
-30.28811717003545
 20
52.32360506795366
 30
0.0
 11
1.24999999999987
 21
2.16506350946117
 31
0.0
210
0.0
220
0.0
230
0.9999999999999998
 40
0.5773502691896258
 41
3.742856870268578
 42
5.681921090500118
  0
ELLIPSE
  5
C42F
330
C38E
100
AcDbEntity
  8
0
100
AcDbEllipse
 10
-28.87390360766236
 20
51.50710848702594
 30
0.0
 11
1.249999999999999
 21
2.165063509461096
 31
0.0
210
0.0
220
0.0
230
1.0
 40
0.5773502691896258
 41
0.0
 42
6.283185307179586
  0
ELLIPSE
  5
C430
330
C38E
100
AcDbEntity
  8
0
100
AcDbEllipse
 10
-30.28811717003545
 20
68.65353668650818
 30
0.0
 11
1.24999999999987
 21
2.16506350946117
 31
0.0
210
0.0
220
0.0
230
0.9999999999999998
 40
0.5773502691896258
 41
3.742856870268578
 42
5.681921090500118
  0
ELLIPSE
  5
C431
330
C38E
100
AcDbEntity
  8
0
100
AcDbEllipse
 10
-28.87390360766236
 20
67.83704010558047
 30
0.0
 11
1.249999999999999
 21
2.165063509461096
 31
0.0
210
0.0
220
0.0
230
1.0
 40
0.5773502691896258
 41
0.0
 42
6.283185307179586
  0
ELLIPSE
  5
C432
330
C38E
100
AcDbEntity
  8
0
100
AcDbEllipse
 10
-30.28811717003545
 20
84.98346830506271
 30
0.0
 11
1.24999999999987
 21
2.16506350946117
 31
0.0
210
0.0
220
0.0
230
0.9999999999999998
 40
0.5773502691896258
 41
3.74285687026858
 42
5.681921090500104
  0
ELLIPSE
  5
C433
330
C38E
100
AcDbEntity
  8
0
100
AcDbEllipse
 10
-28.87390360766236
 20
84.16697172413499
 30
0.0
 11
1.249999999999999
 21
2.165063509461096
 31
0.0
210
0.0
220
0.0
230
1.0
 40
0.5773502691896258
 41
0.0
 42
6.283185307179586
  0
ELLIPSE
  5
C434
330
C38E
100
AcDbEntity
  8
0
100
AcDbEllipse
 10
-30.28811717003545
 20
101.3133999236172
 30
0.0
 11
1.24999999999987
 21
2.16506350946117
 31
0.0
210
0.0
220
0.0
230
0.9999999999999998
 40
0.5773502691896258
 41
3.74285687026858
 42
5.681921090500104
  0
ELLIPSE
  5
C435
330
C38E
100
AcDbEntity
  8
0
100
AcDbEllipse
 10
-28.87390360766236
 20
100.4969033426895
 30
0.0
 11
1.249999999999999
 21
2.165063509461096
 31
0.0
210
0.0
220
0.0
230
1.0
 40
0.5773502691896258
 41
0.0
 42
6.283185307179586
  0
ENDBLK
  5
C390
330
C38E
100
AcDbEntity
  8
0
100
AcDbBlockEnd
  0
ENDSEC
  0
SECTION
  2
ENTITIES
  0
INSERT
  5
C436
330
1F
100
AcDbEntity
  8
0
100
AcDbBlockReference
  2
SAE500_90_2-Front
 10
0.0
 20
0.0
 30
0.0
  0
INSERT
  5
C437
330
1F
100
AcDbEntity
  8
0
100
AcDbBlockReference
  2
SAE500_90_2-Left
 10
148.6
 20
0.0
 30
0.0
  0
INSERT
  5
C438
330
1F
100
AcDbEntity
  8
0
100
AcDbBlockReference
  2
SAE500_90_2-Right
 10
-148.6
 20
0.0
 30
0.0
  0
INSERT
  5
C439
330
1F
100
AcDbEntity
  8
0
100
AcDbBlockReference
  2
SAE500_90_2-Top
 10
0.0
 20
-64.10000000000001
 30
0.0
  0
INSERT
  5
C43A
330
1F
100
AcDbEntity
  8
0
100
AcDbBlockReference
  2
SAE500_90_2-Bottom
 10
0.0
 20
267.1
 30
0.0
  0
INSERT
  5
C43B
330
1F
100
AcDbEntity
  8
0
100
AcDbBlockReference
  2
SAE500_90_2-ISO
 10
212.4756892763966
 20
-201.3392494844371
 30
0.0
  0
MTEXT
  5
C43C
330
1F
100
AcDbEntity
  8
0
100
AcDbMText
 10
0.0
 20
-212.2000000000001
 30
0.0
 40
18.575
 41
0.0
 71
     5
 72
     5
  1
SAE500/90/2
 73
     1
 44
1.0
1001
ACAD
1000
MTEXTBEGIN
1070
    73
1070
     1
1070
    44
1040
1.0
1070
    74
1070
     0
1000
MTEXTEND
  0
ENDSEC
  0
SECTION
  2
OBJECTS
  0
DICTIONARY
  5
C
330
0
100
AcDbDictionary
281
     1
  3
ACAD_CIP_PREVIOUS_PRODUCT_INFO
350
216
  3
ACAD_COLOR
350
6B
  3
ACAD_DETAILVIEWSTYLE
350
21B
  3
ACAD_GROUP
350
D
  3
ACAD_LAYOUT
350
1A
  3
ACAD_MATERIAL
350
6A
  3
ACAD_MLEADERSTYLE
350
12D
  3
ACAD_MLINESTYLE
350
17
  3
ACAD_PLOTSETTINGS
350
19
  3
ACAD_PLOTSTYLENAME
350
E
  3
ACAD_SCALELIST
350
10C
  3
ACAD_SECTIONVIEWSTYLE
350
219
  3
ACAD_TABLESTYLE
350
7E
  3
ACAD_VISUALSTYLE
350
EF
  3
ACDB_RECOMPOSE_DATA
350
C53D
  3
AcDbVariableDictionary
350
5E
  3
DWGPROPS
350
C53E
  0
DICTIONARY
  5
C48D
330
8
100
AcDbDictionary
280
     1
281
     1
  0
DICTIONARY
  5
1FF
330
2
100
AcDbDictionary
280
     1
281
     1
  3
ACAD_LAYERSTATES
360
200
  0
DICTIONARY
  5
13C
330
10
100
AcDbDictionary
280
     1
281
     1
  0
DICTIONARY
  5
1CE
330
1F
100
AcDbDictionary
280
     1
281
     1
  3
ACAD_LAYOUTSELFREF
360
C495
  0
DICTIONARY
  5
C440
330
D2
100
AcDbDictionary
280
     1
281
     1
  3
ACAD_LAYOUTSELFREF
360
C49E
  0
DICTIONARY
  5
C442
330
D6
100
AcDbDictionary
280
     1
281
     1
  3
ACAD_LAYOUTSELFREF
360
C4A1
  0
XRECORD
  5
216
102
{ACAD_REACTORS
330
C
102
}
330
C
100
AcDbXrecord
280
     1
300
ACD
300
2021
300
87393ACD_2021_0F
  0
DICTIONARY
  5
6B
102
{ACAD_REACTORS
330
C
102
}
330
C
100
AcDbDictionary
281
     1
  0
DICTIONARY
  5
21B
102
{ACAD_REACTORS
330
C
102
}
330
C
100
AcDbDictionary
281
     1
  3
Metric50
350
21C
  0
DICTIONARY
  5
D
102
{ACAD_REACTORS
330
C
102
}
330
C
100
AcDbDictionary
281
     1
  0
DICTIONARY
  5
1A
102
{ACAD_REACTORS
330
C
102
}
330
C
100
AcDbDictionary
281
     1
  3
Layout1
350
D3
  3
Layout2
350
D7
  3
Model
350
22
  0
DICTIONARY
  5
6A
102
{ACAD_REACTORS
330
C
102
}
330
C
100
AcDbDictionary
281
     1
  3
ByBlock
350
ED
  3
ByLayer
350
EC
  3
Global
350
EE
  0
DICTIONARY
  5
12D
102
{ACAD_REACTORS
330
C
102
}
330
C
100
AcDbDictionary
281
     1
  3
Standard
350
12E
  0
DICTIONARY
  5
17
102
{ACAD_REACTORS
330
C
102
}
330
C
100
AcDbDictionary
281
     1
  3
Standard
350
18
  0
DICTIONARY
  5
19
102
{ACAD_REACTORS
330
C
102
}
330
C
100
AcDbDictionary
281
     1
  0
ACDBDICTIONARYWDFLT
  5
E
102
{ACAD_REACTORS
330
C
102
}
330
C
100
AcDbDictionary
281
     1
  3
Normal
350
F
100
AcDbDictionaryWithDefault
340
F
  0
DICTIONARY
  5
10C
102
{ACAD_REACTORS
330
C
102
}
330
C
100
AcDbDictionary
281
     1
  3
A0
350
10D
  3
A1
350
1BE
  3
A2
350
1BF
  3
A3
350
1C0
  3
A4
350
1C1
  3
A5
350
1C2
  3
A6
350
1C3
  3
A7
350
1C4
  3
A8
350
1C5
  3
A9
350
1C6
  3
B0
350
1C7
  3
B1
350
1C8
  3
B2
350
1C9
  3
B3
350
1CA
  3
B4
350
1CB
  3
B5
350
1CC
  3
B6
350
1CD
  0
DICTIONARY
  5
219
102
{ACAD_REACTORS
330
C
102
}
330
C
100
AcDbDictionary
281
     1
  3
Metric50
350
21A
  0
DICTIONARY
  5
7E
102
{ACAD_REACTORS
330
C
102
}
330
C
100
AcDbDictionary
281
     1
  3
Standard
350
7F
  0
DICTIONARY
  5
EF
102
{ACAD_REACTORS
330
C
102
}
330
C
100
AcDbDictionary
281
     1
  3
2dWireframe
350
F5
  3
Basic
350
F4
  3
Brighten
350
FB
  3
ColorChange
350
FF
  3
Conceptual
350
F8
  3
Dim
350
FA
  3
EdgeColorOff
350
1E6
  3
Facepattern
350
FE
  3
Flat
350
F0
  3
FlatWithEdges
350
F1
  3
Gouraud
350
F2
  3
GouraudWithEdges
350
F3
  3
Hidden
350
F7
  3
JitterOff
350
1E4
  3
Linepattern
350
FD
  3
OverhangOff
350
1E5
  3
Realistic
350
F9
  3
Shaded
350
1F3
  3
Shaded with edges
350
1F2
  3
Shades of Gray
350
1EF
  3
Sketchy
350
1F0
  3
Thicken
350
FC
  3
Wireframe
350
F6
  3
X-Ray
350
1F1
  0
XRECORD
  5
C53D
102
{ACAD_REACTORS
330
C
102
}
330
C
100
AcDbXrecord
280
     1
 90
        1
330
7F
  0
DICTIONARY
  5
5E
102
{ACAD_REACTORS
330
C
102
}
330
C
100
AcDbDictionary
281
     1
  3
CANNOSCALE
350
146
  3
CENTEREXE
350
259
  3
CENTERLTYPEFILE
350
25A
  3
CMLEADERSTYLE
350
145
  3
CTABLESTYLE
350
84
  3
CVIEWDETAILSTYLE
350
227
  3
CVIEWSECTIONSTYLE
350
228
  3
DIMASSOC
350
5F
  3
HIDETEXT
350
63
  3
INDEXCTL
350
C4EA
  3
LAYEREVAL
350
1AE
  3
LAYERNOTIFY
350
1AF
  3
LIGHTINGUNITS
350
C4E8
  3
MSLTSCALE
350
C4E7
  3
PSOLHEIGHT
350
C53A
  3
PSOLWIDTH
350
C539
  3
SORTENTS
350
C4E9
  3
XCLIPFRAME
350
C53B
  0
XRECORD
  5
C53E
102
{ACAD_REACTORS
330
C
102
}
330
C
100
AcDbXrecord
280
     1
  1
DWGPROPS COOKIE
  2

  3

  4

  6

  7

  8
truole
  9

300
=
301
=
302
=
303
=
304
=
305
=
306
=
307
=
308
=
309
=
 40
0.0081481481481481
 41
2460398.356956019
 42
2460398.376365741
  1

 90
        0
  0
DICTIONARY
  5
200
102
{ACAD_REACTORS
330
1FF
102
}
330
1FF
100
AcDbDictionary
281
     1
  0
XRECORD
  5
C495
102
{ACAD_REACTORS
330
1CE
102
}
330
1CE
100
AcDbXrecord
280
     1
340
1F
  0
XRECORD
  5
C49E
102
{ACAD_REACTORS
330
C440
102
}
330
C440
100
AcDbXrecord
280
     1
340
D2
  0
XRECORD
  5
C4A1
102
{ACAD_REACTORS
330
C442
102
}
330
C442
100
AcDbXrecord
280
     1
340
D6
  0
ACDBDETAILVIEWSTYLE
  5
21C
102
{ACAD_XDICTIONARY
360
C57D
102
}
102
{ACAD_REACTORS
330
21B
102
}
330
21B
100
AcDbModelDocViewStyle
 70
     0
  3
Metric50
290
     0
100
AcDbDetailViewStyle
 70
     0
 71
     0
 90
        3
 71
     1
340
11
 40
5.0
340
0
 40
5.0
300

 40
0.0
280
     1
 71
     2
340
16
 90
       25
 71
     3
340
11
 40
5.0
 90
        0
 40
15.0
 90
        1
300
%<\AcVar ViewDetailId>% (%<\AcVar ViewScale \f "%sn">%)
 71
     4
340
16
 90
       25
340
16
 90
       25
280
     0
  0
LAYOUT
  5
D3
102
{ACAD_XDICTIONARY
360
C542
102
}
102
{ACAD_REACTORS
330
1A
102
}
330
1A
100
AcDbPlotSettings
  1

  2
C:\Documents and Settings\basas\Application Data\Autodesk\AutoCAD 2005\R16.1\enu\plotters\Default Windows System Printer.pc3
  4

  6

 40
0.0
 41
0.0
 42
0.0
 43
0.0
 44
0.0
 45
0.0
 46
0.0
 47
0.0
 48
0.0
 49
0.0
140
0.0
141
0.0
142
1.0
143
1.0
 70
   688
 72
     0
 73
     0
 74
     5
  7

 75
    16
147
1.0
148
0.0
149
0.0
100
AcDbLayout
  1
Layout1
 70
     1
 71
     1
 10
0.0
 20
0.0
 11
12.0
 21
9.0
 12
0.0
 22
0.0
 32
0.0
 14
0.0
 24
0.0
 34
0.0
 15
0.0
 25
0.0
 35
0.0
146
0.0
 13
0.0
 23
0.0
 33
0.0
 16
1.0
 26
0.0
 36
0.0
 17
0.0
 27
1.0
 37
0.0
 76
     0
330
D2
  0
LAYOUT
  5
D7
102
{ACAD_XDICTIONARY
360
C544
102
}
102
{ACAD_REACTORS
330
1A
102
}
330
1A
100
AcDbPlotSettings
  1

  2
C:\Documents and Settings\basas\Application Data\Autodesk\AutoCAD 2005\R16.1\enu\plotters\Default Windows System Printer.pc3
  4

  6

 40
0.0
 41
0.0
 42
0.0
 43
0.0
 44
0.0
 45
0.0
 46
0.0
 47
0.0
 48
0.0
 49
0.0
140
0.0
141
0.0
142
1.0
143
1.0
 70
   688
 72
     0
 73
     0
 74
     5
  7

 75
    16
147
1.0
148
0.0
149
0.0
100
AcDbLayout
  1
Layout2
 70
     1
 71
     2
 10
0.0
 20
0.0
 11
12.0
 21
9.0
 12
0.0
 22
0.0
 32
0.0
 14
0.0
 24
0.0
 34
0.0
 15
0.0
 25
0.0
 35
0.0
146
0.0
 13
0.0
 23
0.0
 33
0.0
 16
1.0
 26
0.0
 36
0.0
 17
0.0
 27
1.0
 37
0.0
 76
     0
330
D6
  0
LAYOUT
  5
22
102
{ACAD_XDICTIONARY
360
C53F
102
}
102
{ACAD_REACTORS
330
1A
102
}
330
1A
100
AcDbPlotSettings
  1

  2
none_device
  4
ISO_A4_(210.00_x_297.00_MM)
  6

 40
7.5
 41
20.0
 42
7.5
 43
20.0
 44
210.0
 45
297.0
 46
11.54999923706054
 47
-13.65000009536743
 48
0.0
 49
0.0
140
0.0
141
0.0
142
1.0
143
8.704084754739808
 70
 11952
 72
     1
 73
     0
 74
     0
  7

 75
     0
147
0.1148885871608098
148
0.0
149
0.0
100
AcDbLayout
  1
Model
 70
     1
 71
     0
 10
0.0
 20
0.0
 11
12.0
 21
9.0
 12
0.0
 22
0.0
 32
0.0
 14
0.0
 24
0.0
 34
0.0
 15
0.0
 25
0.0
 35
0.0
146
0.0
 13
0.0
 23
0.0
 33
0.0
 16
1.0
 26
0.0
 36
0.0
 17
0.0
 27
1.0
 37
0.0
 76
     0
330
1F
331
EA
1001
ACAD_PSEXT
1000
None
1000
None
1000
Not applicable
1000
The layout will not be plotted unless a new plotter configuration name is selected.
1070
     0
  0
MATERIAL
  5
ED
102
{ACAD_XDICTIONARY
360
1F9
102
}
102
{ACAD_REACTORS
330
6A
102
}
330
6A
100
AcDbMaterial
  1
ByBlock
  0
MATERIAL
  5
EC
102
{ACAD_XDICTIONARY
360
1F7
102
}
102
{ACAD_REACTORS
330
6A
102
}
330
6A
100
AcDbMaterial
  1
ByLayer
  0
MATERIAL
  5
EE
102
{ACAD_XDICTIONARY
360
173
102
}
102
{ACAD_REACTORS
330
6A
102
}
330
6A
100
AcDbMaterial
  1
Global
 43
0.0007999999797903
 43
0.0
 43
0.0
 43
0.0
 43
0.0
 43
0.0007999999797903
 43
0.0
 43
0.0
 43
0.0
 43
0.0
 43
1.0
 43
0.0
 43
0.0
 43
0.0
 43
0.0
 43
1.0
 49
0.0007999999797903
 49
0.0
 49
0.0
 49
0.0
 49
0.0
 49
0.0007999999797903
 49
0.0
 49
0.0
 49
0.0
 49
0.0
 49
1.0
 49
0.0
 49
0.0
 49
0.0
 49
0.0
 49
1.0
142
0.0007999999797903
142
0.0
142
0.0
142
0.0
142
0.0
142
0.0007999999797903
142
0.0
142
0.0
142
0.0
142
0.0
142
1.0
142
0.0
142
0.0
142
0.0
142
0.0
142
1.0
144
0.0007999999797903
144
0.0
144
0.0
144
0.0
144
0.0
144
0.0007999999797903
144
0.0
144
0.0
144
0.0
144
0.0
144
1.0
144
0.0
144
0.0
144
0.0
144
0.0
144
1.0
1001
ACAD
1070
    -1
1070
     3
1070
     0
1000

1071
        0
1070
     0
  0
MLEADERSTYLE
  5
12E
102
{ACAD_XDICTIONARY
360
C569
102
}
102
{ACAD_REACTORS
330
12D
102
}
330
12D
100
AcDbMLeaderStyle
170
     2
171
     1
172
     0
 90
        2
 40
0.0
 41
0.0
173
     1
 91
-1056964608
340
14
 92
       -2
290
     1
 42
2.0
291
     1
 43
8.0
  3
Standard
 44
4.0
300

342
11
174
     1
178
     1
175
     1
176
     0
 93
-1056964608
 45
4.0
292
     0
297
     0
 46
4.0
 94
-1056964608
 47
1.0
 49
1.0
140
1.0
293
     1
141
0.0
294
     1
177
     0
142
1.0
295
     0
296
     0
143
3.75
1001
ACAD_MLEADERVER
1070
     2
  0
MLINESTYLE
  5
18
102
{ACAD_REACTORS
330
17
102
}
330
17
100
AcDbMlineStyle
  2
STANDARD
 70
     0
  3

 62
   256
 51
90.0
 52
90.0
 71
     2
 49
0.5
 62
   256
  6
BYLAYER
 49
-0.5
 62
   256
  6
BYLAYER
  0
ACDBPLACEHOLDER
  5
F
102
{ACAD_REACTORS
330
E
102
}
330
E
  0
SCALE
  5
10D
102
{ACAD_REACTORS
330
10C
102
}
330
10C
100
AcDbScale
 70
     0
300
1:1
140
1.0
141
1.0
290
     1
  0
SCALE
  5
1BE
102
{ACAD_REACTORS
330
10C
102
}
330
10C
100
AcDbScale
 70
     0
300
1:2
140
1.0
141
2.0
290
     0
  0
SCALE
  5
1BF
102
{ACAD_REACTORS
330
10C
102
}
330
10C
100
AcDbScale
 70
     0
300
1:4
140
1.0
141
4.0
290
     0
  0
SCALE
  5
1C0
102
{ACAD_REACTORS
330
10C
102
}
330
10C
100
AcDbScale
 70
     0
300
1:5
140
1.0
141
5.0
290
     0
  0
SCALE
  5
1C1
102
{ACAD_REACTORS
330
10C
102
}
330
10C
100
AcDbScale
 70
     0
300
1:8
140
1.0
141
8.0
290
     0
  0
SCALE
  5
1C2
102
{ACAD_REACTORS
330
10C
102
}
330
10C
100
AcDbScale
 70
     0
300
1:10
140
1.0
141
10.0
290
     0
  0
SCALE
  5
1C3
102
{ACAD_REACTORS
330
10C
102
}
330
10C
100
AcDbScale
 70
     0
300
1:16
140
1.0
141
16.0
290
     0
  0
SCALE
  5
1C4
102
{ACAD_REACTORS
330
10C
102
}
330
10C
100
AcDbScale
 70
     0
300
1:20
140
1.0
141
20.0
290
     0
  0
SCALE
  5
1C5
102
{ACAD_REACTORS
330
10C
102
}
330
10C
100
AcDbScale
 70
     0
300
1:30
140
1.0
141
30.0
290
     0
  0
SCALE
  5
1C6
102
{ACAD_REACTORS
330
10C
102
}
330
10C
100
AcDbScale
 70
     0
300
1:40
140
1.0
141
40.0
290
     0
  0
SCALE
  5
1C7
102
{ACAD_REACTORS
330
10C
102
}
330
10C
100
AcDbScale
 70
     0
300
1:50
140
1.0
141
50.0
290
     0
  0
SCALE
  5
1C8
102
{ACAD_REACTORS
330
10C
102
}
330
10C
100
AcDbScale
 70
     0
300
1:100
140
1.0
141
100.0
290
     0
  0
SCALE
  5
1C9
102
{ACAD_REACTORS
330
10C
102
}
330
10C
100
AcDbScale
 70
     0
300
2:1
140
2.0
141
1.0
290
     0
  0
SCALE
  5
1CA
102
{ACAD_REACTORS
330
10C
102
}
330
10C
100
AcDbScale
 70
     0
300
4:1
140
4.0
141
1.0
290
     0
  0
SCALE
  5
1CB
102
{ACAD_REACTORS
330
10C
102
}
330
10C
100
AcDbScale
 70
     0
300
8:1
140
8.0
141
1.0
290
     0
  0
SCALE
  5
1CC
102
{ACAD_REACTORS
330
10C
102
}
330
10C
100
AcDbScale
 70
     0
300
10:1
140
10.0
141
1.0
290
     0
  0
SCALE
  5
1CD
102
{ACAD_REACTORS
330
10C
102
}
330
10C
100
AcDbScale
 70
     0
300
100:1
140
100.0
141
1.0
290
     0
  0
ACDBSECTIONVIEWSTYLE
  5
21A
102
{ACAD_XDICTIONARY
360
C57B
102
}
102
{ACAD_REACTORS
330
219
102
}
330
219
100
AcDbModelDocViewStyle
 70
     0
  3
Metric50
290
     0
100
AcDbSectionViewStyle
 70
     0
 71
     0
 90
      102
 71
     1
340
11
 40
5.0
340
0
340
0
 40
5.0
300
I, O, Q, S, X, Z
 40
10.0
 90
        0
 40
2.5
 90
        0
 71
     2
340
16
 90
       25
340
16
 90
       50
 40
5.0
 40
2.5
 40
5.0
 71
     3
340
11
 40
5.0
 90
        0
 40
15.0
 90
        1
300
%<\AcVar ViewSectionStartId>%-%<\AcVar ViewSectionEndId>% (%<\AcVar ViewScale \f "%sn">%)
 71
     4
300
ANSI31
 40
1.0
 90
        0
290
     0
290
     0
 90
        6
 40
0.0
 40
1.570796326794896
 40
0.2617993877991494
 40
1.308996938995747
 40
-0.2617993877991494
 40
1.832595714594046
  0
TABLESTYLE
  5
7F
102
{ACAD_XDICTIONARY
360
162
102
}
102
{ACAD_REACTORS
330
7E
102
}
330
7E
100
AcDbTableStyle
  3
Standard
 70
     0
 71
     0
 40
1.5
 41
1.5
280
     0
281
     0
  7
Standard
140
4.5
170
     2
 62
     0
 63
     7
283
     0
274
    -2
284
     1
 64
     0
275
    -2
285
     1
 65
     0
276
    -2
286
     1
 66
     0
277
    -2
287
     1
 67
     0
278
    -2
288
     1
 68
     0
279
    -2
289
     1
 69
     0
  7
Standard
140
6.0
170
     5
 62
     0
 63
     7
283
     0
274
    -2
284
     1
 64
     0
275
    -2
285
     1
 65
     0
276
    -2
286
     1
 66
     0
277
    -2
287
     1
 67
     0
278
    -2
288
     1
 68
     0
279
    -2
289
     1
 69
     0
  7
Standard
140
4.5
170
     5
 62
     0
 63
     7
283
     0
274
    -2
284
     1
 64
     0
275
    -2
285
     1
 65
     0
276
    -2
286
     1
 66
     0
277
    -2
287
     1
 67
     0
278
    -2
288
     1
 68
     0
279
    -2
289
     1
 69
     0
  0
VISUALSTYLE
  5
F5
102
{ACAD_XDICTIONARY
360
C553
102
}
102
{ACAD_REACTORS
330
EF
102
}
330
EF
100
AcDbVisualStyle
  2
2dWireframe
 70
     4
 71
     0
 72
     2
 73
     1
 90
        0
 40
-0.6
 41
-30.0
 62
     5
 63
     7
 74
     1
 91
        4
 64
     7
 65
   257
 75
     1
175
     1
 42
1.0
 92
        0
 66
   257
 43
1.0
 76
     1
 77
     6
 78
     2
 67
     7
 79
     5
170
     0
171
     0
290
     0
174
     0
 93
        1
 44
0.0
173
     0
291
     0
 45
0.0
1001
ACAD
1000
AcDbSavedByObjectVersion
1070
     0
  0
VISUALSTYLE
  5
F4
102
{ACAD_XDICTIONARY
360
C551
102
}
102
{ACAD_REACTORS
330
EF
102
}
330
EF
100
AcDbVisualStyle
  2
Basic
 70
     7
 71
     1
 72
     0
 73
     1
 90
        0
 40
-0.6
 41
-30.0
 62
     5
 63
     7
 74
     0
 91
        4
 64
     7
 65
   257
 75
     1
175
     1
 42
1.0
 92
        8
 66
     7
 43
1.0
 76
     1
 77
     6
 78
     2
 67
     7
 79
     5
170
     0
171
     0
290
     0
174
     0
 93
        1
 44
0.0
173
     0
291
     1
 45
0.0
1001
ACAD
1000
AcDbSavedByObjectVersion
1070
     0
  0
VISUALSTYLE
  5
FB
102
{ACAD_XDICTIONARY
360
C55F
102
}
102
{ACAD_REACTORS
330
EF
102
}
330
EF
100
AcDbVisualStyle
  2
Brighten
 70
    12
 71
     2
 72
     2
 73
     1
 90
        0
 40
-0.6
 41
-30.0
 62
     5
 63
     7
 74
     1
 91
        4
 64
     7
 65
   257
 75
     1
175
     1
 42
1.0
 92
        8
 66
     7
 43
1.0
 76
     1
 77
     6
 78
     2
 67
     7
 79
     5
170
     0
171
     0
290
     0
174
     0
 93
        1
 44
50.0
173
     0
291
     1
 45
0.0
1001
ACAD
1000
AcDbSavedByObjectVersion
1070
     0
  0
VISUALSTYLE
  5
FF
102
{ACAD_XDICTIONARY
360
C567
102
}
102
{ACAD_REACTORS
330
EF
102
}
330
EF
100
AcDbVisualStyle
  2
ColorChange
 70
    16
 71
     2
 72
     2
 73
     3
 90
        0
 40
-0.6
 41
-30.0
 62
     5
 63
     8
 74
     1
 91
        4
 64
     7
 65
   257
 75
     1
175
     1
 42
1.0
 92
        8
 66
     8
 43
1.0
 76
     1
 77
     6
 78
     2
 67
     7
 79
     5
170
     0
171
     0
290
     0
174
     0
 93
        1
 44
0.0
173
     0
291
     1
 45
0.0
1001
ACAD
1000
AcDbSavedByObjectVersion
1070
     0
  0
VISUALSTYLE
  5
F8
102
{ACAD_XDICTIONARY
360
C559
102
}
102
{ACAD_REACTORS
330
EF
102
}
330
EF
100
AcDbVisualStyle
  2
Conceptual
 70
     9
 71
     3
 72
     2
 73
     1
 90
        0
 40
-0.6
 41
-30.0
 62
     5
 63
     7
 74
     2
 91
        2
 64
     7
 65
   257
 75
     1
175
     1
 42
40.0
 92
        8
 66
     7
 43
1.0
 76
     1
 77
     6
 78
     2
 67
     7
 79
     3
170
     0
171
     0
290
     0
174
     0
 93
        1
 44
0.0
173
     0
291
     0
 45
0.0
1001
ACAD
1000
AcDbSavedByObjectVersion
1070
     0
  0
VISUALSTYLE
  5
FA
102
{ACAD_XDICTIONARY
360
C55D
102
}
102
{ACAD_REACTORS
330
EF
102
}
330
EF
100
AcDbVisualStyle
  2
Dim
 70
    11
 71
     2
 72
     2
 73
     1
 90
        0
 40
-0.6
 41
-30.0
 62
     5
 63
     7
 74
     1
 91
        4
 64
     7
 65
   257
 75
     1
175
     1
 42
1.0
 92
        8
 66
     7
 43
1.0
 76
     1
 77
     6
 78
     2
 67
     7
 79
     5
170
     0
171
     0
290
     0
174
     0
 93
        1
 44
-50.0
173
     0
291
     1
 45
0.0
1001
ACAD
1000
AcDbSavedByObjectVersion
1070
     0
  0
VISUALSTYLE
  5
1E6
102
{ACAD_XDICTIONARY
360
C56F
102
}
102
{ACAD_REACTORS
330
EF
102
}
330
EF
100
AcDbVisualStyle
  2
EdgeColorOff
 70
    22
 71
     2
 72
     2
 73
     0
 90
        0
 40
-0.6
 41
-30.0
 62
     5
 63
     7
 74
     1
 91
        4
 64
     7
 65
   257
 75
     1
175
     1
 42
1.0
 92
        8
 66
     7
 43
1.0
 76
     1
 77
     6
 78
     2
 67
     7
 79
     5
170
     0
171
     0
290
     0
174
     0
 93
        1
 44
0.0
173
     0
291
     1
 45
0.0
1001
ACAD
1000
AcDbSavedByObjectVersion
1070
     0
  0
VISUALSTYLE
  5
FE
102
{ACAD_XDICTIONARY
360
C565
102
}
102
{ACAD_REACTORS
330
EF
102
}
330
EF
100
AcDbVisualStyle
  2
Facepattern
 70
    15
 71
     2
 72
     2
 73
     1
 90
        0
 40
-0.6
 41
-30.0
 62
     5
 63
     7
 74
     1
 91
        4
 64
     7
 65
   257
 75
     1
175
     1
 42
1.0
 92
        8
 66
     7
 43
1.0
 76
     1
 77
     6
 78
     2
 67
     7
 79
     5
170
     0
171
     0
290
     0
174
     0
 93
        1
 44
0.0
173
     0
291
     1
 45
0.0
1001
ACAD
1000
AcDbSavedByObjectVersion
1070
     0
  0
VISUALSTYLE
  5
F0
102
{ACAD_XDICTIONARY
360
C549
102
}
102
{ACAD_REACTORS
330
EF
102
}
330
EF
100
AcDbVisualStyle
  2
Flat
 70
     0
 71
     2
 72
     1
 73
     1
 90
        2
 40
-0.6
 41
30.0
 62
     5
 63
     7
 74
     0
 91
        0
 64
     7
 65
   257
 75
     1
175
     1
 42
1.0
 92
        8
 66
     7
 43
1.0
 76
     1
 77
     6
 78
     2
 67
     7
 79
     5
170
     0
171
     0
290
     0
174
     0
 93
       13
 44
0.0
173
     0
291
     1
 45
0.0
1001
ACAD
1000
AcDbSavedByObjectVersion
1070
     0
  0
VISUALSTYLE
  5
F1
102
{ACAD_XDICTIONARY
360
C54B
102
}
102
{ACAD_REACTORS
330
EF
102
}
330
EF
100
AcDbVisualStyle
  2
FlatWithEdges
 70
     1
 71
     2
 72
     1
 73
     1
 90
        2
 40
-0.6
 41
30.0
 62
     5
 63
     7
 74
     1
 91
        0
 64
     7
 65
   257
 75
     1
175
     1
 42
1.0
 92
        0
 66
   257
 43
1.0
 76
     1
 77
     6
 78
     2
 67
     7
 79
     5
170
     0
171
     0
290
     0
174
     0
 93
       13
 44
0.0
173
     0
291
     1
 45
0.0
1001
ACAD
1000
AcDbSavedByObjectVersion
1070
     0
  0
VISUALSTYLE
  5
F2
102
{ACAD_XDICTIONARY
360
C54D
102
}
102
{ACAD_REACTORS
330
EF
102
}
330
EF
100
AcDbVisualStyle
  2
Gouraud
 70
     2
 71
     2
 72
     2
 73
     1
 90
        2
 40
-0.6
 41
30.0
 62
     5
 63
     7
 74
     0
 91
        0
 64
     7
 65
   257
 75
     1
175
     1
 42
1.0
 92
        0
 66
     7
 43
1.0
 76
     1
 77
     6
 78
     2
 67
     7
 79
     5
170
     0
171
     0
290
     0
174
     0
 93
       13
 44
0.0
173
     0
291
     1
 45
0.0
1001
ACAD
1000
AcDbSavedByObjectVersion
1070
     0
  0
VISUALSTYLE
  5
F3
102
{ACAD_XDICTIONARY
360
C54F
102
}
102
{ACAD_REACTORS
330
EF
102
}
330
EF
100
AcDbVisualStyle
  2
GouraudWithEdges
 70
     3
 71
     2
 72
     2
 73
     1
 90
        2
 40
-0.6
 41
30.0
 62
     5
 63
     7
 74
     1
 91
        0
 64
     7
 65
   257
 75
     1
175
     1
 42
1.0
 92
        0
 66
   257
 43
1.0
 76
     1
 77
     6
 78
     2
 67
     7
 79
     5
170
     0
171
     0
290
     0
174
     0
 93
       13
 44
0.0
173
     0
291
     1
 45
0.0
1001
ACAD
1000
AcDbSavedByObjectVersion
1070
     0
  0
VISUALSTYLE
  5
F7
102
{ACAD_XDICTIONARY
360
C557
102
}
102
{ACAD_REACTORS
330
EF
102
}
330
EF
100
AcDbVisualStyle
  2
Hidden
 70
     6
 71
     1
 72
     2
 73
     2
 90
        0
 40
-0.6
 41
-30.0
 62
     5
 63
     7
 74
     2
 91
        2
 64
     7
 65
   257
 75
     2
175
     1
 42
40.0
 92
        0
 66
   257
 43
1.0
 76
     1
 77
     6
 78
     2
 67
     7
 79
     3
170
     0
171
     0
290
     0
174
     0
 93
        1
 44
0.0
173
     0
291
     0
 45
0.0
1001
ACAD
1000
AcDbSavedByObjectVersion
1070
     0
  0
VISUALSTYLE
  5
1E4
102
{ACAD_XDICTIONARY
360
C56B
102
}
102
{ACAD_REACTORS
330
EF
102
}
330
EF
100
AcDbVisualStyle
  2
JitterOff
 70
    20
 71
     2
 72
     2
 73
     0
 90
        0
 40
-0.6
 41
-30.0
 62
     5
 63
     7
 74
     1
 91
        4
 64
     7
 65
   257
 75
     1
175
     1
 42
1.0
 92
       10
 66
     7
 43
1.0
 76
     1
 77
     6
 78
     2
 67
     7
 79
     5
170
     0
171
     0
290
     0
174
     0
 93
        1
 44
0.0
173
     0
291
     1
 45
0.0
1001
ACAD
1000
AcDbSavedByObjectVersion
1070
     0
  0
VISUALSTYLE
  5
FD
102
{ACAD_XDICTIONARY
360
C563
102
}
102
{ACAD_REACTORS
330
EF
102
}
330
EF
100
AcDbVisualStyle
  2
Linepattern
 70
    14
 71
     2
 72
     2
 73
     1
 90
        0
 40
-0.6
 41
-30.0
 62
     5
 63
     7
 74
     1
 91
        4
 64
     7
 65
   257
 75
     7
175
     7
 42
1.0
 92
        8
 66
     7
 43
1.0
 76
     1
 77
     6
 78
     2
 67
     7
 79
     5
170
     0
171
     0
290
     0
174
     0
 93
        1
 44
0.0
173
     0
291
     1
 45
0.0
1001
ACAD
1000
AcDbSavedByObjectVersion
1070
     0
  0
VISUALSTYLE
  5
1E5
102
{ACAD_XDICTIONARY
360
C56D
102
}
102
{ACAD_REACTORS
330
EF
102
}
330
EF
100
AcDbVisualStyle
  2
OverhangOff
 70
    21
 71
     2
 72
     2
 73
     0
 90
        0
 40
-0.6
 41
-30.0
 62
     5
 63
     7
 74
     1
 91
        4
 64
     7
 65
   257
 75
     1
175
     1
 42
1.0
 92
        9
 66
     7
 43
1.0
 76
     1
 77
     6
 78
     2
 67
     7
 79
     5
170
     0
171
     0
290
     0
174
     0
 93
        1
 44
0.0
173
     0
291
     1
 45
0.0
1001
ACAD
1000
AcDbSavedByObjectVersion
1070
     0
  0
VISUALSTYLE
  5
F9
102
{ACAD_XDICTIONARY
360
C55B
102
}
102
{ACAD_REACTORS
330
EF
102
}
330
EF
100
AcDbVisualStyle
  2
Realistic
 70
     8
 71
     2
 72
     2
 73
     0
 90
        2
 40
-0.6
 41
30.0
 62
     5
 63
     7
 74
     0
 91
        0
 64
     7
 65
   257
 75
     1
175
     1
 42
1.0
 92
        8
 66
   257
 43
1.0
 76
     1
 77
     6
 78
     2
 67
     7
 79
     3
170
     0
171
     0
290
     0
174
     0
 93
       13
 44
0.0
173
     0
291
     0
 45
0.0
1001
ACAD
1000
AcDbSavedByObjectVersion
1070
     0
  0
VISUALSTYLE
  5
1F3
102
{ACAD_XDICTIONARY
360
C579
102
}
102
{ACAD_REACTORS
330
EF
102
}
330
EF
100
AcDbVisualStyle
  2
Shaded
 70
    27
 71
     2
 72
     2
 73
     1
 90
        2
 40
-0.6
 41
30.0
 62
     5
 63
     7
 74
     0
 91
        4
 64
     7
 65
   257
 75
     1
175
     1
 42
1.0
 92
        8
 66
   257
 43
1.0
 76
     1
 77
     6
 78
     2
 67
     8
 79
     3
170
     0
171
     0
290
     0
174
     0
 93
        5
 44
0.0
173
     0
291
     0
 45
0.0
1001
ACAD
1000
AcDbSavedByObjectVersion
1070
     0
  0
VISUALSTYLE
  5
1F2
102
{ACAD_XDICTIONARY
360
C577
102
}
102
{ACAD_REACTORS
330
EF
102
}
330
EF
100
AcDbVisualStyle
  2
Shaded with edges
 70
    26
 71
     2
 72
     2
 73
     1
 90
        2
 40
-0.6
 41
30.0
 62
     5
 63
     7
 74
     1
 91
        2
 64
     7
 65
   257
 75
     2
175
     1
 42
1.0
 92
        8
 66
   257
 43
1.0
 76
     1
 77
     6
 78
     2
 67
     7
 79
     3
170
     0
171
     0
290
     0
174
     0
 93
        5
 44
0.0
173
     0
291
     0
 45
0.0
1001
ACAD
1000
AcDbSavedByObjectVersion
1070
     0
  0
VISUALSTYLE
  5
1EF
102
{ACAD_XDICTIONARY
360
C571
102
}
102
{ACAD_REACTORS
330
EF
102
}
330
EF
100
AcDbVisualStyle
  2
Shades of Gray
 70
    23
 71
     2
 72
     2
 73
     3
 90
        0
 40
-0.6
 41
-30.0
 62
     5
 63
     7
 74
     2
 91
        2
 64
     7
 65
     7
 75
     1
175
     1
 42
40.0
 92
        8
 66
     7
 43
1.0
 76
     1
 77
     6
 78
     2
 67
     7
 79
     3
170
     0
171
     0
290
     0
174
     0
 93
        1
 44
0.0
173
     0
291
     0
 45
0.0
1001
ACAD
1000
AcDbSavedByObjectVersion
1070
     0
  0
VISUALSTYLE
  5
1F0
102
{ACAD_XDICTIONARY
360
C573
102
}
102
{ACAD_REACTORS
330
EF
102
}
330
EF
100
AcDbVisualStyle
  2
Sketchy
 70
    24
 71
     1
 72
     2
 73
     2
 90
        0
 40
-0.6
 41
-30.0
 62
     5
 63
     7
 74
     2
 91
        2
 64
     7
 65
     7
 75
     1
175
     1
 42
40.0
 92
       11
 66
     7
 43
1.0
 76
     1
 77
     6
 78
     2
 67
     7
 79
     6
170
     0
171
     0
290
     0
174
     0
 93
        1
 44
0.0
173
     0
291
     0
 45
0.0
1001
ACAD
1000
AcDbSavedByObjectVersion
1070
     0
  0
VISUALSTYLE
  5
FC
102
{ACAD_XDICTIONARY
360
C561
102
}
102
{ACAD_REACTORS
330
EF
102
}
330
EF
100
AcDbVisualStyle
  2
Thicken
 70
    13
 71
     2
 72
     2
 73
     1
 90
        0
 40
-0.6
 41
-30.0
 62
     5
 63
     7
 74
     1
 91
        4
 64
     7
 65
   257
 75
     1
175
     1
 42
1.0
 92
       12
 66
     7
 43
1.0
 76
     1
 77
     6
 78
     2
 67
     7
 79
     5
170
     0
171
     0
290
     0
174
     0
 93
        1
 44
0.0
173
     0
291
     1
 45
0.0
1001
ACAD
1000
AcDbSavedByObjectVersion
1070
     0
  0
VISUALSTYLE
  5
F6
102
{ACAD_XDICTIONARY
360
C555
102
}
102
{ACAD_REACTORS
330
EF
102
}
330
EF
100
AcDbVisualStyle
  2
Wireframe
 70
     5
 71
     0
 72
     2
 73
     0
 90
        0
 40
-0.6
 41
-30.0
 62
     5
 63
     7
 74
     1
 91
        4
 64
     7
 65
   257
 75
     1
175
     1
 42
1.0
 92
        0
 66
   257
 43
1.0
 76
     1
 77
     6
 78
     2
 67
     7
 79
     3
170
     0
171
     0
290
     0
174
     0
 93
        1
 44
0.0
173
     0
291
     0
 45
0.0
1001
ACAD
1000
AcDbSavedByObjectVersion
1070
     0
  0
VISUALSTYLE
  5
1F1
102
{ACAD_XDICTIONARY
360
C575
102
}
102
{ACAD_REACTORS
330
EF
102
}
330
EF
100
AcDbVisualStyle
  2
X-Ray
 70
    25
 71
     2
 72
     2
 73
     1
 90
        1
 40
0.5
 41
-30.0
 62
     5
 63
     7
 74
     1
 91
        0
 64
     7
 65
   257
 75
     1
175
     1
 42
1.0
 92
        8
 66
     7
 43
1.0
 76
     1
 77
     6
 78
     2
 67
     7
 79
     3
170
     0
171
     0
290
     0
174
     0
 93
       13
 44
0.0
173
     0
291
     0
 45
0.0
1001
ACAD
1000
AcDbSavedByObjectVersion
1070
     0
  0
DICTIONARYVAR
  5
146
102
{ACAD_REACTORS
330
5E
102
}
330
5E
100
DictionaryVariables
280
     0
  1
1:1
  0
DICTIONARYVAR
  5
259
102
{ACAD_REACTORS
330
5E
102
}
330
5E
100
DictionaryVariables
280
     0
  1
3.500000
  0
DICTIONARYVAR
  5
25A
102
{ACAD_REACTORS
330
5E
102
}
330
5E
100
DictionaryVariables
280
     0
  1
acadiso.lin
  0
DICTIONARYVAR
  5
145
102
{ACAD_REACTORS
330
5E
102
}
330
5E
100
DictionaryVariables
280
     0
  1
STANDARD
  0
DICTIONARYVAR
  5
84
102
{ACAD_REACTORS
330
5E
102
}
330
5E
100
DictionaryVariables
280
     0
  1
STANDARD
  0
DICTIONARYVAR
  5
227
102
{ACAD_REACTORS
330
5E
102
}
330
5E
100
DictionaryVariables
280
     0
  1
Metric50
  0
DICTIONARYVAR
  5
228
102
{ACAD_REACTORS
330
5E
102
}
330
5E
100
DictionaryVariables
280
     0
  1
Metric50
  0
DICTIONARYVAR
  5
5F
102
{ACAD_REACTORS
330
5E
102
}
330
5E
100
DictionaryVariables
280
     0
  1
2
  0
DICTIONARYVAR
  5
63
102
{ACAD_REACTORS
330
5E
102
}
330
5E
100
DictionaryVariables
280
     0
  1
1
  0
DICTIONARYVAR
  5
C4EA
102
{ACAD_REACTORS
330
5E
102
}
330
5E
100
DictionaryVariables
280
     0
  1
0
  0
DICTIONARYVAR
  5
1AE
102
{ACAD_REACTORS
330
5E
102
}
330
5E
100
DictionaryVariables
280
     0
  1
0
  0
DICTIONARYVAR
  5
1AF
102
{ACAD_REACTORS
330
5E
102
}
330
5E
100
DictionaryVariables
280
     0
  1
0
  0
DICTIONARYVAR
  5
C4E8
102
{ACAD_REACTORS
330
5E
102
}
330
5E
100
DictionaryVariables
280
     0
  1
2
  0
DICTIONARYVAR
  5
C4E7
102
{ACAD_REACTORS
330
5E
102
}
330
5E
100
DictionaryVariables
280
     0
  1
1
  0
DICTIONARYVAR
  5
C53A
102
{ACAD_REACTORS
330
5E
102
}
330
5E
100
DictionaryVariables
280
     0
  1
80.000000
  0
DICTIONARYVAR
  5
C539
102
{ACAD_REACTORS
330
5E
102
}
330
5E
100
DictionaryVariables
280
     0
  1
5.000000
  0
DICTIONARYVAR
  5
C4E9
102
{ACAD_REACTORS
330
5E
102
}
330
5E
100
DictionaryVariables
280
     0
  1
127
  0
DICTIONARYVAR
  5
C53B
102
{ACAD_REACTORS
330
5E
102
}
330
5E
100
DictionaryVariables
280
     0
  1
2
  0
DICTIONARY
  5
C57D
330
21C
100
AcDbDictionary
280
     1
281
     1
  3
ACAD_XREC_ROUNDTRIP
360
C57E
  0
DICTIONARY
  5
C542
330
D3
100
AcDbDictionary
280
     1
281
     1
  3
ACAD_XREC_ROUNDTRIP
360
C543
  0
DICTIONARY
  5
C544
330
D7
100
AcDbDictionary
280
     1
281
     1
  3
ACAD_XREC_ROUNDTRIP
360
C545
  0
DICTIONARY
  5
C53F
330
22
100
AcDbDictionary
280
     1
281
     1
  3
ACAD_XREC_ROUNDTRIP
360
C540
  0
DICTIONARY
  5
1F9
330
ED
100
AcDbDictionary
280
     1
281
     1
  3
ACAD_XREC_ROUNDTRIP
360
C547
  3
FBXASSET
360
1FA
  0
DICTIONARY
  5
1F7
330
EC
100
AcDbDictionary
280
     1
281
     1
  3
ACAD_XREC_ROUNDTRIP
360
C546
  3
FBXASSET
360
1F8
  0
DICTIONARY
  5
173
330
EE
100
AcDbDictionary
280
     1
281
     1
  3
ACAD_XREC_ROUNDTRIP
360
C548
  3
BUMPTILE
360
175
  3
DIFFUSETILE
360
174
  3
FBXASSET
360
1FB
  3
OPACITYTILE
360
176
  3
REFLECTIONTILE
360
177
  0
DICTIONARY
  5
C569
330
12E
100
AcDbDictionary
280
     1
281
     1
  3
ACAD_XREC_ROUNDTRIP
360
C56A
  0
DICTIONARY
  5
C57B
330
21A
100
AcDbDictionary
280
     1
281
     1
  3
ACAD_XREC_ROUNDTRIP
360
C57C
  0
DICTIONARY
  5
162
330
7F
100
AcDbDictionary
280
     1
281
     1
  3
ACAD_ROUNDTRIP_2008_TABLESTYLE_CELLSTYLEMAP
360
C53C
  3
ACAD_XREC_ROUNDTRIP
360
C541
  0
DICTIONARY
  5
C553
330
F5
100
AcDbDictionary
280
     1
281
     1
  3
ACAD_XREC_ROUNDTRIP
360
C554
  0
DICTIONARY
  5
C551
330
F4
100
AcDbDictionary
280
     1
281
     1
  3
ACAD_XREC_ROUNDTRIP
360
C552
  0
DICTIONARY
  5
C55F
330
FB
100
AcDbDictionary
280
     1
281
     1
  3
ACAD_XREC_ROUNDTRIP
360
C560
  0
DICTIONARY
  5
C567
330
FF
100
AcDbDictionary
280
     1
281
     1
  3
ACAD_XREC_ROUNDTRIP
360
C568
  0
DICTIONARY
  5
C559
330
F8
100
AcDbDictionary
280
     1
281
     1
  3
ACAD_XREC_ROUNDTRIP
360
C55A
  0
DICTIONARY
  5
C55D
330
FA
100
AcDbDictionary
280
     1
281
     1
  3
ACAD_XREC_ROUNDTRIP
360
C55E
  0
DICTIONARY
  5
C56F
330
1E6
100
AcDbDictionary
280
     1
281
     1
  3
ACAD_XREC_ROUNDTRIP
360
C570
  0
DICTIONARY
  5
C565
330
FE
100
AcDbDictionary
280
     1
281
     1
  3
ACAD_XREC_ROUNDTRIP
360
C566
  0
DICTIONARY
  5
C549
330
F0
100
AcDbDictionary
280
     1
281
     1
  3
ACAD_XREC_ROUNDTRIP
360
C54A
  0
DICTIONARY
  5
C54B
330
F1
100
AcDbDictionary
280
     1
281
     1
  3
ACAD_XREC_ROUNDTRIP
360
C54C
  0
DICTIONARY
  5
C54D
330
F2
100
AcDbDictionary
280
     1
281
     1
  3
ACAD_XREC_ROUNDTRIP
360
C54E
  0
DICTIONARY
  5
C54F
330
F3
100
AcDbDictionary
280
     1
281
     1
  3
ACAD_XREC_ROUNDTRIP
360
C550
  0
DICTIONARY
  5
C557
330
F7
100
AcDbDictionary
280
     1
281
     1
  3
ACAD_XREC_ROUNDTRIP
360
C558
  0
DICTIONARY
  5
C56B
330
1E4
100
AcDbDictionary
280
     1
281
     1
  3
ACAD_XREC_ROUNDTRIP
360
C56C
  0
DICTIONARY
  5
C563
330
FD
100
AcDbDictionary
280
     1
281
     1
  3
ACAD_XREC_ROUNDTRIP
360
C564
  0
DICTIONARY
  5
C56D
330
1E5
100
AcDbDictionary
280
     1
281
     1
  3
ACAD_XREC_ROUNDTRIP
360
C56E
  0
DICTIONARY
  5
C55B
330
F9
100
AcDbDictionary
280
     1
281
     1
  3
ACAD_XREC_ROUNDTRIP
360
C55C
  0
DICTIONARY
  5
C579
330
1F3
100
AcDbDictionary
280
     1
281
     1
  3
ACAD_XREC_ROUNDTRIP
360
C57A
  0
DICTIONARY
  5
C577
330
1F2
100
AcDbDictionary
280
     1
281
     1
  3
ACAD_XREC_ROUNDTRIP
360
C578
  0
DICTIONARY
  5
C571
330
1EF
100
AcDbDictionary
280
     1
281
     1
  3
ACAD_XREC_ROUNDTRIP
360
C572
  0
DICTIONARY
  5
C573
330
1F0
100
AcDbDictionary
280
     1
281
     1
  3
ACAD_XREC_ROUNDTRIP
360
C574
  0
DICTIONARY
  5
C561
330
FC
100
AcDbDictionary
280
     1
281
     1
  3
ACAD_XREC_ROUNDTRIP
360
C562
  0
DICTIONARY
  5
C555
330
F6
100
AcDbDictionary
280
     1
281
     1
  3
ACAD_XREC_ROUNDTRIP
360
C556
  0
DICTIONARY
  5
C575
330
1F1
100
AcDbDictionary
280
     1
281
     1
  3
ACAD_XREC_ROUNDTRIP
360
C576
  0
XRECORD
  5
C57E
102
{ACAD_REACTORS
330
C57D
102
}
330
C57D
100
AcDbXrecord
280
     1
102
DISPLAYNAME
  1
Metric50
102
FLAGS
 90
        0
  0
XRECORD
  5
C543
102
{ACAD_REACTORS
330
C542
102
}
330
C542
100
AcDbXrecord
280
     1
102
SHADEPLOT
 70
     0
102
SHADEPLOTRESLEVEL
 70
     2
102
SHADEPLOTCUSTOMDPI
 70
   300
  0
XRECORD
  5
C545
102
{ACAD_REACTORS
330
C544
102
}
330
C544
100
AcDbXrecord
280
     1
102
SHADEPLOT
 70
     0
102
SHADEPLOTRESLEVEL
 70
     2
102
SHADEPLOTCUSTOMDPI
 70
   300
  0
XRECORD
  5
C540
102
{ACAD_REACTORS
330
C53F
102
}
330
C53F
100
AcDbXrecord
280
     1
102
SHADEPLOT
 70
     0
102
SHADEPLOTRESLEVEL
 70
     2
102
SHADEPLOTCUSTOMDPI
 70
   300
  0
XRECORD
  5
C547
102
{ACAD_REACTORS
330
1F9
102
}
330
1F9
100
AcDbXrecord
280
     1
102
MATERIAL
148
0.0
149
0.0
149
0.0
 93
        0
 94
       63
282
     0
 72
     1
 77
     1
171
     1
175
     1
179
     1
273
     0
  0
XRECORD
  5
1FA
102
{ACAD_REACTORS
330
1F9
102
}
330
1F9
100
AcDbXrecord
280
     1
 70
     1
 90
429727718
  1
D62C5603-E3A1-4AEA-B7FB-FE5D8D0755AF
310
504B03040A0000080000CC70623B3DEE336E79000000790000001B0000006175746F6465736B2D64657369676E2D7061636B6167652E786D6C3C3F786D6C2076657273696F6E3D22312E302220656E636F64696E673D227574662D3822203F3E3C666F726D6174733E3C666F726D61743E687474703A2F2F736368656D612E
310
6175746F6465736B2E636F6D2F64657369676E2D7061636B6167652F323030393C2F666F726D61743E3C2F666F726D6174733E504B0304140006080800CC70623BD486FD9CA0000000F4000000130000005B436F6E74656E745F54797065735D2E786D6C7D8EC10E82300C865F65E91D8A1E8C310C0EEA1BF002731658846E
310
D98AC1B77784ABF1D8FE5FBFBF75BBCE937A534CCEB38643598122B6FEE978D0B0485F9C41B54DDD7D022595594E1A469170414C76A4D9A4D207E29CF43ECE46F218070CC6BECC4078ACAA135ACF422C856C0E68EA1BF5669944DDD7BCDE7B1F8E415D77AECB980613C2E4AC91FC167A2B244592486606FC29C8FD7F045B9A
310
EF7053A7E60B504B0304140006080800CC70623B853B8169EB0000007C01000008000000636F72652E786D6C8D90416EC3201045AF62CDB6C206821CC7C244919D9CA01740401C94182C03558F5F9C3852BBEB6A467FFE9B197D7EFC9E1EC5975982F5AE035262288C535E5B377690E21535501C055FBC8FBF6C503839990E
310
5619041F179FE64D52DE45E362569DD7661365082642A11EB9E920A89B99642953CC8E702F67A9EE7234257977194EC9EAE275C4EABCCF5EAD5940D4AC6F0E35A568B8F43562CD7046CD199FD07E60174276A7BE677B5EADB0E0D14EEFFB6A31321A0D82627C4084204C3F096B71DD52F6819B16635EADF63F509AF53FA164
310
5DDCD1EDDD17164090FCC8732078B56691CB33A85CD7DCC40F504B0304140006080800CC70623B55019EA25F0000007C00000007000000636E782E786D6C4DCB3B0E80201045D1AD90E915ED2CF8AC45050C11660C8261F98AB1B07AC9C97D42D718D865D3E909258CFD00CCE24AC6E326A164D74DC0B4128928FF32603847
310
2BA13128B1252AC747C6BAB984FC68F0B87FE8960A5C09FE86CFB69FBA01504B0304140006080800CC70623BDBABAAF470010000D40300000C0000006662782F636F72652E786D6CC553D16E823014FD95A6AF4B694182CC941A83FA05FB810A9511A125A5257EFE2E82712ECEB8A7F100CD39F7F69E734AF9FADC366850B6
310
AF8DCE7018308C942E4C59EB2AC3DE1D498AD15A706B8CFB56869196ADCAF00863C12B6B7C374385D14E6907A836A59A41D9F7CA615434B0C8705F7CAA5606D23BA8E84F41278B93AC54100640439DE0BDB320004D43C63716C7C399D30917DCFBBA9CD9BA8469F5B156168B24CED3F7248AC8769F27244EB73B92EED8862C
310
B7F13E0C179B3C8F979C8ECD82BBBABDAA2BAC924E9558448CBD9330242CFA08E3154B5651FCC6D215639C8EE5774DBE2B5F6CF2B5768B68963BB5F5588420E442FC700B1139D4CB01F450C1E918227C2E09DF070D8140C84E1E9AAB8F1340832A9CB13130A5F1376A908D57309505ECF2A0DF179C4E9D30F5B239B87E3823
310
7A79C6F31DE1A8A5AEC08474B03C7837EAE4938639B44E5932B833D2C6B6B279CDC613877FA26EE21F4A2A4C63EC7F29A2F301D1F9F7A0E37D145F504B0304140006080800CC70623B9C113CC27E0000009D0000000B0000006662782F636E782E786D6C4DCCDF0A83201C86E15B91DFB94BFB330DD428C8FB886521330DA7
310
6397BF1A1DECE883878F57749FCDA1B7892F1BBC047A23808C7F84D9FA55424E0BE6803A256208E9EF06C84F9B91703228B1C690F78B66B34CD9A5439DF5CF0BFBF65E35BCA1B8D6A5C6F540381E886698B5741C695F9503EBA150A2F8958E3DC3EA0B504B0304140006080800CC70623B7DF2F77C2A010000120200003100
310
00006662782F41393633353835312D344632462D344230382D423046372D3739314545314133324237412F636F72652E786D6C8D51DB8EC22014FC15C2939B0D2DB4B45643319AE817EC0F6041255A68B86CFCFC856D4D76DF7CE190393373060EDB3DC707F856CE6B6B7A480A0C81328395DA5C7B18C3057510EC3873D686
310
3F34088C18550F330C39BB3A1BA7051AAC09CA84841A2BD5020AEF55806078A44B0FFD7053A328440C89E1EFC52486BBB8AA8214A99D789CF9E05200300FC927E4FB4D5B375D43103D5527440FB843077C5AA3F5861C8F645F5787F59E95B390B318B55CE45AA638FAA2957BD7248B390B7A7CC51F9C124149C82B8C378810
310
84AB2F42B7B8DD56F413775B8C5999E9FF4471926F8AA236A1AE96B8B3CC434E5839373893369E1FAF30EA395917409EB7F26AF8801C171837A4A6AC9C89E9F9C9B1A58BA30FD6A5EF5DDDCF894B9AD9B6A59C957943A9FCAE2FD5BC4DFE03504B0304140006080800CC70623BAD7543B64E01000033030000300000006662
310
782F41393633353835312D344632462D344230382D423046372D3739314545314133324237412F636E782E786D6CD593CD6EC32010845F0571AD6CE3D48AD20813A9873E410FBD12D82434182C7EAAE6EDBB2424CD25871E7B41D6EC30B3FA84F9E67BB2E40B4234DE8DB46F1925E094D7C6ED479AD3AE5951B2113C789FEE
310
6C943839C1488B4C05DF079FE72A69D8C96C13AAD6B8631503449F83828872B949AC57D26200B826A308D316B4064D6E46FCDA41C05550DC9E483A00797BFD207EFB092A45DE9514C1BBD22178396BD39D891265658C238DEA00936C654E5E433CB65A26D9F6EDB5EBC14EBF49A45CB856E66048291F6939A9A81BB5C89177
310
38143CA680F4AA299D66A042CEB3354A2684DC9D8D178FE0D9B8B41CAAD720F880EE7EF93C0C18769E099ECC04D5A102C8049A8A05632F4DDF376CF1DE0F6BB65C2F8627B65A33C6BB62177CEBBDAD973006829F89F22E814B54F4BC2BE347F8AA8F681390B50FA73F804400B5F542E796F19FF974E7F78DB802FE05E20750
310
4B0304140006080800CC70623BE75B7789680500003C100000340000006662782F41393633353835312D344632462D344230382D423046372D3739314545314133324237412F6F626A656374732E786D6CAD575B8F9B3818FD2B887D06C22499CB8AA1CA655245D5B455A356FB305264C061D8018C6C3393D95FBFC7600890
310
A4CD5EF210B0B1BFEBF98E3F7B1FF6596ABC522E1296DF9BAE3D320D9A872C4AF2F8DE2CE5CEBA358D0FBEC719939D65A691938CDE9B6ADAF4BD98B3B2D05311DD91329583D9D5FC0F438434A7A611A644887B5384CF34233629258BA878B12322891DEFF6B66BD70BFB62634E8AE781D082709A4B588AF91C528CDA28B73F
310
1C998EEF39EABBEFA97FBD6A7C7E9553F9D3D79FE442923C3C523610337627CB87ABE99D359D4CC6D6E4FACAB5E6ABF9D2726FC6A3C5F56271377BB88362213924694B38DD99FE47C48627A1E7D49F5A8BB5E1A74C0A599ED3B0F21F1E56366B89112D681E218F0915D0D6F17AD41FBA2A369DCF6335D62ABBD39779D5DDD1
310
11D4D8DE3CBB96B2E04FB8202E41051754A1AA8E8F76B4C6DFE810B580B1547F4B84911149794252234D024EF8BBE963A95AE27B3D310A9D5C215C7960FAEE415ED75694C6AFB17BCACA5D99A60A9AA65F217B0BFC53292ACB92BF283FAD0D3621576592CB5BED907C2FA8E9DF794E35E97BEA31BED21FEB401ABB94C44839
310
DCACBF0E1C5DA8DA5B2F4DFFD32AD86F543D9E565E7056502E157C00AD2671CD534549AB752FCA9CDA00677A313F04E51B22FF19E57B300579E3C97EB29F682D92935CEC18CF901B7B54FD8C51F362B56FC72FE0B3C1EAE335EDCCBF5AEC39ADB17DC238973F804BA5E6F6BFE7AF1FB32E523BE9F3BD571418E3631DCA4D48
310
5250CF639223210A9446CA30052EDF057BD35F8329C1ECD84552BF0DC8D18BE7BCE23BFE6BD960AB4A7DE79923A103BEBD80F911CBAA2C60DB19B01CF164A5583B772EE6D3FFA56666CBCDA74DC97724A48F9A58967497E489C4D979006FD7A05E227A1EBDD0F737C623387A9C844D3709995625106D157315F8B8392CD4E0
310
A0B9A720C4BE9829CEF37EA1E13111214D53925356365ADA634861B52519DD27A00AEB808EAF0628E6F435519D446F45CF2C9CF5214F0A15B2F6D06B79DA3EE3CBF7F56780D2F4E7EF73A0F5E5B02A38D07DC852C6B7C1FBB6664213E0C39E3EBA7FF4E1AD23EA2829407C85E586727488B751B2DB9502BC7B228A3FD68B6E
310
A65A22397E690AA8D158D7E404EC8CDA235CC3B7D1898680131CEC2CDF2638C65196279577750F15884AEE19F94199155B92B13297978469D4F8D358DF0AEF7631E28DC8F0D9F437D5D39A83B2231A1D52D543813A824EF8D44BCFF2FA6A31BD1E8DAD87F1CCB526B3879935BF59CDADD5C37479BB1CDD4CA7B3556B516589
310
EF352754B706114D9C885EC9131DE6EFEB43D99AFE2391C2F958179413D7CFEF6B1B6DB1E7600F00DE6E5C67454A339A4BA2E0FBA85ED26F045D454F463DBFCE484C2F90F2E5E3666003662ED8F755951A7D1BECD5B30B550B2785C8E7320B7292A4838DDA71BBC863ED7613CAF659337A3354231D4FF4A182A54904C2898C
310
98B28C4AD0CE056CCF332A80986E571EE9DBC305BB5FEB7E509220A58D25CF042D712A806AC0AD0C657FDEF80D2D9CEAA2EE4D1C76F60BFE74219A06527D6F82DF6412526107381E55E353090704D085B52408A8913C4ED159D79BDA71BB4BC506F4831350EB6F975CD22D69BF7AC49B91A2C0A9DDA3D5CA36AD20FC478E37
310
E61844E2352865EBCB61A275A65283CAAA9DD27703B4102F5AF51EF5F573B75CBB5AD38BC845F7A49F82A0966A49C2E3EA5EA0ECD326CD965F1DB402C6FA8B51A4658C5C5E2EC9E214602E55810345408596591009A82E7E7FFACA19EEA299B14A0081A705CB3296EBC14CDF658DCD336EA6D1136881AAEB87B81AB9EE53D5
310
F5EB8BC8362082DA24122F98680A4E7930C01A0079749CEA14382A0783E5EBA5A10F8C098456A03D6A4AEB6BB881E2513747552A5DB22C7EDAF83BD5528081A365F7FF06504B0304140006080000CC70623B000000000000000000000000350000006662782F41393633353835312D344632462D344230382D423046372D37
310
39314545314133324237412F76657274696365732E62696E504B0304140006080800CC70623BF270F1330600000004000000360000006662782F41393633353835312D344632462D344230382D423046372D3739314545314133324237412F747269616E676C65732E62696E636660600000504B0304140006080000CC7062
310
3B000000000000000000000000370000006662782F41393633353835312D344632462D344230382D423046372D3739314545314133324237412F617474726962757465732E62696E504B0304140006080800CC70623B08DA0BD19000000041010000360000006662782F41393633353835312D344632462D344230382D4230
310
46372D3739314545314133324237412F6469726563746F72792E786D6C858F410AC3201045AF22B36F53E9A60B35CBEEBAE80D244E44489C6234F4F835464A48035D0DF398FF9F8AF63D0E6CC63039F212F8F9020C7D47C6792B21C5FE7403D62A1188E2E60C98D7234A5830286103A55745067B9D86B8A3CF9C7F90C11DE6
310
07FB144396D7B6A82D282E9A152AD114D5EF2CB866EEE831B8EEA07A7BB5A8D7D61A2BAAEB7FD5F70921FF497D00504B0304140006080800CC70623BEDD1DC58FD000000A00100003B0000006662782F41393633353835312D344632462D344230382D423046372D3739314545314133324237412F7265736F75726365732F
310
636F72652E786D6C8D504B6E833010BD0A9A6D65B00922041947112427E8052C33A156828DFCA97AFC9A40A576D7CDCCE87D344F8F9FBFE667F689CE6B6B3A6039850C8DB2A336530731DC4903D95970676DF82583CCC8193B5861107C72362E3BA4AC096842428D1D7107A5F7182053CF7474E0D507CE32973124857FE48B
310
540F3961CEF244279DE03EB81420DB9EAC1384436FA353E879B1B182C7A8C75DA3C7F453DF353A1075D537A7BA6464B8F535A99AE14A9A2BBD90E350DD183B5CFABE3AF262350B1EF4FC9351399401471025A527C218A1E53BAB5A5AB765F5469B96525EACF23FA6B88CFF34456DC2A1DCE36E360F82A5202F42F062ED2BAD
310
579969AFDD8A6F504B010214000A0000080000CC70623B3DEE336E79000000790000001B00000000000000000000000000000000006175746F6465736B2D64657369676E2D7061636B6167652E786D6C504B01021400140006080800CC70623BD486FD9CA0000000F40000001300000000000000000000000000B20000005B
310
436F6E74656E745F54797065735D2E786D6C504B01021400140006080800CC70623B853B8169EB0000007C010000080000000000000000000000000083010000636F72652E786D6C504B01021400140006080800CC70623B55019EA25F0000007C000000070000000000000000000000000094020000636E782E786D6C504B
310
01021400140006080800CC70623BDBABAAF470010000D40300000C00000000000000000000000000180300006662782F636F72652E786D6C504B01021400140006080800CC70623B9C113CC27E0000009D0000000B00000000000000000000000000B20400006662782F636E782E786D6C504B01021400140006080800CC70
310
623B7DF2F77C2A010000120200003100000000000000000000000000590500006662782F41393633353835312D344632462D344230382D423046372D3739314545314133324237412F636F72652E786D6C504B01021400140006080800CC70623BAD7543B64E010000330300003000000000000000000000000000D2060000
310
6662782F41393633353835312D344632462D344230382D423046372D3739314545314133324237412F636E782E786D6C504B01021400140006080800CC70623BE75B7789680500003C10000034000000000000000000000000006E0800006662782F41393633353835312D344632462D344230382D423046372D3739314545
310
314133324237412F6F626A656374732E786D6C504B01021400140006080000CC70623B0000000000000000000000003500000000000000000000000000280E00006662782F41393633353835312D344632462D344230382D423046372D3739314545314133324237412F76657274696365732E62696E504B01021400140006
310
080800CC70623BF270F133060000000400000036000000000000000000000000007B0E00006662782F41393633353835312D344632462D344230382D423046372D3739314545314133324237412F747269616E676C65732E62696E504B01021400140006080000CC70623B0000000000000000000000003700000000000000
310
000000000000D50E00006662782F41393633353835312D344632462D344230382D423046372D3739314545314133324237412F617474726962757465732E62696E504B01021400140006080800CC70623B08DA0BD1900000004101000036000000000000000000000000002A0F00006662782F41393633353835312D344632
310
462D344230382D423046372D3739314545314133324237412F6469726563746F72792E786D6C504B01021400140006080800CC70623BEDD1DC58FD000000A00100003B000000000000000000000000000E1000006662782F41393633353835312D344632462D344230382D423046372D3739314545314133324237412F7265
310
736F75726365732F636F72652E786D6C504B0506000000000E000E0080040000641100000000
  0
XRECORD
  5
C546
102
{ACAD_REACTORS
330
1F7
102
}
330
1F7
100
AcDbXrecord
280
     1
102
MATERIAL
148
0.0
149
0.0
149
0.0
 93
        0
 94
       63
282
     0
 72
     1
 77
     1
171
     1
175
     1
179
     1
273
     0
  0
XRECORD
  5
1F8
102
{ACAD_REACTORS
330
1F7
102
}
330
1F7
100
AcDbXrecord
280
     1
 70
     1
 90
429727718
  1
30362254-06B7-45E0-A893-8CFA70E3D6BC
310
504B03040A0000080000CC70623B3DEE336E79000000790000001B0000006175746F6465736B2D64657369676E2D7061636B6167652E786D6C3C3F786D6C2076657273696F6E3D22312E302220656E636F64696E673D227574662D3822203F3E3C666F726D6174733E3C666F726D61743E687474703A2F2F736368656D612E
310
6175746F6465736B2E636F6D2F64657369676E2D7061636B6167652F323030393C2F666F726D61743E3C2F666F726D6174733E504B0304140006080800CC70623BD486FD9CA0000000F4000000130000005B436F6E74656E745F54797065735D2E786D6C7D8EC10E82300C865F65E91D8A1E8C310C0EEA1BF002731658846E
310
D98AC1B77784ABF1D8FE5FBFBF75BBCE937A534CCEB38643598122B6FEE978D0B0485F9C41B54DDD7D022595594E1A469170414C76A4D9A4D207E29CF43ECE46F218070CC6BECC4078ACAA135ACF422C856C0E68EA1BF5669944DDD7BCDE7B1F8E415D77AECB980613C2E4AC91FC167A2B244592486606FC29C8FD7F045B9A
310
EF7053A7E60B504B0304140006080800CC70623B1EC5D7A3EB0000007C01000008000000636F72652E786D6C8D90416EC3201045AF82665B6103C6756C6122AB4D4ED00B204C5C94182C03558F5F9C3852BBEB6A467FFE9B197D71FC9E6FE8CBACC17AD7032D0820E3B41FAD9B7A48F1820F808E52ACDEC75F36404ECDA687
310
4D0629A6D5A76597B477D1B89855E747B38B2A041301E95B6E7A08FAD3CCAA50296647B8168BD2573599823EBB0CA76447F43862C7BCCF5EAC59410E4DDD9C7973C2755553CCCFA4C603E3040F1565ED3B1FDE4E432BCA0D9622DAF9795FAF464533826484B498524CD807E51D79ED187F21878E10516EF63F505AC67F42C9
310
BA58B1FDDD071640D2FCC87D2045B96591CB3DA85CB7DCE40F504B0304140006080800CC70623B55019EA25F0000007C00000007000000636E782E786D6C4DCB3B0E80201045D1AD90E915ED2CF8AC45050C11660C8261F98AB1B07AC9C97D42D718D865D3E909258CFD00CCE24AC6E326A164D74DC0B4128928FF32603847
310
2BA13128B1252AC747C6BAB984FC68F0B87FE8960A5C09FE86CFB69FBA01504B0304140006080800CC70623B8C9102E971010000D40300000C0000006662782F636F72652E786D6CC5535B6E833010BC8AE5DF0A6C08340F1947A84D4ED00B38C6A128602363A31CBFCB234A53A551FA553EC09AD9F5CE8C31DB9E9B1AF5CA
310
7695D1198E428A91D2D214952E33ECDD315861B4E5CC1AE3BE9561A445A3323CC098B3D21ADFCE9034DA29ED00D5A6503328BA4E398C640D8B0C77F253352214DE4145770A5B214FA2546114020D759C75CE8200340D19DE981F0F6746269C33EFAB6266AB02A655C74A59CCF365BADC27CB5D902ED22848F6340DF238A141
310
BE88E2F57B92BFEDF23523433367AE6A2EEAA455C2A902F398D2751045018D3FA264435F3771F242571B4A1919CA6F9A7C5B3CD9E42BED16F12C776AEB308F40C848FC700B1139D4891EF410CEC810227CC6846F8386402064270EF5C5C709A05E49676C024C61FC95EA45ED154CA5211D1FF4FB8291A913A68E9B83EBBB33
310
E2A7673CDE118E5AE8124C0807CB8377834E366998436B950D7A7746DAD846D4CFD978E0F04FD455FC5D49D2D4C6FE9722321F10997F0F32DC47FE05504B0304140006080800CC70623BFFEA85907E0000009D0000000B0000006662782F636E782E786D6C4DCCD10A83201886E15B91FFDC95D95A811AB6F23E625948A6C3
310
E9D8E5AF46073BFAE0E1E365ED67B3E8ADC3CB78C7815C7240DA3DFC64DCC221C519D7805AC182F7F1EF06C88D9BE6703008B6049F9E274D7A1E938DBB5AE3D6131B2589BA0D3D965551E0B2EA732C9B9A624AAEB41E3A557677029960D9AFB4EF11165F504B0304140006080800CC70623B4FEEA4082C0100001202000031
310
0000006662782F39464131463745442D413632322D343644302D413938332D3331353338454246344243312F636F72652E786D6C8D515B6EC32010BC0AE2AB55850DD871ED0813254D72825EC00192A2C460F1A872FC42ED48ED5F7E00CDCECCCEB26C731F6FE05B39AFADE921293004CA082BB5B9F43086336A21D870E6AC
310
0D7F68109861543DCC30E4ECE26C9C164858139409093556AA051CBC570102714B8F1E7AF1A5C6A11862480C7F2DA6415C878B2A4891CA89C7990F2E050073937C42DE1DB7E4F87ED8A36D4329AA9B3D46DBAEAD504556557BD81DEBDD0761E52CE42C462D17B996298E3E6BE59E35C962CE821E1FF18553435012728A7187
310
0841987E927A8D9B35ADDF70BBC6989599FE4F1427F9A4286A132ABAC49D651EF234CD5CE04CDA78BA3DC2A8FB645D00B9DF8B57E215725C60BCA2A463E54C4CE327C7A65E1C7DB02E7DEFCBF594B864C5CA6CDBD49C957943E9FA5D5FBAF336F90F504B0304140006080800CC70623BAD7543B64E01000033030000300000
310
006662782F39464131463745442D413632322D343644302D413938332D3331353338454246344243312F636E782E786D6CD593CD6EC32010845F0571AD6CE3D48AD20813A9873E410FBD12D82434182C7EAAE6EDBB2424CD25871E7B41D6EC30B3FA84F9E67BB2E40B4234DE8DB46F1925E094D7C6ED479AD3AE5951B2113C
310
789FEE6C943839C1488B4C05DF079FE72A69D8C96C13AAD6B8631503449F83828872B949AC57D26200B826A308D316B4064D6E46FCDA41C05550DC9E483A00797BFD207EFB092A45DE9514C1BBD22178396BD39D891265658C238DEA00936C654E5E433CB65A26D9F6EDB5EBC14EBF49A45CB856E66048291F6939A9A81BB5
310
C8917738143CA680F4AA299D66A042CEB3354A2684DC9D8D178FE0D9B8B41CAAD720F880EE7EF93C0C18769E099ECC04D5A102C8049A8A05632F4DDF376CF1DE0F6BB65C2F8627B65A33C6BB62177CEBBDAD973006829F89F22E814B54F4BC2BE347F8AA8F681390B50FA73F804400B5F542E796F19FF974E7F78DB802FE05
310
E207504B0304140006080800CC70623B16AB87BA640500003C100000340000006662782F39464131463745442D413632322D343644302D413938332D3331353338454246344243312F6F626A656374732E786D6CAD575B6FA33818FD2B887DE6924B3BED8A326A92B68A663B534DD4D13E548A0C38942D60649B369D5FBFC7
310
600890A493BDE42160637FD7F31D7FF63E6FB3D478A55C242CBF3247B66B1A340F5994E4F19559CA8D75611A9F7D8F33263BCB4C232719BD32D5B4E97B316765A1A722BA21652A07B3B7B33F0D11D29C9A46981221AE4C113ED38CD8A4942CA2E2C58E882476BCD9DA23BB5ED8171B73523C0F841684D35CC252CCE79062D4
310
468DFA43D7747CCF51DF7D4FFDEB5593E3AB9CCA9FBEFE241792E4E19EB28198C968BAB8199F5D5A67D3E9C49A9E8F47D6EC76B6B0469F26EEFC7C3EBFBCBEB98462213924694B38DD98FE1D62C393D073EA4FADC5DAF04326852CCF6958F90F0F2B9BB5C48816348F90C7840A68EB78EDF68723159BCEE7891A6B95DDE9D3
310
BCEAEEE8086A6C6F9E5D4B59F0175C10A7A0820BAA5055C7473B5AE3CFDD452D602CD5DF12616444529E90D448938013FE6EFA58AA96F85E4F8C42275708571E98FE6827AF6B2B4AE3D7D83D64E5A64C53054DD3AF90BD06FEA9149565C94FCA0F6B834DC85599E4F2423B24DF0B6AFA979E534DFA9E7A4CC6FA631D486393
310
921829879BF5D781A373557BCB85E97FB90DB62B558F8795179C15944B051F40AB495CF35451D26A4727654E6D8033BD98EF82F21D91FF8AF2DD9982BCF1643BDD4EB516C9492E368C67C88DED563FC36D5EACF66DFF057C3658BDBFA69DF9578B3DA735B64F18C7F20770A9D45CFCF7FCF563D6456A277DBEF78A02637CA2
310
43B90A490AEAB94F72244481D24819A6C0E59B606BFA4B3025981DBB48EAB701D97BF19C577CC77F2D1B6C55A9EF3C732474C0B727303F625995056C3B02963D9EAC146BE78EC5FCEC7FA999EBC5EACBAAE41B12D27B4D2C0BBA49F244E2ECDC81B76B502F113D8F5EE8FB1BE3111CDD4FC2AA9B844CAB1288B68AB90A7CDC
310
1C166AB0D3DC5310625FCC14E779BFD0709F8890A629C9292B1B2DED31A4B0DA928CEE135085754027E3018A397D4D5427D15BD1330B677DC8934285AC3DF45A9EB68FF8F2B8FC0A509AFEECFD0FF2DE25CC6047F7214B195F07EFEB9A094D800F7BFAE8FED187B78EA8A3A400F115961BCAD1215E47C966530AF0EE8128FE
310
58CEBB996A8964FFA529A046635D9353B0336A8F700DDF46271A024E70B0B37C9DE01847591E54DED53D54202AB947E4076556AC49C6CA5C9E1226B7F1A7B1BE15DEED62C41B91E1B3E9AFAAA735036547343A925075041DF0A9979E893B391F8FCFA6967B3EFB644DCF6E5CEBFAE272625DCC6FAF3FB93793C5F90CE1EF57
310
407342756B10D1C489E8953CD1617E5CEECAD6F4EF8914CE5D5D504E5C3F1F9736DA62CFC11E00BCDDB8CC8A9466349744C1F75EBDA4DF09BA8A9E8C7A7E9991989E20E5DBDD6A6003664ED8F7A04A8DBE0DF6EAD9B9AA858342E47399053949D2C146EDB85DE4B176BB0965FBAC19BD19AA918E27FA50C1D22402E144464C
310
59462568E704B6E71915404CB72B8FF4EDE184DDAF753F284990D2C6926782963815403548A70C657FDEF80D2D9CEAA2AE4C1C76F60BFE74219A06527D6582DF6412526107381E55E353090704D085B52408D0933C4ED159D79BDA71BB4BC506F4831350EB6F979CD22D69BF7AC49B91A2C0A9DDA3D5CA36AD20FC478E37E6
310
1844E2352865EBCB6EA275A652E3836BE04EFB400BF1A2556F515F1FBB35B2AB35BD889C744FFA1004B5544B121E57F70215746DD2F5E2C1412B602CBF19455AC6C8E5E9922C4E01E65215385004546899059180EAFCF7A707CE7017CD8CDB0410789AB32C63B91E5CEBBBACB17AC6CD347A022D5075FD106377347AAABA7E
310
7D11590744509B44E205134DC1290F06580320F78E537D3D73540E06CB970B431F185308AD40BBD794D6D77003C5A36E8EAA54BA64597CD8F83BD552A080A365F7FF06504B0304140006080000CC70623B000000000000000000000000350000006662782F39464131463745442D413632322D343644302D413938332D3331
310
353338454246344243312F76657274696365732E62696E504B0304140006080800CC70623BF270F1330600000004000000360000006662782F39464131463745442D413632322D343644302D413938332D3331353338454246344243312F747269616E676C65732E62696E636660600000504B0304140006080000CC70623B
310
000000000000000000000000370000006662782F39464131463745442D413632322D343644302D413938332D3331353338454246344243312F617474726962757465732E62696E504B0304140006080800CC70623B08DA0BD19000000041010000360000006662782F39464131463745442D413632322D343644302D413938
310
332D3331353338454246344243312F6469726563746F72792E786D6C858F410AC3201045AF22B36F53E9A60B35CBEEBAE80D244E44489C6234F4F835464A48035D0DF398FF9F8AF63D0E6CC63039F212F8F9020C7D47C6792B21C5FE7403D62A1188E2E60C98D7234A5830286103A55745067B9D86B8A3CF9C7F90C11DE607
310
FB144396D7B6A82D282E9A152AD114D5EF2CB866EEE831B8EEA07A7BB5A8D7D61A2BAAEB7FD5F70921FF497D00504B0304140006080800CC70623B0D6EF93BFE000000A00100003B0000006662782F39464131463745442D413632322D343644302D413938332D3331353338454246344243312F7265736F75726365732F63
310
6F72652E786D6C8D50596E833010BD0A9ADFCA60B334011947A8694ED00B586642AC041B79A97AFC9A40A5F6AF3F33A3B7689E1E3F7DCD8FEC139DD7D6F4C0720A191A65476DA61E62B892236427C19DB5E1970C322367EC618541F0C9D9B8EC90B226A009093576C41D94DE63804C3DD2D18357379C652E63480A7FCF17A9
310
EE72C29CE5894E3AC17D702940B63D59270887DE46A7D0F36263058F518FBB468FE9A7BE6A7420864373B8D4873369AA8691FA421B3294352543C5CAF65C0F6FEF43CB8BD52C78D0F34F46E550061C419494B6843142CB0F5677F4B52BEB177AEC28E5C52AFF638ACBF84F53D42654E51E77B379102C05791282176B5F693D
310
CB4C7BED567C03504B010214000A0000080000CC70623B3DEE336E79000000790000001B00000000000000000000000000000000006175746F6465736B2D64657369676E2D7061636B6167652E786D6C504B01021400140006080800CC70623BD486FD9CA0000000F40000001300000000000000000000000000B20000005B
310
436F6E74656E745F54797065735D2E786D6C504B01021400140006080800CC70623B1EC5D7A3EB0000007C010000080000000000000000000000000083010000636F72652E786D6C504B01021400140006080800CC70623B55019EA25F0000007C000000070000000000000000000000000094020000636E782E786D6C504B
310
01021400140006080800CC70623B8C9102E971010000D40300000C00000000000000000000000000180300006662782F636F72652E786D6C504B01021400140006080800CC70623BFFEA85907E0000009D0000000B00000000000000000000000000B30400006662782F636E782E786D6C504B01021400140006080800CC70
310
623B4FEEA4082C0100001202000031000000000000000000000000005A0500006662782F39464131463745442D413632322D343644302D413938332D3331353338454246344243312F636F72652E786D6C504B01021400140006080800CC70623BAD7543B64E010000330300003000000000000000000000000000D5060000
310
6662782F39464131463745442D413632322D343644302D413938332D3331353338454246344243312F636E782E786D6C504B01021400140006080800CC70623B16AB87BA640500003C1000003400000000000000000000000000710800006662782F39464131463745442D413632322D343644302D413938332D3331353338
310
454246344243312F6F626A656374732E786D6C504B01021400140006080000CC70623B0000000000000000000000003500000000000000000000000000270E00006662782F39464131463745442D413632322D343644302D413938332D3331353338454246344243312F76657274696365732E62696E504B01021400140006
310
080800CC70623BF270F133060000000400000036000000000000000000000000007A0E00006662782F39464131463745442D413632322D343644302D413938332D3331353338454246344243312F747269616E676C65732E62696E504B01021400140006080000CC70623B0000000000000000000000003700000000000000
310
000000000000D40E00006662782F39464131463745442D413632322D343644302D413938332D3331353338454246344243312F617474726962757465732E62696E504B01021400140006080800CC70623B08DA0BD190000000410100003600000000000000000000000000290F00006662782F39464131463745442D413632
310
322D343644302D413938332D3331353338454246344243312F6469726563746F72792E786D6C504B01021400140006080800CC70623B0D6EF93BFE000000A00100003B000000000000000000000000000D1000006662782F39464131463745442D413632322D343644302D413938332D3331353338454246344243312F7265
310
736F75726365732F636F72652E786D6C504B0506000000000E000E0080040000641100000000
  0
XRECORD
  5
C548
102
{ACAD_REACTORS
330
173
102
}
330
173
100
AcDbXrecord
280
     1
102
MATERIAL
148
0.0
149
0.0
149
0.0
 93
        0
 94
       63
282
     0
 72
     1
 77
     1
171
     1
175
     1
179
     1
273
     0
  0
XRECORD
  5
175
102
{ACAD_REACTORS
330
173
102
}
330
173
100
AcDbXrecord
280
     1
270
     1
271
     1
  0
XRECORD
  5
174
102
{ACAD_REACTORS
330
173
102
}
330
173
100
AcDbXrecord
280
     1
270
     1
271
     1
  0
XRECORD
  5
1FB
102
{ACAD_REACTORS
330
173
102
}
330
173
100
AcDbXrecord
280
     1
 70
     0
 90
1673772943
  1
ECE7A1D2-D628-4531-984C-D00F80459256
310
504B03040A0000080000CC70623B3DEE336E79000000790000001B0000006175746F6465736B2D64657369676E2D7061636B6167652E786D6C3C3F786D6C2076657273696F6E3D22312E302220656E636F64696E673D227574662D3822203F3E3C666F726D6174733E3C666F726D61743E687474703A2F2F736368656D612E
310
6175746F6465736B2E636F6D2F64657369676E2D7061636B6167652F323030393C2F666F726D61743E3C2F666F726D6174733E504B0304140006080800CC70623BD486FD9CA0000000F4000000130000005B436F6E74656E745F54797065735D2E786D6C7D8EC10E82300C865F65E91D8A1E8C310C0EEA1BF002731658846E
310
D98AC1B77784ABF1D8FE5FBFBF75BBCE937A534CCEB38643598122B6FEE978D0B0485F9C41B54DDD7D022595594E1A469170414C76A4D9A4D207E29CF43ECE46F218070CC6BECC4078ACAA135ACF422C856C0E68EA1BF5669944DDD7BCDE7B1F8E415D77AECB980613C2E4AC91FC167A2B244592486606FC29C8FD7F045B9A
310
EF7053A7E60B504B0304140006080800CC70623BD9DDAED0EC0000007C01000008000000636F72652E786D6C8D90416EC3201045AF82665B61836D9CD8C2444DD39CA01740405C94182C03558F5F9C3852BBEB6A467FFE9B197D7EF89E6EE8CB2CC17A37002D0820E394D7D68D03A478C17B4007C117EFE32F1B20272733C0
310
2A83E0E3E2D3BC49CABB685CCCAAF3DA6CA20CC14440EA969B0182FA34932C648AD911AEC52CD5558EA6A0CF2EC329598D1E47ACCEFBECC59A050463A7EA5833865FEBDD0E37353BE3EE8DBDE3F6786A48D375FBF6CC78B9C282473B3DEFABC5C86834888A900E538A49F5419B9EB47DD5BC907D4F082F57FB1F28CDFA9F50
310
B22ED6D5F6EE030B20687EE43E10BC5CB3C8E51E54AE6B6EE207504B0304140006080800CC70623B55019EA25F0000007C00000007000000636E782E786D6C4DCB3B0E80201045D1AD90E915ED2CF8AC45050C11660C8261F98AB1B07AC9C97D42D718D865D3E909258CFD00CCE24AC6E326A164D74DC0B4128928FF326038
310
472BA13128B1252AC747C6BAB984FC68F0B87FE8960A5C09FE86CFB69FBA01504B0304140006080800CC70623BA24EB22D72010000D40300000C0000006662782F636F72652E786D6CC5535B6E833010BC8AE5DF0A6C5E49888CA3A6694ED00B38E05014B091B1518EDFE511A5A9D228FD2A1F60CDEC7A67C6986DCE4D8D7A
310
69BA4AAB0C073EC548AA5C17952A33ECECD15B61B4E1CC686DBF9561A44423333CC098B3D268D7CE50AE9595CA02AA74216750749DB418E5352C32DCE59FB211BE70162ABA93DF8AFC244AE9073ED050C759670D0840D390E18DF9F1706664C23973AE2A66B62A605A75ACA4C13C4976E1364A12EF355A2EBD384AF65EFA96
310
BC7B8BED2EA6719AAE16FB8491A199335B351775B991C2CA02F390D2D40B028F861F41BCA68B7518BFD0D59A524686F29B26D7164F36B94AD9289CE54E6D1DE6010819891F6E21228B3AD1831EC219194284CF98F06DD01008846CC5A1BEF83801D4CBDC6A1303536877A57A513B0953A94FC707FDBE6064EA84A9E3E6E0FA
310
EE8CF0E9198F7784A316AA0413C2C2F2E0ECA0934D1AE6D05A69BCDE9E91D2A611F573361E38FC1375157F5752AE6B6DFE4B11990F88CCBF0719EE23FF02504B0304140006080800CC70623B408A7D3B7C0000009D0000000B0000006662782F636E782E786D6C4DCCD10A83201886E15B91FFDC552A92A0064DBC8F581632
310
D3703A76F9ABD1C18E3E78F878E5F0D9027ABBFCF2292AE86E2D20171F69F6715550CB827B40839639A5F2770314A7CD293819B45C73AAFB45B35BA61ACAA1C1C7E7855C58C15BC331339661262CC762340413D68D77DA5B42298546CBE6573AF60CEB2F504B0304140006080800CC70623B449FB9BD290100001202000031
310
0000006662782F36394639363044362D344446342D343946362D394244322D3234314243333846323333332F636F72652E786D6C8D515B6EC32010BC0AE22B55850D98B871848994463E412FE002495162B07854397EA176A4F62F3F2C9A9D991D587EB84F37F0AD7D30CEF6905418026DA553C65E7A98E219ED203808EE9D
310
8B7F6810D871D23D2C3014FCE25D9A57483A1BB58D19B54EE9151C43D0110279CB971E06F9A5A7B11A53CC8C70ADE6515EC78BAE4895DB992778883E0700CB907242D17643D7E2538BD869608875438BBAE38922CAC8F1BDD90DB4691A5E2F42C153326A951B95E398B3D1FE599322163C9AE9115F7A3D46ADA0A018778810
310
84E907617BDCEE297BC5BB3DC6BC2EF47FA234AB2745C9D8D8D035EE220B50105E2F0DC1954B9FB747187D9F9D8FA0CCDB042D5FA0C015C65B42DF78BD10F3F3B363CB56C7109DCFDFBBB97E662ED92EB62D13BC2E1BCAE5777DB9966D8A1F504B0304140006080800CC70623BAD7543B64E01000033030000300000006662
310
782F36394639363044362D344446342D343946362D394244322D3234314243333846323333332F636E782E786D6CD593CD6EC32010845F0571AD6CE3D48AD20813A9873E410FBD12D82434182C7EAAE6EDBB2424CD25871E7B41D6EC30B3FA84F9E67BB2E40B4234DE8DB46F1925E094D7C6ED479AD3AE5951B2113C789FEE
310
6C943839C1488B4C05DF079FE72A69D8C96C13AAD6B8631503449F83828872B949AC57D26200B826A308D316B4064D6E46FCDA41C05550DC9E483A00797BFD207EFB092A45DE9514C1BBD22178396BD39D891265658C238DEA00936C654E5E433CB65A26D9F6EDB5EBC14EBF49A45CB856E66048291F6939A9A81BB5C89177
310
38143CA680F4AA299D66A042CEB3354A2684DC9D8D178FE0D9B8B41CAAD720F880EE7EF93C0C18769E099ECC04D5A102C8049A8A05632F4DDF376CF1DE0F6BB65C2F8627B65A33C6BB62177CEBBDAD973006829F89F22E814B54F4BC2BE347F8AA8F681390B50FA73F804400B5F542E796F19FF974E7F78DB802FE05E20750
310
4B0304140006080800CC70623B8D05915C650500003B100000340000006662782F36394639363044362D344446342D343946362D394244322D3234314243333846323333332F6F626A656374732E786D6CAD575B6FA33814FE2B887D06429276DA1565D4266D158D3A339A6846FB502932E050B66023DB74D2FDF5FB190C01
310
9276B2973C046C8ECFF53B17071F77456EBD502133CEAE6CDF9DD81665314F32965ED995DA3A17B6F5310C04E7AA47665B8C14F4CAD6DB7618A48257A5D94AE89654B91AEDDEDDFC61C998326A5B714EA4BCB265FC440BE2924AF184CA6737218AB8E976E7FA6E4338649B0A523E8D98964450A6A029F619B8588D52FE7039
310
B1BD30F0F4F730D0FF866AF6369557DB33949F31A9088B0F848DD8CCFCF9F2767A76E99CCDE733677E3EF59D9BBB9BA5E37F984D16E78BC5E5F5ED25044B25C0C96822E8D60EEFE11B91C581D77CEA34368A1F5329E68CD1B8B61F16D63A1B8E092D294B10C78C4A48EB593D192E7DED9BDEE7995E1B91FDEDD3ACEA9FE831
310
6A756F9F7D4D79F4274C90A7A04248AA51D5F8C718DAE06FB2F75AC4796EBE65D22A88A22223B995679120E2D50E41AA49C260C046A35368846B0BECD0DFF3EBEB8AD4F835768F69B9ADF25C43D30E6B646F807FAA64AD59F61715C7A54127C4AACA98BA3006A9D792DAE165E0D59B61A01FB3A9F9D838D2DAE62445C86166
310
F37564E842E7DE6A69879FEEA2DD5AE7E371E1A5E025154AC307D06A03D73EB5978C58FFA4C8E9033066E0F3BD53BEC1F39F91BE7B55103791EDE6BBB991A2046172CB4581D8B893FA674DDA17A77B3B7C413D1B511FD2743BFF8A38F03A658705E3ADF8015C3A3417FF3D7E439FF591DA0B5F18BC20C1B8981957AE6392A3
310
F43C640C01D1A0B4728E2DD4F26DB4B3C3152A252A3B4E913CEC1C72F012782FF88EFF8637AA552DBEF76408E8A8DE9E50F9E1CB3A2DA0DB1B6039A893B56063DC5B3E3FFB5F72E67AB9FEB4AEC496C4F4C1149625DD662C53E89D7BF0F6151A046260D1337DFDC94502430F83B0EE07A130A224BCAD7DAE1D9FB6CD422FF6
310
920702629C4BB9AE79C12F243C6432A6794E18E5552BA56B431AAB5D91317302B2B071E86C3A42B1A02F999E24061403B5D0EB639195DA655DD3EBEAB4FB862DDF579F014AD0E73C22F99E28DA57FB98E75C6CA2D74D53086D600F4786E0FE3144B771A8A7B900F03594DB8A633CBC49B2EDB69228BB479CF863B5E807AAAB
310
23872F6DFEB4129B949CA33823F58830E86D65621E10047D9DB34D862E8EAC3C2ABC2F7B2C40D67CDFE01F5545B92105AF983AC54D93D69E56FB8E797F88913F898A9FEC705D3F9D1B54EC8426FB500D40A03BD0119B06E1B95DDC7EB8F6975367793EBD70E66733DFB9BC982F9CE564727731999F5D4ECFCE3B8D6A4DC2A0
310
6D50FD148437D110834A64C6CDDF57FBACB5C307A2A477DFE4939736CFEF2B175371E0E10CF0DD1D5C15654E0BCA14D1E87DD02FF93782A162C0A3D95F1524A52770F972BF1EE9809D13CE7DD599467F8ECE9ADD85CE85A34CD45355448C64F9E8A031DC2D596ACC6E5DD93D9B82DE2EF5CAF81363A8E47996A0DE24564A79
310
4115AACE09C55E14540231FDA13C319787134EBF34E3A022514E5B4D9E0826E25C02D5805B15ABE1BEF51B26383D445DD9E875EE33FE4C22DA16427D65A3BCA92CA6D28DD01DF5DC53330704308475351050232CCD31583787BA75774AFB06E5070DD0C8EF484E19968C5D83BA5B90B244D31E54D55A372320FE4786B7EA58
310
44E135AA5467CB7EA333A61683CC6A8C3257034C10CF46F40EF9F5BE59BE5BD30C3C72D235E95D10345C1D45445A5F0BB47E46A5EBE5570F9380B5FA629579952296A773720405982B9DE04011506178964401AA8BDF1FBF0A8EAB6861DD6580C0E38217056766716DAEB2D6FA0917D3E4116581EADB879C4E7CFFB11EFACD
310
3D641311495D92C8676CB409A72D18610D803CE8A626049E8EC1887CB5B44CC39883690DDA8399B4B9855B481E7D71D4A9D22F96E5BB73BF5793020C02137BF837504B0304140006080000CC70623B000000000000000000000000350000006662782F36394639363044362D344446342D343946362D394244322D32343142
310
43333846323333332F76657274696365732E62696E504B0304140006080800CC70623BF270F1330600000004000000360000006662782F36394639363044362D344446342D343946362D394244322D3234314243333846323333332F747269616E676C65732E62696E636660600000504B0304140006080000CC70623B0000
310
00000000000000000000370000006662782F36394639363044362D344446342D343946362D394244322D3234314243333846323333332F617474726962757465732E62696E504B0304140006080800CC70623B08DA0BD19000000041010000360000006662782F36394639363044362D344446342D343946362D394244322D
310
3234314243333846323333332F6469726563746F72792E786D6C858F410AC3201045AF22B36F53E9A60B35CBEEBAE80D244E44489C6234F4F835464A48035D0DF398FF9F8AF63D0E6CC63039F212F8F9020C7D47C6792B21C5FE7403D62A1188E2E60C98D7234A5830286103A55745067B9D86B8A3CF9C7F90C11DE607FB14
310
4396D7B6A82D282E9A152AD114D5EF2CB866EEE831B8EEA07A7BB5A8D7D61A2BAAEB7FD5F70921FF497D00504B0304140006080800CC70623BCA768048FE000000A00100003B0000006662782F36394639363044362D344446342D343946362D394244322D3234314243333846323333332F7265736F75726365732F636F72
310
652E786D6C8D50596E833010BD0A9ADFCA60D600328E9AA639412F609909B1126CE4A5EAF16B0295DABFFECC8CDEA2797AECF8353F924FB44E193D409E5248504B332A3D0D10FC95B4901C39B3C6F85F3248B49871801506CE266BC2B243D2688FDA47549B11775038871E12F988C7004EDE7016A9083E2ADC3D5D84BC8B09
310
D33C8D74D471E6BC8D0192EDC93A815B742658898E651BCB59086ADC356A8C3FD555A1055ED7E7E254D615792D0F075295F585746FF53B694EE78A565DD736979A65AB9933AFE69F8CD2A2F038022F28ED489E135A7CE4554F9BBEA85E68DB53CAB255FEC71496F19FA6A0B42F8B3DEE6673C0F318E4497096AD7DC5F52C33
310
EEB55BFE0D504B010214000A0000080000CC70623B3DEE336E79000000790000001B00000000000000000000000000000000006175746F6465736B2D64657369676E2D7061636B6167652E786D6C504B01021400140006080800CC70623BD486FD9CA0000000F40000001300000000000000000000000000B20000005B436F
310
6E74656E745F54797065735D2E786D6C504B01021400140006080800CC70623BD9DDAED0EC0000007C010000080000000000000000000000000083010000636F72652E786D6C504B01021400140006080800CC70623B55019EA25F0000007C000000070000000000000000000000000095020000636E782E786D6C504B0102
310
1400140006080800CC70623BA24EB22D72010000D40300000C00000000000000000000000000190300006662782F636F72652E786D6C504B01021400140006080800CC70623B408A7D3B7C0000009D0000000B00000000000000000000000000B50400006662782F636E782E786D6C504B01021400140006080800CC70623B
310
449FB9BD290100001202000031000000000000000000000000005A0500006662782F36394639363044362D344446342D343946362D394244322D3234314243333846323333332F636F72652E786D6C504B01021400140006080800CC70623BAD7543B64E010000330300003000000000000000000000000000D20600006662
310
782F36394639363044362D344446342D343946362D394244322D3234314243333846323333332F636E782E786D6C504B01021400140006080800CC70623B8D05915C650500003B10000034000000000000000000000000006E0800006662782F36394639363044362D344446342D343946362D394244322D32343142433338
310
46323333332F6F626A656374732E786D6C504B01021400140006080000CC70623B0000000000000000000000003500000000000000000000000000250E00006662782F36394639363044362D344446342D343946362D394244322D3234314243333846323333332F76657274696365732E62696E504B010214001400060808
310
00CC70623BF270F13306000000040000003600000000000000000000000000780E00006662782F36394639363044362D344446342D343946362D394244322D3234314243333846323333332F747269616E676C65732E62696E504B01021400140006080000CC70623B00000000000000000000000037000000000000000000
310
00000000D20E00006662782F36394639363044362D344446342D343946362D394244322D3234314243333846323333332F617474726962757465732E62696E504B01021400140006080800CC70623B08DA0BD190000000410100003600000000000000000000000000270F00006662782F36394639363044362D344446342D
310
343946362D394244322D3234314243333846323333332F6469726563746F72792E786D6C504B01021400140006080800CC70623BCA768048FE000000A00100003B000000000000000000000000000B1000006662782F36394639363044362D344446342D343946362D394244322D3234314243333846323333332F7265736F
310
75726365732F636F72652E786D6C504B0506000000000E000E0080040000621100000000
  0
XRECORD
  5
176
102
{ACAD_REACTORS
330
173
102
}
330
173
100
AcDbXrecord
280
     1
270
     1
271
     1
  0
XRECORD
  5
177
102
{ACAD_REACTORS
330
173
102
}
330
173
100
AcDbXrecord
280
     1
270
     1
271
     1
  0
XRECORD
  5
C56A
102
{ACAD_REACTORS
330
C569
102
}
330
C569
100
AcDbXrecord
280
     1
102
ACAD_ROUNDTRIP_2012_MLEADER_STYLE
298
     1
  0
XRECORD
  5
C57C
102
{ACAD_REACTORS
330
C57B
102
}
330
C57B
100
AcDbXrecord
280
     1
102
DISPLAYNAME
  1
Metric50
102
FLAGS
 90
        0
  0
CELLSTYLEMAP
  5
C53C
102
{ACAD_REACTORS
330
162
102
}
330
162
100
AcDbCellStyleMap
 90
        3
300
CELLSTYLE
  1
TABLEFORMAT_BEGIN
 90
        5
170
     1
 91
        0
 92
    32768
 62
   257
 93
        1
300
CONTENTFORMAT
  1
CONTENTFORMAT_BEGIN
 90
        0
 91
        0
 92
      512
 93
        0
300

 40
0.0
140
1.0
 94
        5
 62
     0
340
11
144
6.0
309
CONTENTFORMAT_END
171
     1
301
MARGIN
  1
CELLMARGIN_BEGIN
 40
1.5
 40
1.5
 40
1.5
 40
1.5
 40
4.5
 40
4.5
309
CELLMARGIN_END
 94
        6
 95
        1
302
GRIDFORMAT
  1
GRIDFORMAT_BEGIN
 90
        0
 91
        1
 62
     0
 92
       -2
340
14
 93
        0
 40
1.125
309
GRIDFORMAT_END
 95
        2
302
GRIDFORMAT
  1
GRIDFORMAT_BEGIN
 90
        0
 91
        1
 62
     0
 92
       -2
340
14
 93
        0
 40
1.125
309
GRIDFORMAT_END
 95
        4
302
GRIDFORMAT
  1
GRIDFORMAT_BEGIN
 90
        0
 91
        1
 62
     0
 92
       -2
340
14
 93
        0
 40
1.125
309
GRIDFORMAT_END
 95
        8
302
GRIDFORMAT
  1
GRIDFORMAT_BEGIN
 90
        0
 91
        1
 62
     0
 92
       -2
340
14
 93
        0
 40
1.125
309
GRIDFORMAT_END
 95
       16
302
GRIDFORMAT
  1
GRIDFORMAT_BEGIN
 90
        0
 91
        1
 62
     0
 92
       -2
340
14
 93
        0
 40
1.125
309
GRIDFORMAT_END
 95
       32
302
GRIDFORMAT
  1
GRIDFORMAT_BEGIN
 90
        0
 91
        1
 62
     0
 92
       -2
340
14
 93
        0
 40
1.125
309
GRIDFORMAT_END
309
TABLEFORMAT_END
  1
CELLSTYLE_BEGIN
 90
        1
 91
        1
300
_TITLE
309
CELLSTYLE_END
300
CELLSTYLE
  1
TABLEFORMAT_BEGIN
 90
        5
170
     1
 91
        0
 92
        0
 62
   257
 93
        1
300
CONTENTFORMAT
  1
CONTENTFORMAT_BEGIN
 90
        0
 91
        0
 92
      512
 93
        0
300

 40
0.0
140
1.0
 94
        5
 62
     0
340
11
144
4.5
309
CONTENTFORMAT_END
171
     1
301
MARGIN
  1
CELLMARGIN_BEGIN
 40
1.5
 40
1.5
 40
1.5
 40
1.5
 40
4.5
 40
4.5
309
CELLMARGIN_END
 94
        6
 95
        1
302
GRIDFORMAT
  1
GRIDFORMAT_BEGIN
 90
        0
 91
        1
 62
     0
 92
       -2
340
14
 93
        0
 40
1.125
309
GRIDFORMAT_END
 95
        2
302
GRIDFORMAT
  1
GRIDFORMAT_BEGIN
 90
        0
 91
        1
 62
     0
 92
       -2
340
14
 93
        0
 40
1.125
309
GRIDFORMAT_END
 95
        4
302
GRIDFORMAT
  1
GRIDFORMAT_BEGIN
 90
        0
 91
        1
 62
     0
 92
       -2
340
14
 93
        0
 40
1.125
309
GRIDFORMAT_END
 95
        8
302
GRIDFORMAT
  1
GRIDFORMAT_BEGIN
 90
        0
 91
        1
 62
     0
 92
       -2
340
14
 93
        0
 40
1.125
309
GRIDFORMAT_END
 95
       16
302
GRIDFORMAT
  1
GRIDFORMAT_BEGIN
 90
        0
 91
        1
 62
     0
 92
       -2
340
14
 93
        0
 40
1.125
309
GRIDFORMAT_END
 95
       32
302
GRIDFORMAT
  1
GRIDFORMAT_BEGIN
 90
        0
 91
        1
 62
     0
 92
       -2
340
14
 93
        0
 40
1.125
309
GRIDFORMAT_END
309
TABLEFORMAT_END
  1
CELLSTYLE_BEGIN
 90
        2
 91
        1
300
_HEADER
309
CELLSTYLE_END
300
CELLSTYLE
  1
TABLEFORMAT_BEGIN
 90
        5
170
     1
 91
        0
 92
        0
 62
   257
 93
        1
300
CONTENTFORMAT
  1
CONTENTFORMAT_BEGIN
 90
        0
 91
        0
 92
      512
 93
        0
300

 40
0.0
140
1.0
 94
        2
 62
     0
340
11
144
4.5
309
CONTENTFORMAT_END
171
     1
301
MARGIN
  1
CELLMARGIN_BEGIN
 40
1.5
 40
1.5
 40
1.5
 40
1.5
 40
4.5
 40
4.5
309
CELLMARGIN_END
 94
        6
 95
        1
302
GRIDFORMAT
  1
GRIDFORMAT_BEGIN
 90
        0
 91
        1
 62
     0
 92
       -2
340
14
 93
        0
 40
1.125
309
GRIDFORMAT_END
 95
        2
302
GRIDFORMAT
  1
GRIDFORMAT_BEGIN
 90
        0
 91
        1
 62
     0
 92
       -2
340
14
 93
        0
 40
1.125
309
GRIDFORMAT_END
 95
        4
302
GRIDFORMAT
  1
GRIDFORMAT_BEGIN
 90
        0
 91
        1
 62
     0
 92
       -2
340
14
 93
        0
 40
1.125
309
GRIDFORMAT_END
 95
        8
302
GRIDFORMAT
  1
GRIDFORMAT_BEGIN
 90
        0
 91
        1
 62
     0
 92
       -2
340
14
 93
        0
 40
1.125
309
GRIDFORMAT_END
 95
       16
302
GRIDFORMAT
  1
GRIDFORMAT_BEGIN
 90
        0
 91
        1
 62
     0
 92
       -2
340
14
 93
        0
 40
1.125
309
GRIDFORMAT_END
 95
       32
302
GRIDFORMAT
  1
GRIDFORMAT_BEGIN
 90
        0
 91
        1
 62
     0
 92
       -2
340
14
 93
        0
 40
1.125
309
GRIDFORMAT_END
309
TABLEFORMAT_END
  1
CELLSTYLE_BEGIN
 90
        3
 91
        2
300
_DATA
309
CELLSTYLE_END
  0
XRECORD
  5
C541
102
{ACAD_REACTORS
330
162
102
}
330
162
100
AcDbXrecord
280
     1
102
ACAD_ROUNDTRIP_PRE2007_TABLESTYLE
 90
      512
 91
        0
  1

 92
      512
 93
        0
  2

 94
      512
 95
        0
  3

  0
XRECORD
  5
C554
102
{ACAD_REACTORS
330
C553
102
}
330
C553
100
AcDbXrecord
280
     1
102
RTVSPost2010Prop28
280
     1
102
RTVSPost2010PropOp28
 70
     1
102
RTVSPost2010Prop29
280
     1
102
RTVSPost2010PropOp29
 70
     1
102
RTVSPost2010Prop30
280
     0
102
RTVSPost2010PropOp30
 70
     1
102
RTVSPost2010Prop31
280
     0
102
RTVSPost2010PropOp31
 70
     1
102
RTVSPost2010Prop32
280
     0
102
RTVSPost2010PropOp32
 70
     1
102
RTVSPost2010Prop33
280
     0
102
RTVSPost2010PropOp33
 70
     1
102
RTVSPost2010Prop34
280
     0
102
RTVSPost2010PropOp34
 70
     1
102
RTVSPost2010Prop35
280
     0
102
RTVSPost2010PropOp35
 70
     1
102
RTVSPost2010Prop36
280
     0
102
RTVSPost2010PropOp36
 70
     1
102
RTVSPost2010Prop37
 90
       50
102
RTVSPost2010PropOp37
 70
     1
102
RTVSPost2010Prop38
140
0.0
102
RTVSPost2010PropOp38
 70
     1
102
RTVSPost2010Prop39
140
1.0
102
RTVSPost2010PropOp39
 70
     1
102
RTVSPost2010Prop40
 90
        0
102
RTVSPost2010PropOp40
 70
     1
102
RTVSPost2010Prop41ColorIndex
 90
       18
102
RTVSPost2010Prop41ColorRGB
 90
        0
102
RTVSPost2010PropOp41
 70
     1
102
RTVSPost2010Prop42
 90
       50
102
RTVSPost2010PropOp42
 70
     1
102
RTVSPost2010Prop43
 90
        3
102
RTVSPost2010PropOp43
 70
     1
102
RTVSPost2010Prop44ColorIndex
 90
        5
102
RTVSPost2010Prop44ColorRGB
 90
      255
102
RTVSPost2010PropOp44
 70
     1
102
RTVSPost2010Prop45
280
     0
102
RTVSPost2010PropOp45
 70
     1
102
RTVSPost2010Prop46
 90
       50
102
RTVSPost2010PropOp46
 70
     1
102
RTVSPost2010Prop47
 90
       50
102
RTVSPost2010PropOp47
 70
     1
102
RTVSPost2010Prop48
 90
       50
102
RTVSPost2010PropOp48
 70
     1
102
RTVSPost2010Prop49
280
     0
102
RTVSPost2010PropOp49
 70
     1
102
RTVSPost2010Prop50
 90
       50
102
RTVSPost2010PropOp50
 70
     1
102
RTVSPost2010Prop51ColorIndex
 90
      256
102
RTVSPost2010Prop51ColorRGB
 90
-16777216
102
RTVSPost2010PropOp51
 70
     0
102
RTVSPost2010Prop52
140
1.0
102
RTVSPost2010PropOp52
 70
     0
102
RTVSPost2010Prop53
 90
        2
102
RTVSPost2010PropOp53
 70
     1
102
RTVSPost2010Prop54
  1
strokes_ogs.tif
102
RTVSPost2010PropOp54
 70
     1
102
RTVSPost2010Prop55
280
     0
102
RTVSPost2010PropOp55
 70
     1
102
RTVSPost2010Prop56
140
1.0
102
RTVSPost2010PropOp56
 70
     1
102
RTVSPost2010Prop57
140
1.0
102
RTVSPost2010PropOp57
 70
     1
102
RTVSPropertyOp0
 70
     1
102
RTVSPropertyOp1
 70
     1
102
RTVSPropertyOp2
 70
     1
102
RTVSPropertyOp3
 70
     1
102
RTVSPropertyOp4
 70
     1
102
RTVSPropertyOp5
 70
     1
102
RTVSPropertyOp6
 70
     1
102
RTVSPropertyOp7
 70
     1
102
RTVSPropertyOp8
 70
     1
102
RTVSPropertyOp9
 70
     1
102
RTVSPropertyOp10
 70
     1
102
RTVSPropertyOp11
 70
     1
102
RTVSPropertyOp12
 70
     1
102
RTVSPropertyOp13
 70
     1
102
RTVSPropertyOp14
 70
     1
102
RTVSPropertyOp15
 70
     1
102
RTVSPropertyOp16
 70
     1
102
RTVSPropertyOp17
 70
     1
102
RTVSPropertyOp18
 70
     1
102
RTVSPropertyOp19
 70
     1
102
RTVSPropertyOp20
 70
     1
102
RTVSPropertyOp21
 70
     1
102
RTVSPropertyOp22
 70
     1
102
RTVSPropertyOp23
 70
     1
102
RTVSPropertyOp24
 70
     1
102
RTVSPropertyOp25
 70
     1
102
RTVSPropertyOp26
 70
     1
102
RTVSPropertyOp27
 70
     1
102
RTVSPropertyOp28
 70
     1
102
RTVSPropertyOp29
 70
     1
102
RTVSPropertyOp30
 70
     1
102
RTVSPropertyOp31
 70
     1
102
RTVSPropertyOp32
 70
     1
102
RTVSPropertyOp33
 70
     1
102
RTVSPropertyOp34
 70
     1
102
RTVSPropertyOp35
 70
     1
102
RTVSPropertyOp36
 70
     1
102
RTVSPropertyOp37
 70
     1
102
RTVSPropertyOp38
 70
     1
102
RTVSPropertyOp39
 70
     1
102
RTVSPropertyOp40
 70
     1
102
RTVSPropertyOp41
 70
     1
102
RTVSPropertyOp42
 70
     1
102
RTVSPropertyOp43
 70
     1
102
RTVSPropertyOp44
 70
     1
102
RTVSPropertyOp45
 70
     1
102
RTVSPropertyOp46
 70
     1
102
RTVSPropertyOp47
 70
     1
102
RTVSPropertyOp48
 70
     1
102
RTVSPropertyOp49
 70
     1
102
RTVSPropertyOp50
 70
     1
102
RTVSPropertyOp51
 70
     0
102
RTVSPropertyOp52
 70
     0
102
RTVSPropertyOp53
 70
     1
102
RTVSPropertyOp54
 70
     1
102
RTVSPropertyOp55
 70
     1
102
RTVSPropertyOp56
 70
     1
102
RTVSPropertyOp57
 70
     1
102
RTVSPropertyOp58
 70
     1
102
RTVSPropertyOp59
 70
     1
102
RTVSPropertyOp60
 70
     1
102
RTVSPropertyOp61
 70
     1
102
RTVSPropertyOp62
 70
     1
  0
XRECORD
  5
C552
102
{ACAD_REACTORS
330
C551
102
}
330
C551
100
AcDbXrecord
280
     1
102
RTVSPost2010Prop28
280
     0
102
RTVSPost2010PropOp28
 70
     1
102
RTVSPost2010Prop29
280
     1
102
RTVSPost2010PropOp29
 70
     1
102
RTVSPost2010Prop30
280
     1
102
RTVSPost2010PropOp30
 70
     1
102
RTVSPost2010Prop31
280
     0
102
RTVSPost2010PropOp31
 70
     1
102
RTVSPost2010Prop32
280
     0
102
RTVSPost2010PropOp32
 70
     1
102
RTVSPost2010Prop33
280
     0
102
RTVSPost2010PropOp33
 70
     1
102
RTVSPost2010Prop34
280
     0
102
RTVSPost2010PropOp34
 70
     1
102
RTVSPost2010Prop35
280
     0
102
RTVSPost2010PropOp35
 70
     1
102
RTVSPost2010Prop36
280
     0
102
RTVSPost2010PropOp36
 70
     1
102
RTVSPost2010Prop37
 90
       50
102
RTVSPost2010PropOp37
 70
     1
102
RTVSPost2010Prop38
140
0.0
102
RTVSPost2010PropOp38
 70
     1
102
RTVSPost2010Prop39
140
1.0
102
RTVSPost2010PropOp39
 70
     1
102
RTVSPost2010Prop40
 90
        0
102
RTVSPost2010PropOp40
 70
     1
102
RTVSPost2010Prop41ColorIndex
 90
       18
102
RTVSPost2010Prop41ColorRGB
 90
        0
102
RTVSPost2010PropOp41
 70
     1
102
RTVSPost2010Prop42
 90
       50
102
RTVSPost2010PropOp42
 70
     1
102
RTVSPost2010Prop43
 90
        3
102
RTVSPost2010PropOp43
 70
     1
102
RTVSPost2010Prop44ColorIndex
 90
        5
102
RTVSPost2010Prop44ColorRGB
 90
      255
102
RTVSPost2010PropOp44
 70
     1
102
RTVSPost2010Prop45
280
     0
102
RTVSPost2010PropOp45
 70
     1
102
RTVSPost2010Prop46
 90
       50
102
RTVSPost2010PropOp46
 70
     1
102
RTVSPost2010Prop47
 90
       50
102
RTVSPost2010PropOp47
 70
     1
102
RTVSPost2010Prop48
 90
       50
102
RTVSPost2010PropOp48
 70
     1
102
RTVSPost2010Prop49
280
     0
102
RTVSPost2010PropOp49
 70
     1
102
RTVSPost2010Prop50
 90
       50
102
RTVSPost2010PropOp50
 70
     1
102
RTVSPost2010Prop51ColorIndex
 90
      256
102
RTVSPost2010Prop51ColorRGB
 90
-16777216
102
RTVSPost2010PropOp51
 70
     0
102
RTVSPost2010Prop52
140
1.0
102
RTVSPost2010PropOp52
 70
     0
102
RTVSPost2010Prop53
 90
        2
102
RTVSPost2010PropOp53
 70
     1
102
RTVSPost2010Prop54
  1
strokes_ogs.tif
102
RTVSPost2010PropOp54
 70
     1
102
RTVSPost2010Prop55
280
     0
102
RTVSPost2010PropOp55
 70
     1
102
RTVSPost2010Prop56
140
1.0
102
RTVSPost2010PropOp56
 70
     1
102
RTVSPost2010Prop57
140
1.0
102
RTVSPost2010PropOp57
 70
     1
102
RTVSPropertyOp0
 70
     1
102
RTVSPropertyOp1
 70
     1
102
RTVSPropertyOp2
 70
     1
102
RTVSPropertyOp3
 70
     1
102
RTVSPropertyOp4
 70
     1
102
RTVSPropertyOp5
 70
     1
102
RTVSPropertyOp6
 70
     1
102
RTVSPropertyOp7
 70
     1
102
RTVSPropertyOp8
 70
     1
102
RTVSPropertyOp9
 70
     1
102
RTVSPropertyOp10
 70
     1
102
RTVSPropertyOp11
 70
     1
102
RTVSPropertyOp12
 70
     1
102
RTVSPropertyOp13
 70
     1
102
RTVSPropertyOp14
 70
     1
102
RTVSPropertyOp15
 70
     1
102
RTVSPropertyOp16
 70
     1
102
RTVSPropertyOp17
 70
     1
102
RTVSPropertyOp18
 70
     1
102
RTVSPropertyOp19
 70
     1
102
RTVSPropertyOp20
 70
     1
102
RTVSPropertyOp21
 70
     1
102
RTVSPropertyOp22
 70
     1
102
RTVSPropertyOp23
 70
     1
102
RTVSPropertyOp24
 70
     1
102
RTVSPropertyOp25
 70
     1
102
RTVSPropertyOp26
 70
     1
102
RTVSPropertyOp27
 70
     1
102
RTVSPropertyOp28
 70
     1
102
RTVSPropertyOp29
 70
     1
102
RTVSPropertyOp30
 70
     1
102
RTVSPropertyOp31
 70
     1
102
RTVSPropertyOp32
 70
     1
102
RTVSPropertyOp33
 70
     1
102
RTVSPropertyOp34
 70
     1
102
RTVSPropertyOp35
 70
     1
102
RTVSPropertyOp36
 70
     1
102
RTVSPropertyOp37
 70
     1
102
RTVSPropertyOp38
 70
     1
102
RTVSPropertyOp39
 70
     1
102
RTVSPropertyOp40
 70
     1
102
RTVSPropertyOp41
 70
     1
102
RTVSPropertyOp42
 70
     1
102
RTVSPropertyOp43
 70
     1
102
RTVSPropertyOp44
 70
     1
102
RTVSPropertyOp45
 70
     1
102
RTVSPropertyOp46
 70
     1
102
RTVSPropertyOp47
 70
     1
102
RTVSPropertyOp48
 70
     1
102
RTVSPropertyOp49
 70
     1
102
RTVSPropertyOp50
 70
     1
102
RTVSPropertyOp51
 70
     0
102
RTVSPropertyOp52
 70
     0
102
RTVSPropertyOp53
 70
     1
102
RTVSPropertyOp54
 70
     1
102
RTVSPropertyOp55
 70
     1
102
RTVSPropertyOp56
 70
     1
102
RTVSPropertyOp57
 70
     1
102
RTVSPropertyOp58
 70
     1
102
RTVSPropertyOp59
 70
     1
102
RTVSPropertyOp60
 70
     1
102
RTVSPropertyOp61
 70
     1
102
RTVSPropertyOp62
 70
     1
  0
XRECORD
  5
C560
102
{ACAD_REACTORS
330
C55F
102
}
330
C55F
100
AcDbXrecord
280
     1
102
RTVSPost2010Prop28
280
     0
102
RTVSPost2010PropOp28
 70
     1
102
RTVSPost2010Prop29
280
     1
102
RTVSPost2010PropOp29
 70
     1
102
RTVSPost2010Prop30
280
     1
102
RTVSPost2010PropOp30
 70
     1
102
RTVSPost2010Prop31
280
     0
102
RTVSPost2010PropOp31
 70
     1
102
RTVSPost2010Prop32
280
     0
102
RTVSPost2010PropOp32
 70
     1
102
RTVSPost2010Prop33
280
     0
102
RTVSPost2010PropOp33
 70
     1
102
RTVSPost2010Prop34
280
     0
102
RTVSPost2010PropOp34
 70
     1
102
RTVSPost2010Prop35
280
     0
102
RTVSPost2010PropOp35
 70
     1
102
RTVSPost2010Prop36
280
     0
102
RTVSPost2010PropOp36
 70
     1
102
RTVSPost2010Prop37
 90
       50
102
RTVSPost2010PropOp37
 70
     1
102
RTVSPost2010Prop38
140
0.0
102
RTVSPost2010PropOp38
 70
     1
102
RTVSPost2010Prop39
140
1.0
102
RTVSPost2010PropOp39
 70
     1
102
RTVSPost2010Prop40
 90
        0
102
RTVSPost2010PropOp40
 70
     1
102
RTVSPost2010Prop41ColorIndex
 90
       18
102
RTVSPost2010Prop41ColorRGB
 90
        0
102
RTVSPost2010PropOp41
 70
     1
102
RTVSPost2010Prop42
 90
       50
102
RTVSPost2010PropOp42
 70
     1
102
RTVSPost2010Prop43
 90
        3
102
RTVSPost2010PropOp43
 70
     1
102
RTVSPost2010Prop44ColorIndex
 90
        5
102
RTVSPost2010Prop44ColorRGB
 90
      255
102
RTVSPost2010PropOp44
 70
     1
102
RTVSPost2010Prop45
280
     0
102
RTVSPost2010PropOp45
 70
     1
102
RTVSPost2010Prop46
 90
       50
102
RTVSPost2010PropOp46
 70
     1
102
RTVSPost2010Prop47
 90
       50
102
RTVSPost2010PropOp47
 70
     1
102
RTVSPost2010Prop48
 90
       50
102
RTVSPost2010PropOp48
 70
     1
102
RTVSPost2010Prop49
280
     0
102
RTVSPost2010PropOp49
 70
     1
102
RTVSPost2010Prop50
 90
       50
102
RTVSPost2010PropOp50
 70
     1
102
RTVSPost2010Prop51ColorIndex
 90
      256
102
RTVSPost2010Prop51ColorRGB
 90
-16777216
102
RTVSPost2010PropOp51
 70
     0
102
RTVSPost2010Prop52
140
1.0
102
RTVSPost2010PropOp52
 70
     0
102
RTVSPost2010Prop53
 90
        2
102
RTVSPost2010PropOp53
 70
     1
102
RTVSPost2010Prop54
  1
strokes_ogs.tif
102
RTVSPost2010PropOp54
 70
     1
102
RTVSPost2010Prop55
280
     0
102
RTVSPost2010PropOp55
 70
     1
102
RTVSPost2010Prop56
140
1.0
102
RTVSPost2010PropOp56
 70
     1
102
RTVSPost2010Prop57
140
1.0
102
RTVSPost2010PropOp57
 70
     1
102
RTVSPropertyOp0
 70
     1
102
RTVSPropertyOp1
 70
     1
102
RTVSPropertyOp2
 70
     1
102
RTVSPropertyOp3
 70
     1
102
RTVSPropertyOp4
 70
     1
102
RTVSPropertyOp5
 70
     1
102
RTVSPropertyOp6
 70
     1
102
RTVSPropertyOp7
 70
     1
102
RTVSPropertyOp8
 70
     1
102
RTVSPropertyOp9
 70
     1
102
RTVSPropertyOp10
 70
     1
102
RTVSPropertyOp11
 70
     1
102
RTVSPropertyOp12
 70
     1
102
RTVSPropertyOp13
 70
     1
102
RTVSPropertyOp14
 70
     1
102
RTVSPropertyOp15
 70
     1
102
RTVSPropertyOp16
 70
     1
102
RTVSPropertyOp17
 70
     1
102
RTVSPropertyOp18
 70
     1
102
RTVSPropertyOp19
 70
     1
102
RTVSPropertyOp20
 70
     1
102
RTVSPropertyOp21
 70
     1
102
RTVSPropertyOp22
 70
     1
102
RTVSPropertyOp23
 70
     1
102
RTVSPropertyOp24
 70
     1
102
RTVSPropertyOp25
 70
     1
102
RTVSPropertyOp26
 70
     1
102
RTVSPropertyOp27
 70
     1
102
RTVSPropertyOp28
 70
     1
102
RTVSPropertyOp29
 70
     1
102
RTVSPropertyOp30
 70
     1
102
RTVSPropertyOp31
 70
     1
102
RTVSPropertyOp32
 70
     1
102
RTVSPropertyOp33
 70
     1
102
RTVSPropertyOp34
 70
     1
102
RTVSPropertyOp35
 70
     1
102
RTVSPropertyOp36
 70
     1
102
RTVSPropertyOp37
 70
     1
102
RTVSPropertyOp38
 70
     1
102
RTVSPropertyOp39
 70
     1
102
RTVSPropertyOp40
 70
     1
102
RTVSPropertyOp41
 70
     1
102
RTVSPropertyOp42
 70
     1
102
RTVSPropertyOp43
 70
     1
102
RTVSPropertyOp44
 70
     1
102
RTVSPropertyOp45
 70
     1
102
RTVSPropertyOp46
 70
     1
102
RTVSPropertyOp47
 70
     1
102
RTVSPropertyOp48
 70
     1
102
RTVSPropertyOp49
 70
     1
102
RTVSPropertyOp50
 70
     1
102
RTVSPropertyOp51
 70
     0
102
RTVSPropertyOp52
 70
     0
102
RTVSPropertyOp53
 70
     1
102
RTVSPropertyOp54
 70
     1
102
RTVSPropertyOp55
 70
     1
102
RTVSPropertyOp56
 70
     1
102
RTVSPropertyOp57
 70
     1
102
RTVSPropertyOp58
 70
     1
102
RTVSPropertyOp59
 70
     1
102
RTVSPropertyOp60
 70
     1
102
RTVSPropertyOp61
 70
     1
102
RTVSPropertyOp62
 70
     1
  0
XRECORD
  5
C568
102
{ACAD_REACTORS
330
C567
102
}
330
C567
100
AcDbXrecord
280
     1
102
RTVSPost2010Prop28
280
     0
102
RTVSPost2010PropOp28
 70
     1
102
RTVSPost2010Prop29
280
     1
102
RTVSPost2010PropOp29
 70
     1
102
RTVSPost2010Prop30
280
     1
102
RTVSPost2010PropOp30
 70
     1
102
RTVSPost2010Prop31
280
     0
102
RTVSPost2010PropOp31
 70
     1
102
RTVSPost2010Prop32
280
     0
102
RTVSPost2010PropOp32
 70
     1
102
RTVSPost2010Prop33
280
     0
102
RTVSPost2010PropOp33
 70
     1
102
RTVSPost2010Prop34
280
     0
102
RTVSPost2010PropOp34
 70
     1
102
RTVSPost2010Prop35
280
     0
102
RTVSPost2010PropOp35
 70
     1
102
RTVSPost2010Prop36
280
     0
102
RTVSPost2010PropOp36
 70
     1
102
RTVSPost2010Prop37
 90
       50
102
RTVSPost2010PropOp37
 70
     1
102
RTVSPost2010Prop38
140
0.0
102
RTVSPost2010PropOp38
 70
     1
102
RTVSPost2010Prop39
140
1.0
102
RTVSPost2010PropOp39
 70
     1
102
RTVSPost2010Prop40
 90
        0
102
RTVSPost2010PropOp40
 70
     1
102
RTVSPost2010Prop41ColorIndex
 90
       18
102
RTVSPost2010Prop41ColorRGB
 90
        0
102
RTVSPost2010PropOp41
 70
     1
102
RTVSPost2010Prop42
 90
       50
102
RTVSPost2010PropOp42
 70
     1
102
RTVSPost2010Prop43
 90
        3
102
RTVSPost2010PropOp43
 70
     1
102
RTVSPost2010Prop44ColorIndex
 90
        5
102
RTVSPost2010Prop44ColorRGB
 90
      255
102
RTVSPost2010PropOp44
 70
     1
102
RTVSPost2010Prop45
280
     0
102
RTVSPost2010PropOp45
 70
     1
102
RTVSPost2010Prop46
 90
       50
102
RTVSPost2010PropOp46
 70
     1
102
RTVSPost2010Prop47
 90
       50
102
RTVSPost2010PropOp47
 70
     1
102
RTVSPost2010Prop48
 90
       50
102
RTVSPost2010PropOp48
 70
     1
102
RTVSPost2010Prop49
280
     0
102
RTVSPost2010PropOp49
 70
     1
102
RTVSPost2010Prop50
 90
       50
102
RTVSPost2010PropOp50
 70
     1
102
RTVSPost2010Prop51ColorIndex
 90
      256
102
RTVSPost2010Prop51ColorRGB
 90
-16777216
102
RTVSPost2010PropOp51
 70
     0
102
RTVSPost2010Prop52
140
1.0
102
RTVSPost2010PropOp52
 70
     0
102
RTVSPost2010Prop53
 90
        2
102
RTVSPost2010PropOp53
 70
     1
102
RTVSPost2010Prop54
  1
strokes_ogs.tif
102
RTVSPost2010PropOp54
 70
     1
102
RTVSPost2010Prop55
280
     0
102
RTVSPost2010PropOp55
 70
     1
102
RTVSPost2010Prop56
140
1.0
102
RTVSPost2010PropOp56
 70
     1
102
RTVSPost2010Prop57
140
1.0
102
RTVSPost2010PropOp57
 70
     1
102
RTVSPropertyOp0
 70
     1
102
RTVSPropertyOp1
 70
     1
102
RTVSPropertyOp2
 70
     1
102
RTVSPropertyOp3
 70
     1
102
RTVSPropertyOp4
 70
     1
102
RTVSPropertyOp5
 70
     1
102
RTVSPropertyOp6
 70
     1
102
RTVSPropertyOp7
 70
     1
102
RTVSPropertyOp8
 70
     1
102
RTVSPropertyOp9
 70
     1
102
RTVSPropertyOp10
 70
     1
102
RTVSPropertyOp11
 70
     1
102
RTVSPropertyOp12
 70
     1
102
RTVSPropertyOp13
 70
     1
102
RTVSPropertyOp14
 70
     1
102
RTVSPropertyOp15
 70
     1
102
RTVSPropertyOp16
 70
     1
102
RTVSPropertyOp17
 70
     1
102
RTVSPropertyOp18
 70
     1
102
RTVSPropertyOp19
 70
     1
102
RTVSPropertyOp20
 70
     1
102
RTVSPropertyOp21
 70
     1
102
RTVSPropertyOp22
 70
     1
102
RTVSPropertyOp23
 70
     1
102
RTVSPropertyOp24
 70
     1
102
RTVSPropertyOp25
 70
     1
102
RTVSPropertyOp26
 70
     1
102
RTVSPropertyOp27
 70
     1
102
RTVSPropertyOp28
 70
     1
102
RTVSPropertyOp29
 70
     1
102
RTVSPropertyOp30
 70
     1
102
RTVSPropertyOp31
 70
     1
102
RTVSPropertyOp32
 70
     1
102
RTVSPropertyOp33
 70
     1
102
RTVSPropertyOp34
 70
     1
102
RTVSPropertyOp35
 70
     1
102
RTVSPropertyOp36
 70
     1
102
RTVSPropertyOp37
 70
     1
102
RTVSPropertyOp38
 70
     1
102
RTVSPropertyOp39
 70
     1
102
RTVSPropertyOp40
 70
     1
102
RTVSPropertyOp41
 70
     1
102
RTVSPropertyOp42
 70
     1
102
RTVSPropertyOp43
 70
     1
102
RTVSPropertyOp44
 70
     1
102
RTVSPropertyOp45
 70
     1
102
RTVSPropertyOp46
 70
     1
102
RTVSPropertyOp47
 70
     1
102
RTVSPropertyOp48
 70
     1
102
RTVSPropertyOp49
 70
     1
102
RTVSPropertyOp50
 70
     1
102
RTVSPropertyOp51
 70
     0
102
RTVSPropertyOp52
 70
     0
102
RTVSPropertyOp53
 70
     1
102
RTVSPropertyOp54
 70
     1
102
RTVSPropertyOp55
 70
     1
102
RTVSPropertyOp56
 70
     1
102
RTVSPropertyOp57
 70
     1
102
RTVSPropertyOp58
 70
     1
102
RTVSPropertyOp59
 70
     1
102
RTVSPropertyOp60
 70
     1
102
RTVSPropertyOp61
 70
     1
102
RTVSPropertyOp62
 70
     1
  0
XRECORD
  5
C55A
102
{ACAD_REACTORS
330
C559
102
}
330
C559
100
AcDbXrecord
280
     1
102
RTVSPost2010Prop28
280
     0
102
RTVSPost2010PropOp28
 70
     1
102
RTVSPost2010Prop29
280
     1
102
RTVSPost2010PropOp29
 70
     1
102
RTVSPost2010Prop30
280
     1
102
RTVSPost2010PropOp30
 70
     1
102
RTVSPost2010Prop31
280
     0
102
RTVSPost2010PropOp31
 70
     1
102
RTVSPost2010Prop32
280
     0
102
RTVSPost2010PropOp32
 70
     1
102
RTVSPost2010Prop33
280
     0
102
RTVSPost2010PropOp33
 70
     1
102
RTVSPost2010Prop34
280
     0
102
RTVSPost2010PropOp34
 70
     1
102
RTVSPost2010Prop35
280
     0
102
RTVSPost2010PropOp35
 70
     1
102
RTVSPost2010Prop36
280
     0
102
RTVSPost2010PropOp36
 70
     1
102
RTVSPost2010Prop37
 90
       50
102
RTVSPost2010PropOp37
 70
     1
102
RTVSPost2010Prop38
140
0.0
102
RTVSPost2010PropOp38
 70
     1
102
RTVSPost2010Prop39
140
1.0
102
RTVSPost2010PropOp39
 70
     1
102
RTVSPost2010Prop40
 90
        0
102
RTVSPost2010PropOp40
 70
     1
102
RTVSPost2010Prop41ColorIndex
 90
       18
102
RTVSPost2010Prop41ColorRGB
 90
        0
102
RTVSPost2010PropOp41
 70
     1
102
RTVSPost2010Prop42
 90
       50
102
RTVSPost2010PropOp42
 70
     1
102
RTVSPost2010Prop43
 90
        3
102
RTVSPost2010PropOp43
 70
     1
102
RTVSPost2010Prop44ColorIndex
 90
        5
102
RTVSPost2010Prop44ColorRGB
 90
      255
102
RTVSPost2010PropOp44
 70
     1
102
RTVSPost2010Prop45
280
     0
102
RTVSPost2010PropOp45
 70
     1
102
RTVSPost2010Prop46
 90
       50
102
RTVSPost2010PropOp46
 70
     1
102
RTVSPost2010Prop47
 90
       50
102
RTVSPost2010PropOp47
 70
     1
102
RTVSPost2010Prop48
 90
       50
102
RTVSPost2010PropOp48
 70
     1
102
RTVSPost2010Prop49
280
     0
102
RTVSPost2010PropOp49
 70
     1
102
RTVSPost2010Prop50
 90
       50
102
RTVSPost2010PropOp50
 70
     1
102
RTVSPost2010Prop51ColorIndex
 90
      256
102
RTVSPost2010Prop51ColorRGB
 90
-16777216
102
RTVSPost2010PropOp51
 70
     0
102
RTVSPost2010Prop52
140
1.0
102
RTVSPost2010PropOp52
 70
     0
102
RTVSPost2010Prop53
 90
        2
102
RTVSPost2010PropOp53
 70
     1
102
RTVSPost2010Prop54
  1
strokes_ogs.tif
102
RTVSPost2010PropOp54
 70
     1
102
RTVSPost2010Prop55
280
     0
102
RTVSPost2010PropOp55
 70
     1
102
RTVSPost2010Prop56
140
1.0
102
RTVSPost2010PropOp56
 70
     1
102
RTVSPost2010Prop57
140
1.0
102
RTVSPost2010PropOp57
 70
     1
102
RTVSPropertyOp0
 70
     1
102
RTVSPropertyOp1
 70
     1
102
RTVSPropertyOp2
 70
     1
102
RTVSPropertyOp3
 70
     1
102
RTVSPropertyOp4
 70
     1
102
RTVSPropertyOp5
 70
     1
102
RTVSPropertyOp6
 70
     1
102
RTVSPropertyOp7
 70
     1
102
RTVSPropertyOp8
 70
     1
102
RTVSPropertyOp9
 70
     1
102
RTVSPropertyOp10
 70
     1
102
RTVSPropertyOp11
 70
     1
102
RTVSPropertyOp12
 70
     1
102
RTVSPropertyOp13
 70
     1
102
RTVSPropertyOp14
 70
     1
102
RTVSPropertyOp15
 70
     1
102
RTVSPropertyOp16
 70
     1
102
RTVSPropertyOp17
 70
     1
102
RTVSPropertyOp18
 70
     1
102
RTVSPropertyOp19
 70
     1
102
RTVSPropertyOp20
 70
     1
102
RTVSPropertyOp21
 70
     1
102
RTVSPropertyOp22
 70
     1
102
RTVSPropertyOp23
 70
     1
102
RTVSPropertyOp24
 70
     1
102
RTVSPropertyOp25
 70
     1
102
RTVSPropertyOp26
 70
     1
102
RTVSPropertyOp27
 70
     1
102
RTVSPropertyOp28
 70
     1
102
RTVSPropertyOp29
 70
     1
102
RTVSPropertyOp30
 70
     1
102
RTVSPropertyOp31
 70
     1
102
RTVSPropertyOp32
 70
     1
102
RTVSPropertyOp33
 70
     1
102
RTVSPropertyOp34
 70
     1
102
RTVSPropertyOp35
 70
     1
102
RTVSPropertyOp36
 70
     1
102
RTVSPropertyOp37
 70
     1
102
RTVSPropertyOp38
 70
     1
102
RTVSPropertyOp39
 70
     1
102
RTVSPropertyOp40
 70
     1
102
RTVSPropertyOp41
 70
     1
102
RTVSPropertyOp42
 70
     1
102
RTVSPropertyOp43
 70
     1
102
RTVSPropertyOp44
 70
     1
102
RTVSPropertyOp45
 70
     1
102
RTVSPropertyOp46
 70
     1
102
RTVSPropertyOp47
 70
     1
102
RTVSPropertyOp48
 70
     1
102
RTVSPropertyOp49
 70
     1
102
RTVSPropertyOp50
 70
     1
102
RTVSPropertyOp51
 70
     0
102
RTVSPropertyOp52
 70
     0
102
RTVSPropertyOp53
 70
     1
102
RTVSPropertyOp54
 70
     1
102
RTVSPropertyOp55
 70
     1
102
RTVSPropertyOp56
 70
     1
102
RTVSPropertyOp57
 70
     1
102
RTVSPropertyOp58
 70
     1
102
RTVSPropertyOp59
 70
     1
102
RTVSPropertyOp60
 70
     1
102
RTVSPropertyOp61
 70
     1
102
RTVSPropertyOp62
 70
     1
  0
XRECORD
  5
C55E
102
{ACAD_REACTORS
330
C55D
102
}
330
C55D
100
AcDbXrecord
280
     1
102
RTVSPost2010Prop28
280
     0
102
RTVSPost2010PropOp28
 70
     1
102
RTVSPost2010Prop29
280
     1
102
RTVSPost2010PropOp29
 70
     1
102
RTVSPost2010Prop30
280
     1
102
RTVSPost2010PropOp30
 70
     1
102
RTVSPost2010Prop31
280
     0
102
RTVSPost2010PropOp31
 70
     1
102
RTVSPost2010Prop32
280
     0
102
RTVSPost2010PropOp32
 70
     1
102
RTVSPost2010Prop33
280
     0
102
RTVSPost2010PropOp33
 70
     1
102
RTVSPost2010Prop34
280
     0
102
RTVSPost2010PropOp34
 70
     1
102
RTVSPost2010Prop35
280
     0
102
RTVSPost2010PropOp35
 70
     1
102
RTVSPost2010Prop36
280
     0
102
RTVSPost2010PropOp36
 70
     1
102
RTVSPost2010Prop37
 90
       50
102
RTVSPost2010PropOp37
 70
     1
102
RTVSPost2010Prop38
140
0.0
102
RTVSPost2010PropOp38
 70
     1
102
RTVSPost2010Prop39
140
1.0
102
RTVSPost2010PropOp39
 70
     1
102
RTVSPost2010Prop40
 90
        0
102
RTVSPost2010PropOp40
 70
     1
102
RTVSPost2010Prop41ColorIndex
 90
       18
102
RTVSPost2010Prop41ColorRGB
 90
        0
102
RTVSPost2010PropOp41
 70
     1
102
RTVSPost2010Prop42
 90
       50
102
RTVSPost2010PropOp42
 70
     1
102
RTVSPost2010Prop43
 90
        3
102
RTVSPost2010PropOp43
 70
     1
102
RTVSPost2010Prop44ColorIndex
 90
        5
102
RTVSPost2010Prop44ColorRGB
 90
      255
102
RTVSPost2010PropOp44
 70
     1
102
RTVSPost2010Prop45
280
     0
102
RTVSPost2010PropOp45
 70
     1
102
RTVSPost2010Prop46
 90
       50
102
RTVSPost2010PropOp46
 70
     1
102
RTVSPost2010Prop47
 90
       50
102
RTVSPost2010PropOp47
 70
     1
102
RTVSPost2010Prop48
 90
       50
102
RTVSPost2010PropOp48
 70
     1
102
RTVSPost2010Prop49
280
     0
102
RTVSPost2010PropOp49
 70
     1
102
RTVSPost2010Prop50
 90
       50
102
RTVSPost2010PropOp50
 70
     1
102
RTVSPost2010Prop51ColorIndex
 90
      256
102
RTVSPost2010Prop51ColorRGB
 90
-16777216
102
RTVSPost2010PropOp51
 70
     0
102
RTVSPost2010Prop52
140
1.0
102
RTVSPost2010PropOp52
 70
     0
102
RTVSPost2010Prop53
 90
        2
102
RTVSPost2010PropOp53
 70
     1
102
RTVSPost2010Prop54
  1
strokes_ogs.tif
102
RTVSPost2010PropOp54
 70
     1
102
RTVSPost2010Prop55
280
     0
102
RTVSPost2010PropOp55
 70
     1
102
RTVSPost2010Prop56
140
1.0
102
RTVSPost2010PropOp56
 70
     1
102
RTVSPost2010Prop57
140
1.0
102
RTVSPost2010PropOp57
 70
     1
102
RTVSPropertyOp0
 70
     1
102
RTVSPropertyOp1
 70
     1
102
RTVSPropertyOp2
 70
     1
102
RTVSPropertyOp3
 70
     1
102
RTVSPropertyOp4
 70
     1
102
RTVSPropertyOp5
 70
     1
102
RTVSPropertyOp6
 70
     1
102
RTVSPropertyOp7
 70
     1
102
RTVSPropertyOp8
 70
     1
102
RTVSPropertyOp9
 70
     1
102
RTVSPropertyOp10
 70
     1
102
RTVSPropertyOp11
 70
     1
102
RTVSPropertyOp12
 70
     1
102
RTVSPropertyOp13
 70
     1
102
RTVSPropertyOp14
 70
     1
102
RTVSPropertyOp15
 70
     1
102
RTVSPropertyOp16
 70
     1
102
RTVSPropertyOp17
 70
     1
102
RTVSPropertyOp18
 70
     1
102
RTVSPropertyOp19
 70
     1
102
RTVSPropertyOp20
 70
     1
102
RTVSPropertyOp21
 70
     1
102
RTVSPropertyOp22
 70
     1
102
RTVSPropertyOp23
 70
     1
102
RTVSPropertyOp24
 70
     1
102
RTVSPropertyOp25
 70
     1
102
RTVSPropertyOp26
 70
     1
102
RTVSPropertyOp27
 70
     1
102
RTVSPropertyOp28
 70
     1
102
RTVSPropertyOp29
 70
     1
102
RTVSPropertyOp30
 70
     1
102
RTVSPropertyOp31
 70
     1
102
RTVSPropertyOp32
 70
     1
102
RTVSPropertyOp33
 70
     1
102
RTVSPropertyOp34
 70
     1
102
RTVSPropertyOp35
 70
     1
102
RTVSPropertyOp36
 70
     1
102
RTVSPropertyOp37
 70
     1
102
RTVSPropertyOp38
 70
     1
102
RTVSPropertyOp39
 70
     1
102
RTVSPropertyOp40
 70
     1
102
RTVSPropertyOp41
 70
     1
102
RTVSPropertyOp42
 70
     1
102
RTVSPropertyOp43
 70
     1
102
RTVSPropertyOp44
 70
     1
102
RTVSPropertyOp45
 70
     1
102
RTVSPropertyOp46
 70
     1
102
RTVSPropertyOp47
 70
     1
102
RTVSPropertyOp48
 70
     1
102
RTVSPropertyOp49
 70
     1
102
RTVSPropertyOp50
 70
     1
102
RTVSPropertyOp51
 70
     0
102
RTVSPropertyOp52
 70
     0
102
RTVSPropertyOp53
 70
     1
102
RTVSPropertyOp54
 70
     1
102
RTVSPropertyOp55
 70
     1
102
RTVSPropertyOp56
 70
     1
102
RTVSPropertyOp57
 70
     1
102
RTVSPropertyOp58
 70
     1
102
RTVSPropertyOp59
 70
     1
102
RTVSPropertyOp60
 70
     1
102
RTVSPropertyOp61
 70
     1
102
RTVSPropertyOp62
 70
     1
  0
XRECORD
  5
C570
102
{ACAD_REACTORS
330
C56F
102
}
330
C56F
100
AcDbXrecord
280
     1
102
RTVSPost2010Prop28
280
     0
102
RTVSPost2010PropOp28
 70
     1
102
RTVSPost2010Prop29
280
     1
102
RTVSPost2010PropOp29
 70
     1
102
RTVSPost2010Prop30
280
     1
102
RTVSPost2010PropOp30
 70
     1
102
RTVSPost2010Prop31
280
     0
102
RTVSPost2010PropOp31
 70
     1
102
RTVSPost2010Prop32
280
     0
102
RTVSPost2010PropOp32
 70
     1
102
RTVSPost2010Prop33
280
     0
102
RTVSPost2010PropOp33
 70
     1
102
RTVSPost2010Prop34
280
     0
102
RTVSPost2010PropOp34
 70
     1
102
RTVSPost2010Prop35
280
     0
102
RTVSPost2010PropOp35
 70
     1
102
RTVSPost2010Prop36
280
     0
102
RTVSPost2010PropOp36
 70
     1
102
RTVSPost2010Prop37
 90
       50
102
RTVSPost2010PropOp37
 70
     1
102
RTVSPost2010Prop38
140
0.0
102
RTVSPost2010PropOp38
 70
     1
102
RTVSPost2010Prop39
140
1.0
102
RTVSPost2010PropOp39
 70
     1
102
RTVSPost2010Prop40
 90
        0
102
RTVSPost2010PropOp40
 70
     1
102
RTVSPost2010Prop41ColorIndex
 90
       18
102
RTVSPost2010Prop41ColorRGB
 90
        0
102
RTVSPost2010PropOp41
 70
     1
102
RTVSPost2010Prop42
 90
       50
102
RTVSPost2010PropOp42
 70
     1
102
RTVSPost2010Prop43
 90
        3
102
RTVSPost2010PropOp43
 70
     1
102
RTVSPost2010Prop44ColorIndex
 90
        5
102
RTVSPost2010Prop44ColorRGB
 90
      255
102
RTVSPost2010PropOp44
 70
     1
102
RTVSPost2010Prop45
280
     0
102
RTVSPost2010PropOp45
 70
     1
102
RTVSPost2010Prop46
 90
       50
102
RTVSPost2010PropOp46
 70
     1
102
RTVSPost2010Prop47
 90
       50
102
RTVSPost2010PropOp47
 70
     1
102
RTVSPost2010Prop48
 90
       50
102
RTVSPost2010PropOp48
 70
     1
102
RTVSPost2010Prop49
280
     0
102
RTVSPost2010PropOp49
 70
     1
102
RTVSPost2010Prop50
 90
       50
102
RTVSPost2010PropOp50
 70
     1
102
RTVSPost2010Prop51ColorIndex
 90
      256
102
RTVSPost2010Prop51ColorRGB
 90
-16777216
102
RTVSPost2010PropOp51
 70
     0
102
RTVSPost2010Prop52
140
1.0
102
RTVSPost2010PropOp52
 70
     0
102
RTVSPost2010Prop53
 90
        2
102
RTVSPost2010PropOp53
 70
     1
102
RTVSPost2010Prop54
  1
strokes_ogs.tif
102
RTVSPost2010PropOp54
 70
     1
102
RTVSPost2010Prop55
280
     0
102
RTVSPost2010PropOp55
 70
     1
102
RTVSPost2010Prop56
140
1.0
102
RTVSPost2010PropOp56
 70
     1
102
RTVSPost2010Prop57
140
1.0
102
RTVSPost2010PropOp57
 70
     1
102
RTVSPropertyOp0
 70
     0
102
RTVSPropertyOp1
 70
     0
102
RTVSPropertyOp2
 70
     0
102
RTVSPropertyOp3
 70
     0
102
RTVSPropertyOp4
 70
     0
102
RTVSPropertyOp5
 70
     0
102
RTVSPropertyOp6
 70
     0
102
RTVSPropertyOp7
 70
     0
102
RTVSPropertyOp8
 70
     0
102
RTVSPropertyOp9
 70
     0
102
RTVSPropertyOp10
 70
     0
102
RTVSPropertyOp11
 70
     0
102
RTVSPropertyOp12
 70
     0
102
RTVSPropertyOp13
 70
     0
102
RTVSPropertyOp14
 70
     2
102
RTVSPropertyOp15
 70
     0
102
RTVSPropertyOp16
 70
     0
102
RTVSPropertyOp17
 70
     0
102
RTVSPropertyOp18
 70
     0
102
RTVSPropertyOp19
 70
     0
102
RTVSPropertyOp20
 70
     0
102
RTVSPropertyOp21
 70
     0
102
RTVSPropertyOp22
 70
     0
102
RTVSPropertyOp23
 70
     0
102
RTVSPropertyOp24
 70
     0
102
RTVSPropertyOp25
 70
     0
102
RTVSPropertyOp26
 70
     0
102
RTVSPropertyOp27
 70
     0
102
RTVSPropertyOp28
 70
     1
102
RTVSPropertyOp29
 70
     1
102
RTVSPropertyOp30
 70
     1
102
RTVSPropertyOp31
 70
     1
102
RTVSPropertyOp32
 70
     1
102
RTVSPropertyOp33
 70
     1
102
RTVSPropertyOp34
 70
     1
102
RTVSPropertyOp35
 70
     1
102
RTVSPropertyOp36
 70
     1
102
RTVSPropertyOp37
 70
     1
102
RTVSPropertyOp38
 70
     1
102
RTVSPropertyOp39
 70
     1
102
RTVSPropertyOp40
 70
     1
102
RTVSPropertyOp41
 70
     1
102
RTVSPropertyOp42
 70
     1
102
RTVSPropertyOp43
 70
     1
102
RTVSPropertyOp44
 70
     1
102
RTVSPropertyOp45
 70
     1
102
RTVSPropertyOp46
 70
     1
102
RTVSPropertyOp47
 70
     1
102
RTVSPropertyOp48
 70
     1
102
RTVSPropertyOp49
 70
     1
102
RTVSPropertyOp50
 70
     1
102
RTVSPropertyOp51
 70
     0
102
RTVSPropertyOp52
 70
     0
102
RTVSPropertyOp53
 70
     1
102
RTVSPropertyOp54
 70
     1
102
RTVSPropertyOp55
 70
     1
102
RTVSPropertyOp56
 70
     1
102
RTVSPropertyOp57
 70
     1
102
RTVSPropertyOp58
 70
     1
102
RTVSPropertyOp59
 70
     1
102
RTVSPropertyOp60
 70
     1
102
RTVSPropertyOp61
 70
     1
102
RTVSPropertyOp62
 70
     1
  0
XRECORD
  5
C566
102
{ACAD_REACTORS
330
C565
102
}
330
C565
100
AcDbXrecord
280
     1
102
RTVSPost2010Prop28
280
     0
102
RTVSPost2010PropOp28
 70
     1
102
RTVSPost2010Prop29
280
     1
102
RTVSPost2010PropOp29
 70
     1
102
RTVSPost2010Prop30
280
     1
102
RTVSPost2010PropOp30
 70
     1
102
RTVSPost2010Prop31
280
     0
102
RTVSPost2010PropOp31
 70
     1
102
RTVSPost2010Prop32
280
     0
102
RTVSPost2010PropOp32
 70
     1
102
RTVSPost2010Prop33
280
     0
102
RTVSPost2010PropOp33
 70
     1
102
RTVSPost2010Prop34
280
     0
102
RTVSPost2010PropOp34
 70
     1
102
RTVSPost2010Prop35
280
     0
102
RTVSPost2010PropOp35
 70
     1
102
RTVSPost2010Prop36
280
     0
102
RTVSPost2010PropOp36
 70
     1
102
RTVSPost2010Prop37
 90
       50
102
RTVSPost2010PropOp37
 70
     1
102
RTVSPost2010Prop38
140
0.0
102
RTVSPost2010PropOp38
 70
     1
102
RTVSPost2010Prop39
140
1.0
102
RTVSPost2010PropOp39
 70
     1
102
RTVSPost2010Prop40
 90
        0
102
RTVSPost2010PropOp40
 70
     1
102
RTVSPost2010Prop41ColorIndex
 90
       18
102
RTVSPost2010Prop41ColorRGB
 90
        0
102
RTVSPost2010PropOp41
 70
     1
102
RTVSPost2010Prop42
 90
       50
102
RTVSPost2010PropOp42
 70
     1
102
RTVSPost2010Prop43
 90
        3
102
RTVSPost2010PropOp43
 70
     1
102
RTVSPost2010Prop44ColorIndex
 90
        5
102
RTVSPost2010Prop44ColorRGB
 90
      255
102
RTVSPost2010PropOp44
 70
     1
102
RTVSPost2010Prop45
280
     0
102
RTVSPost2010PropOp45
 70
     1
102
RTVSPost2010Prop46
 90
       50
102
RTVSPost2010PropOp46
 70
     1
102
RTVSPost2010Prop47
 90
       50
102
RTVSPost2010PropOp47
 70
     1
102
RTVSPost2010Prop48
 90
       50
102
RTVSPost2010PropOp48
 70
     1
102
RTVSPost2010Prop49
280
     0
102
RTVSPost2010PropOp49
 70
     1
102
RTVSPost2010Prop50
 90
       50
102
RTVSPost2010PropOp50
 70
     1
102
RTVSPost2010Prop51ColorIndex
 90
      256
102
RTVSPost2010Prop51ColorRGB
 90
-16777216
102
RTVSPost2010PropOp51
 70
     0
102
RTVSPost2010Prop52
140
1.0
102
RTVSPost2010PropOp52
 70
     0
102
RTVSPost2010Prop53
 90
        2
102
RTVSPost2010PropOp53
 70
     1
102
RTVSPost2010Prop54
  1
strokes_ogs.tif
102
RTVSPost2010PropOp54
 70
     1
102
RTVSPost2010Prop55
280
     0
102
RTVSPost2010PropOp55
 70
     1
102
RTVSPost2010Prop56
140
1.0
102
RTVSPost2010PropOp56
 70
     1
102
RTVSPost2010Prop57
140
1.0
102
RTVSPost2010PropOp57
 70
     1
102
RTVSPropertyOp0
 70
     1
102
RTVSPropertyOp1
 70
     1
102
RTVSPropertyOp2
 70
     1
102
RTVSPropertyOp3
 70
     1
102
RTVSPropertyOp4
 70
     1
102
RTVSPropertyOp5
 70
     1
102
RTVSPropertyOp6
 70
     1
102
RTVSPropertyOp7
 70
     1
102
RTVSPropertyOp8
 70
     1
102
RTVSPropertyOp9
 70
     1
102
RTVSPropertyOp10
 70
     1
102
RTVSPropertyOp11
 70
     1
102
RTVSPropertyOp12
 70
     1
102
RTVSPropertyOp13
 70
     1
102
RTVSPropertyOp14
 70
     1
102
RTVSPropertyOp15
 70
     1
102
RTVSPropertyOp16
 70
     1
102
RTVSPropertyOp17
 70
     1
102
RTVSPropertyOp18
 70
     1
102
RTVSPropertyOp19
 70
     1
102
RTVSPropertyOp20
 70
     1
102
RTVSPropertyOp21
 70
     1
102
RTVSPropertyOp22
 70
     1
102
RTVSPropertyOp23
 70
     1
102
RTVSPropertyOp24
 70
     1
102
RTVSPropertyOp25
 70
     1
102
RTVSPropertyOp26
 70
     1
102
RTVSPropertyOp27
 70
     1
102
RTVSPropertyOp28
 70
     1
102
RTVSPropertyOp29
 70
     1
102
RTVSPropertyOp30
 70
     1
102
RTVSPropertyOp31
 70
     1
102
RTVSPropertyOp32
 70
     1
102
RTVSPropertyOp33
 70
     1
102
RTVSPropertyOp34
 70
     1
102
RTVSPropertyOp35
 70
     1
102
RTVSPropertyOp36
 70
     1
102
RTVSPropertyOp37
 70
     1
102
RTVSPropertyOp38
 70
     1
102
RTVSPropertyOp39
 70
     1
102
RTVSPropertyOp40
 70
     1
102
RTVSPropertyOp41
 70
     1
102
RTVSPropertyOp42
 70
     1
102
RTVSPropertyOp43
 70
     1
102
RTVSPropertyOp44
 70
     1
102
RTVSPropertyOp45
 70
     1
102
RTVSPropertyOp46
 70
     1
102
RTVSPropertyOp47
 70
     1
102
RTVSPropertyOp48
 70
     1
102
RTVSPropertyOp49
 70
     1
102
RTVSPropertyOp50
 70
     1
102
RTVSPropertyOp51
 70
     0
102
RTVSPropertyOp52
 70
     0
102
RTVSPropertyOp53
 70
     1
102
RTVSPropertyOp54
 70
     1
102
RTVSPropertyOp55
 70
     1
102
RTVSPropertyOp56
 70
     1
102
RTVSPropertyOp57
 70
     1
102
RTVSPropertyOp58
 70
     1
102
RTVSPropertyOp59
 70
     1
102
RTVSPropertyOp60
 70
     1
102
RTVSPropertyOp61
 70
     1
102
RTVSPropertyOp62
 70
     1
  0
XRECORD
  5
C54A
102
{ACAD_REACTORS
330
C549
102
}
330
C549
100
AcDbXrecord
280
     1
102
RTVSPost2010Prop28
280
     0
102
RTVSPost2010PropOp28
 70
     1
102
RTVSPost2010Prop29
280
     1
102
RTVSPost2010PropOp29
 70
     1
102
RTVSPost2010Prop30
280
     1
102
RTVSPost2010PropOp30
 70
     1
102
RTVSPost2010Prop31
280
     0
102
RTVSPost2010PropOp31
 70
     1
102
RTVSPost2010Prop32
280
     0
102
RTVSPost2010PropOp32
 70
     1
102
RTVSPost2010Prop33
280
     0
102
RTVSPost2010PropOp33
 70
     1
102
RTVSPost2010Prop34
280
     0
102
RTVSPost2010PropOp34
 70
     1
102
RTVSPost2010Prop35
280
     0
102
RTVSPost2010PropOp35
 70
     1
102
RTVSPost2010Prop36
280
     0
102
RTVSPost2010PropOp36
 70
     1
102
RTVSPost2010Prop37
 90
       50
102
RTVSPost2010PropOp37
 70
     1
102
RTVSPost2010Prop38
140
0.0
102
RTVSPost2010PropOp38
 70
     1
102
RTVSPost2010Prop39
140
1.0
102
RTVSPost2010PropOp39
 70
     1
102
RTVSPost2010Prop40
 90
        0
102
RTVSPost2010PropOp40
 70
     1
102
RTVSPost2010Prop41ColorIndex
 90
       18
102
RTVSPost2010Prop41ColorRGB
 90
        0
102
RTVSPost2010PropOp41
 70
     1
102
RTVSPost2010Prop42
 90
       50
102
RTVSPost2010PropOp42
 70
     1
102
RTVSPost2010Prop43
 90
        3
102
RTVSPost2010PropOp43
 70
     1
102
RTVSPost2010Prop44ColorIndex
 90
        5
102
RTVSPost2010Prop44ColorRGB
 90
      255
102
RTVSPost2010PropOp44
 70
     1
102
RTVSPost2010Prop45
280
     0
102
RTVSPost2010PropOp45
 70
     1
102
RTVSPost2010Prop46
 90
       50
102
RTVSPost2010PropOp46
 70
     1
102
RTVSPost2010Prop47
 90
       50
102
RTVSPost2010PropOp47
 70
     1
102
RTVSPost2010Prop48
 90
       50
102
RTVSPost2010PropOp48
 70
     1
102
RTVSPost2010Prop49
280
     0
102
RTVSPost2010PropOp49
 70
     1
102
RTVSPost2010Prop50
 90
       50
102
RTVSPost2010PropOp50
 70
     1
102
RTVSPost2010Prop51ColorIndex
 90
      256
102
RTVSPost2010Prop51ColorRGB
 90
-16777216
102
RTVSPost2010PropOp51
 70
     0
102
RTVSPost2010Prop52
140
1.0
102
RTVSPost2010PropOp52
 70
     0
102
RTVSPost2010Prop53
 90
        2
102
RTVSPost2010PropOp53
 70
     1
102
RTVSPost2010Prop54
  1
strokes_ogs.tif
102
RTVSPost2010PropOp54
 70
     1
102
RTVSPost2010Prop55
280
     0
102
RTVSPost2010PropOp55
 70
     1
102
RTVSPost2010Prop56
140
1.0
102
RTVSPost2010PropOp56
 70
     1
102
RTVSPost2010Prop57
140
1.0
102
RTVSPost2010PropOp57
 70
     1
102
RTVSPropertyOp0
 70
     1
102
RTVSPropertyOp1
 70
     1
102
RTVSPropertyOp2
 70
     1
102
RTVSPropertyOp3
 70
     1
102
RTVSPropertyOp4
 70
     1
102
RTVSPropertyOp5
 70
     1
102
RTVSPropertyOp6
 70
     1
102
RTVSPropertyOp7
 70
     1
102
RTVSPropertyOp8
 70
     1
102
RTVSPropertyOp9
 70
     1
102
RTVSPropertyOp10
 70
     1
102
RTVSPropertyOp11
 70
     1
102
RTVSPropertyOp12
 70
     1
102
RTVSPropertyOp13
 70
     1
102
RTVSPropertyOp14
 70
     1
102
RTVSPropertyOp15
 70
     1
102
RTVSPropertyOp16
 70
     1
102
RTVSPropertyOp17
 70
     1
102
RTVSPropertyOp18
 70
     1
102
RTVSPropertyOp19
 70
     1
102
RTVSPropertyOp20
 70
     1
102
RTVSPropertyOp21
 70
     1
102
RTVSPropertyOp22
 70
     1
102
RTVSPropertyOp23
 70
     1
102
RTVSPropertyOp24
 70
     1
102
RTVSPropertyOp25
 70
     1
102
RTVSPropertyOp26
 70
     1
102
RTVSPropertyOp27
 70
     1
102
RTVSPropertyOp28
 70
     1
102
RTVSPropertyOp29
 70
     1
102
RTVSPropertyOp30
 70
     1
102
RTVSPropertyOp31
 70
     1
102
RTVSPropertyOp32
 70
     1
102
RTVSPropertyOp33
 70
     1
102
RTVSPropertyOp34
 70
     1
102
RTVSPropertyOp35
 70
     1
102
RTVSPropertyOp36
 70
     1
102
RTVSPropertyOp37
 70
     1
102
RTVSPropertyOp38
 70
     1
102
RTVSPropertyOp39
 70
     1
102
RTVSPropertyOp40
 70
     1
102
RTVSPropertyOp41
 70
     1
102
RTVSPropertyOp42
 70
     1
102
RTVSPropertyOp43
 70
     1
102
RTVSPropertyOp44
 70
     1
102
RTVSPropertyOp45
 70
     1
102
RTVSPropertyOp46
 70
     1
102
RTVSPropertyOp47
 70
     1
102
RTVSPropertyOp48
 70
     1
102
RTVSPropertyOp49
 70
     1
102
RTVSPropertyOp50
 70
     1
102
RTVSPropertyOp51
 70
     0
102
RTVSPropertyOp52
 70
     0
102
RTVSPropertyOp53
 70
     1
102
RTVSPropertyOp54
 70
     1
102
RTVSPropertyOp55
 70
     1
102
RTVSPropertyOp56
 70
     1
102
RTVSPropertyOp57
 70
     1
102
RTVSPropertyOp58
 70
     1
102
RTVSPropertyOp59
 70
     1
102
RTVSPropertyOp60
 70
     1
102
RTVSPropertyOp61
 70
     1
102
RTVSPropertyOp62
 70
     1
  0
XRECORD
  5
C54C
102
{ACAD_REACTORS
330
C54B
102
}
330
C54B
100
AcDbXrecord
280
     1
102
RTVSPost2010Prop28
280
     0
102
RTVSPost2010PropOp28
 70
     1
102
RTVSPost2010Prop29
280
     1
102
RTVSPost2010PropOp29
 70
     1
102
RTVSPost2010Prop30
280
     1
102
RTVSPost2010PropOp30
 70
     1
102
RTVSPost2010Prop31
280
     0
102
RTVSPost2010PropOp31
 70
     1
102
RTVSPost2010Prop32
280
     0
102
RTVSPost2010PropOp32
 70
     1
102
RTVSPost2010Prop33
280
     0
102
RTVSPost2010PropOp33
 70
     1
102
RTVSPost2010Prop34
280
     0
102
RTVSPost2010PropOp34
 70
     1
102
RTVSPost2010Prop35
280
     0
102
RTVSPost2010PropOp35
 70
     1
102
RTVSPost2010Prop36
280
     0
102
RTVSPost2010PropOp36
 70
     1
102
RTVSPost2010Prop37
 90
       50
102
RTVSPost2010PropOp37
 70
     1
102
RTVSPost2010Prop38
140
0.0
102
RTVSPost2010PropOp38
 70
     1
102
RTVSPost2010Prop39
140
1.0
102
RTVSPost2010PropOp39
 70
     1
102
RTVSPost2010Prop40
 90
        0
102
RTVSPost2010PropOp40
 70
     1
102
RTVSPost2010Prop41ColorIndex
 90
       18
102
RTVSPost2010Prop41ColorRGB
 90
        0
102
RTVSPost2010PropOp41
 70
     1
102
RTVSPost2010Prop42
 90
       50
102
RTVSPost2010PropOp42
 70
     1
102
RTVSPost2010Prop43
 90
        3
102
RTVSPost2010PropOp43
 70
     1
102
RTVSPost2010Prop44ColorIndex
 90
        5
102
RTVSPost2010Prop44ColorRGB
 90
      255
102
RTVSPost2010PropOp44
 70
     1
102
RTVSPost2010Prop45
280
     0
102
RTVSPost2010PropOp45
 70
     1
102
RTVSPost2010Prop46
 90
       50
102
RTVSPost2010PropOp46
 70
     1
102
RTVSPost2010Prop47
 90
       50
102
RTVSPost2010PropOp47
 70
     1
102
RTVSPost2010Prop48
 90
       50
102
RTVSPost2010PropOp48
 70
     1
102
RTVSPost2010Prop49
280
     0
102
RTVSPost2010PropOp49
 70
     1
102
RTVSPost2010Prop50
 90
       50
102
RTVSPost2010PropOp50
 70
     1
102
RTVSPost2010Prop51ColorIndex
 90
      256
102
RTVSPost2010Prop51ColorRGB
 90
-16777216
102
RTVSPost2010PropOp51
 70
     0
102
RTVSPost2010Prop52
140
1.0
102
RTVSPost2010PropOp52
 70
     0
102
RTVSPost2010Prop53
 90
        2
102
RTVSPost2010PropOp53
 70
     1
102
RTVSPost2010Prop54
  1
strokes_ogs.tif
102
RTVSPost2010PropOp54
 70
     1
102
RTVSPost2010Prop55
280
     0
102
RTVSPost2010PropOp55
 70
     1
102
RTVSPost2010Prop56
140
1.0
102
RTVSPost2010PropOp56
 70
     1
102
RTVSPost2010Prop57
140
1.0
102
RTVSPost2010PropOp57
 70
     1
102
RTVSPropertyOp0
 70
     1
102
RTVSPropertyOp1
 70
     1
102
RTVSPropertyOp2
 70
     1
102
RTVSPropertyOp3
 70
     1
102
RTVSPropertyOp4
 70
     1
102
RTVSPropertyOp5
 70
     1
102
RTVSPropertyOp6
 70
     1
102
RTVSPropertyOp7
 70
     1
102
RTVSPropertyOp8
 70
     1
102
RTVSPropertyOp9
 70
     1
102
RTVSPropertyOp10
 70
     1
102
RTVSPropertyOp11
 70
     1
102
RTVSPropertyOp12
 70
     1
102
RTVSPropertyOp13
 70
     1
102
RTVSPropertyOp14
 70
     1
102
RTVSPropertyOp15
 70
     1
102
RTVSPropertyOp16
 70
     1
102
RTVSPropertyOp17
 70
     1
102
RTVSPropertyOp18
 70
     1
102
RTVSPropertyOp19
 70
     1
102
RTVSPropertyOp20
 70
     1
102
RTVSPropertyOp21
 70
     1
102
RTVSPropertyOp22
 70
     1
102
RTVSPropertyOp23
 70
     1
102
RTVSPropertyOp24
 70
     1
102
RTVSPropertyOp25
 70
     1
102
RTVSPropertyOp26
 70
     1
102
RTVSPropertyOp27
 70
     1
102
RTVSPropertyOp28
 70
     1
102
RTVSPropertyOp29
 70
     1
102
RTVSPropertyOp30
 70
     1
102
RTVSPropertyOp31
 70
     1
102
RTVSPropertyOp32
 70
     1
102
RTVSPropertyOp33
 70
     1
102
RTVSPropertyOp34
 70
     1
102
RTVSPropertyOp35
 70
     1
102
RTVSPropertyOp36
 70
     1
102
RTVSPropertyOp37
 70
     1
102
RTVSPropertyOp38
 70
     1
102
RTVSPropertyOp39
 70
     1
102
RTVSPropertyOp40
 70
     1
102
RTVSPropertyOp41
 70
     1
102
RTVSPropertyOp42
 70
     1
102
RTVSPropertyOp43
 70
     1
102
RTVSPropertyOp44
 70
     1
102
RTVSPropertyOp45
 70
     1
102
RTVSPropertyOp46
 70
     1
102
RTVSPropertyOp47
 70
     1
102
RTVSPropertyOp48
 70
     1
102
RTVSPropertyOp49
 70
     1
102
RTVSPropertyOp50
 70
     1
102
RTVSPropertyOp51
 70
     0
102
RTVSPropertyOp52
 70
     0
102
RTVSPropertyOp53
 70
     1
102
RTVSPropertyOp54
 70
     1
102
RTVSPropertyOp55
 70
     1
102
RTVSPropertyOp56
 70
     1
102
RTVSPropertyOp57
 70
     1
102
RTVSPropertyOp58
 70
     1
102
RTVSPropertyOp59
 70
     1
102
RTVSPropertyOp60
 70
     1
102
RTVSPropertyOp61
 70
     1
102
RTVSPropertyOp62
 70
     1
  0
XRECORD
  5
C54E
102
{ACAD_REACTORS
330
C54D
102
}
330
C54D
100
AcDbXrecord
280
     1
102
RTVSPost2010Prop28
280
     0
102
RTVSPost2010PropOp28
 70
     1
102
RTVSPost2010Prop29
280
     1
102
RTVSPost2010PropOp29
 70
     1
102
RTVSPost2010Prop30
280
     1
102
RTVSPost2010PropOp30
 70
     1
102
RTVSPost2010Prop31
280
     0
102
RTVSPost2010PropOp31
 70
     1
102
RTVSPost2010Prop32
280
     0
102
RTVSPost2010PropOp32
 70
     1
102
RTVSPost2010Prop33
280
     0
102
RTVSPost2010PropOp33
 70
     1
102
RTVSPost2010Prop34
280
     0
102
RTVSPost2010PropOp34
 70
     1
102
RTVSPost2010Prop35
280
     0
102
RTVSPost2010PropOp35
 70
     1
102
RTVSPost2010Prop36
280
     0
102
RTVSPost2010PropOp36
 70
     1
102
RTVSPost2010Prop37
 90
       50
102
RTVSPost2010PropOp37
 70
     1
102
RTVSPost2010Prop38
140
0.0
102
RTVSPost2010PropOp38
 70
     1
102
RTVSPost2010Prop39
140
1.0
102
RTVSPost2010PropOp39
 70
     1
102
RTVSPost2010Prop40
 90
        0
102
RTVSPost2010PropOp40
 70
     1
102
RTVSPost2010Prop41ColorIndex
 90
       18
102
RTVSPost2010Prop41ColorRGB
 90
        0
102
RTVSPost2010PropOp41
 70
     1
102
RTVSPost2010Prop42
 90
       50
102
RTVSPost2010PropOp42
 70
     1
102
RTVSPost2010Prop43
 90
        3
102
RTVSPost2010PropOp43
 70
     1
102
RTVSPost2010Prop44ColorIndex
 90
        5
102
RTVSPost2010Prop44ColorRGB
 90
      255
102
RTVSPost2010PropOp44
 70
     1
102
RTVSPost2010Prop45
280
     0
102
RTVSPost2010PropOp45
 70
     1
102
RTVSPost2010Prop46
 90
       50
102
RTVSPost2010PropOp46
 70
     1
102
RTVSPost2010Prop47
 90
       50
102
RTVSPost2010PropOp47
 70
     1
102
RTVSPost2010Prop48
 90
       50
102
RTVSPost2010PropOp48
 70
     1
102
RTVSPost2010Prop49
280
     0
102
RTVSPost2010PropOp49
 70
     1
102
RTVSPost2010Prop50
 90
       50
102
RTVSPost2010PropOp50
 70
     1
102
RTVSPost2010Prop51ColorIndex
 90
      256
102
RTVSPost2010Prop51ColorRGB
 90
-16777216
102
RTVSPost2010PropOp51
 70
     0
102
RTVSPost2010Prop52
140
1.0
102
RTVSPost2010PropOp52
 70
     0
102
RTVSPost2010Prop53
 90
        2
102
RTVSPost2010PropOp53
 70
     1
102
RTVSPost2010Prop54
  1
strokes_ogs.tif
102
RTVSPost2010PropOp54
 70
     1
102
RTVSPost2010Prop55
280
     0
102
RTVSPost2010PropOp55
 70
     1
102
RTVSPost2010Prop56
140
1.0
102
RTVSPost2010PropOp56
 70
     1
102
RTVSPost2010Prop57
140
1.0
102
RTVSPost2010PropOp57
 70
     1
102
RTVSPropertyOp0
 70
     1
102
RTVSPropertyOp1
 70
     1
102
RTVSPropertyOp2
 70
     1
102
RTVSPropertyOp3
 70
     1
102
RTVSPropertyOp4
 70
     1
102
RTVSPropertyOp5
 70
     1
102
RTVSPropertyOp6
 70
     1
102
RTVSPropertyOp7
 70
     1
102
RTVSPropertyOp8
 70
     1
102
RTVSPropertyOp9
 70
     1
102
RTVSPropertyOp10
 70
     1
102
RTVSPropertyOp11
 70
     1
102
RTVSPropertyOp12
 70
     1
102
RTVSPropertyOp13
 70
     1
102
RTVSPropertyOp14
 70
     1
102
RTVSPropertyOp15
 70
     1
102
RTVSPropertyOp16
 70
     1
102
RTVSPropertyOp17
 70
     1
102
RTVSPropertyOp18
 70
     1
102
RTVSPropertyOp19
 70
     1
102
RTVSPropertyOp20
 70
     1
102
RTVSPropertyOp21
 70
     1
102
RTVSPropertyOp22
 70
     1
102
RTVSPropertyOp23
 70
     1
102
RTVSPropertyOp24
 70
     1
102
RTVSPropertyOp25
 70
     1
102
RTVSPropertyOp26
 70
     1
102
RTVSPropertyOp27
 70
     1
102
RTVSPropertyOp28
 70
     1
102
RTVSPropertyOp29
 70
     1
102
RTVSPropertyOp30
 70
     1
102
RTVSPropertyOp31
 70
     1
102
RTVSPropertyOp32
 70
     1
102
RTVSPropertyOp33
 70
     1
102
RTVSPropertyOp34
 70
     1
102
RTVSPropertyOp35
 70
     1
102
RTVSPropertyOp36
 70
     1
102
RTVSPropertyOp37
 70
     1
102
RTVSPropertyOp38
 70
     1
102
RTVSPropertyOp39
 70
     1
102
RTVSPropertyOp40
 70
     1
102
RTVSPropertyOp41
 70
     1
102
RTVSPropertyOp42
 70
     1
102
RTVSPropertyOp43
 70
     1
102
RTVSPropertyOp44
 70
     1
102
RTVSPropertyOp45
 70
     1
102
RTVSPropertyOp46
 70
     1
102
RTVSPropertyOp47
 70
     1
102
RTVSPropertyOp48
 70
     1
102
RTVSPropertyOp49
 70
     1
102
RTVSPropertyOp50
 70
     1
102
RTVSPropertyOp51
 70
     0
102
RTVSPropertyOp52
 70
     0
102
RTVSPropertyOp53
 70
     1
102
RTVSPropertyOp54
 70
     1
102
RTVSPropertyOp55
 70
     1
102
RTVSPropertyOp56
 70
     1
102
RTVSPropertyOp57
 70
     1
102
RTVSPropertyOp58
 70
     1
102
RTVSPropertyOp59
 70
     1
102
RTVSPropertyOp60
 70
     1
102
RTVSPropertyOp61
 70
     1
102
RTVSPropertyOp62
 70
     1
  0
XRECORD
  5
C550
102
{ACAD_REACTORS
330
C54F
102
}
330
C54F
100
AcDbXrecord
280
     1
102
RTVSPost2010Prop28
280
     0
102
RTVSPost2010PropOp28
 70
     1
102
RTVSPost2010Prop29
280
     1
102
RTVSPost2010PropOp29
 70
     1
102
RTVSPost2010Prop30
280
     1
102
RTVSPost2010PropOp30
 70
     1
102
RTVSPost2010Prop31
280
     0
102
RTVSPost2010PropOp31
 70
     1
102
RTVSPost2010Prop32
280
     0
102
RTVSPost2010PropOp32
 70
     1
102
RTVSPost2010Prop33
280
     0
102
RTVSPost2010PropOp33
 70
     1
102
RTVSPost2010Prop34
280
     0
102
RTVSPost2010PropOp34
 70
     1
102
RTVSPost2010Prop35
280
     0
102
RTVSPost2010PropOp35
 70
     1
102
RTVSPost2010Prop36
280
     0
102
RTVSPost2010PropOp36
 70
     1
102
RTVSPost2010Prop37
 90
       50
102
RTVSPost2010PropOp37
 70
     1
102
RTVSPost2010Prop38
140
0.0
102
RTVSPost2010PropOp38
 70
     1
102
RTVSPost2010Prop39
140
1.0
102
RTVSPost2010PropOp39
 70
     1
102
RTVSPost2010Prop40
 90
        0
102
RTVSPost2010PropOp40
 70
     1
102
RTVSPost2010Prop41ColorIndex
 90
       18
102
RTVSPost2010Prop41ColorRGB
 90
        0
102
RTVSPost2010PropOp41
 70
     1
102
RTVSPost2010Prop42
 90
       50
102
RTVSPost2010PropOp42
 70
     1
102
RTVSPost2010Prop43
 90
        3
102
RTVSPost2010PropOp43
 70
     1
102
RTVSPost2010Prop44ColorIndex
 90
        5
102
RTVSPost2010Prop44ColorRGB
 90
      255
102
RTVSPost2010PropOp44
 70
     1
102
RTVSPost2010Prop45
280
     0
102
RTVSPost2010PropOp45
 70
     1
102
RTVSPost2010Prop46
 90
       50
102
RTVSPost2010PropOp46
 70
     1
102
RTVSPost2010Prop47
 90
       50
102
RTVSPost2010PropOp47
 70
     1
102
RTVSPost2010Prop48
 90
       50
102
RTVSPost2010PropOp48
 70
     1
102
RTVSPost2010Prop49
280
     0
102
RTVSPost2010PropOp49
 70
     1
102
RTVSPost2010Prop50
 90
       50
102
RTVSPost2010PropOp50
 70
     1
102
RTVSPost2010Prop51ColorIndex
 90
      256
102
RTVSPost2010Prop51ColorRGB
 90
-16777216
102
RTVSPost2010PropOp51
 70
     0
102
RTVSPost2010Prop52
140
1.0
102
RTVSPost2010PropOp52
 70
     0
102
RTVSPost2010Prop53
 90
        2
102
RTVSPost2010PropOp53
 70
     1
102
RTVSPost2010Prop54
  1
strokes_ogs.tif
102
RTVSPost2010PropOp54
 70
     1
102
RTVSPost2010Prop55
280
     0
102
RTVSPost2010PropOp55
 70
     1
102
RTVSPost2010Prop56
140
1.0
102
RTVSPost2010PropOp56
 70
     1
102
RTVSPost2010Prop57
140
1.0
102
RTVSPost2010PropOp57
 70
     1
102
RTVSPropertyOp0
 70
     1
102
RTVSPropertyOp1
 70
     1
102
RTVSPropertyOp2
 70
     1
102
RTVSPropertyOp3
 70
     1
102
RTVSPropertyOp4
 70
     1
102
RTVSPropertyOp5
 70
     1
102
RTVSPropertyOp6
 70
     1
102
RTVSPropertyOp7
 70
     1
102
RTVSPropertyOp8
 70
     1
102
RTVSPropertyOp9
 70
     1
102
RTVSPropertyOp10
 70
     1
102
RTVSPropertyOp11
 70
     1
102
RTVSPropertyOp12
 70
     1
102
RTVSPropertyOp13
 70
     1
102
RTVSPropertyOp14
 70
     1
102
RTVSPropertyOp15
 70
     1
102
RTVSPropertyOp16
 70
     1
102
RTVSPropertyOp17
 70
     1
102
RTVSPropertyOp18
 70
     1
102
RTVSPropertyOp19
 70
     1
102
RTVSPropertyOp20
 70
     1
102
RTVSPropertyOp21
 70
     1
102
RTVSPropertyOp22
 70
     1
102
RTVSPropertyOp23
 70
     1
102
RTVSPropertyOp24
 70
     1
102
RTVSPropertyOp25
 70
     1
102
RTVSPropertyOp26
 70
     1
102
RTVSPropertyOp27
 70
     1
102
RTVSPropertyOp28
 70
     1
102
RTVSPropertyOp29
 70
     1
102
RTVSPropertyOp30
 70
     1
102
RTVSPropertyOp31
 70
     1
102
RTVSPropertyOp32
 70
     1
102
RTVSPropertyOp33
 70
     1
102
RTVSPropertyOp34
 70
     1
102
RTVSPropertyOp35
 70
     1
102
RTVSPropertyOp36
 70
     1
102
RTVSPropertyOp37
 70
     1
102
RTVSPropertyOp38
 70
     1
102
RTVSPropertyOp39
 70
     1
102
RTVSPropertyOp40
 70
     1
102
RTVSPropertyOp41
 70
     1
102
RTVSPropertyOp42
 70
     1
102
RTVSPropertyOp43
 70
     1
102
RTVSPropertyOp44
 70
     1
102
RTVSPropertyOp45
 70
     1
102
RTVSPropertyOp46
 70
     1
102
RTVSPropertyOp47
 70
     1
102
RTVSPropertyOp48
 70
     1
102
RTVSPropertyOp49
 70
     1
102
RTVSPropertyOp50
 70
     1
102
RTVSPropertyOp51
 70
     0
102
RTVSPropertyOp52
 70
     0
102
RTVSPropertyOp53
 70
     1
102
RTVSPropertyOp54
 70
     1
102
RTVSPropertyOp55
 70
     1
102
RTVSPropertyOp56
 70
     1
102
RTVSPropertyOp57
 70
     1
102
RTVSPropertyOp58
 70
     1
102
RTVSPropertyOp59
 70
     1
102
RTVSPropertyOp60
 70
     1
102
RTVSPropertyOp61
 70
     1
102
RTVSPropertyOp62
 70
     1
  0
XRECORD
  5
C558
102
{ACAD_REACTORS
330
C557
102
}
330
C557
100
AcDbXrecord
280
     1
102
RTVSPost2010Prop28
280
     0
102
RTVSPost2010PropOp28
 70
     1
102
RTVSPost2010Prop29
280
     1
102
RTVSPost2010PropOp29
 70
     1
102
RTVSPost2010Prop30
280
     1
102
RTVSPost2010PropOp30
 70
     1
102
RTVSPost2010Prop31
280
     0
102
RTVSPost2010PropOp31
 70
     1
102
RTVSPost2010Prop32
280
     0
102
RTVSPost2010PropOp32
 70
     1
102
RTVSPost2010Prop33
280
     0
102
RTVSPost2010PropOp33
 70
     1
102
RTVSPost2010Prop34
280
     0
102
RTVSPost2010PropOp34
 70
     1
102
RTVSPost2010Prop35
280
     0
102
RTVSPost2010PropOp35
 70
     1
102
RTVSPost2010Prop36
280
     0
102
RTVSPost2010PropOp36
 70
     1
102
RTVSPost2010Prop37
 90
       50
102
RTVSPost2010PropOp37
 70
     1
102
RTVSPost2010Prop38
140
0.0
102
RTVSPost2010PropOp38
 70
     1
102
RTVSPost2010Prop39
140
1.0
102
RTVSPost2010PropOp39
 70
     1
102
RTVSPost2010Prop40
 90
        0
102
RTVSPost2010PropOp40
 70
     1
102
RTVSPost2010Prop41ColorIndex
 90
       18
102
RTVSPost2010Prop41ColorRGB
 90
        0
102
RTVSPost2010PropOp41
 70
     1
102
RTVSPost2010Prop42
 90
       50
102
RTVSPost2010PropOp42
 70
     1
102
RTVSPost2010Prop43
 90
        3
102
RTVSPost2010PropOp43
 70
     1
102
RTVSPost2010Prop44ColorIndex
 90
        5
102
RTVSPost2010Prop44ColorRGB
 90
      255
102
RTVSPost2010PropOp44
 70
     1
102
RTVSPost2010Prop45
280
     0
102
RTVSPost2010PropOp45
 70
     1
102
RTVSPost2010Prop46
 90
       50
102
RTVSPost2010PropOp46
 70
     1
102
RTVSPost2010Prop47
 90
       50
102
RTVSPost2010PropOp47
 70
     1
102
RTVSPost2010Prop48
 90
       50
102
RTVSPost2010PropOp48
 70
     1
102
RTVSPost2010Prop49
280
     0
102
RTVSPost2010PropOp49
 70
     1
102
RTVSPost2010Prop50
 90
       50
102
RTVSPost2010PropOp50
 70
     1
102
RTVSPost2010Prop51ColorIndex
 90
      256
102
RTVSPost2010Prop51ColorRGB
 90
-16777216
102
RTVSPost2010PropOp51
 70
     0
102
RTVSPost2010Prop52
140
1.0
102
RTVSPost2010PropOp52
 70
     0
102
RTVSPost2010Prop53
 90
        2
102
RTVSPost2010PropOp53
 70
     1
102
RTVSPost2010Prop54
  1
strokes_ogs.tif
102
RTVSPost2010PropOp54
 70
     1
102
RTVSPost2010Prop55
280
     0
102
RTVSPost2010PropOp55
 70
     1
102
RTVSPost2010Prop56
140
1.0
102
RTVSPost2010PropOp56
 70
     1
102
RTVSPost2010Prop57
140
1.0
102
RTVSPost2010PropOp57
 70
     1
102
RTVSPropertyOp0
 70
     1
102
RTVSPropertyOp1
 70
     1
102
RTVSPropertyOp2
 70
     1
102
RTVSPropertyOp3
 70
     1
102
RTVSPropertyOp4
 70
     1
102
RTVSPropertyOp5
 70
     1
102
RTVSPropertyOp6
 70
     1
102
RTVSPropertyOp7
 70
     1
102
RTVSPropertyOp8
 70
     1
102
RTVSPropertyOp9
 70
     1
102
RTVSPropertyOp10
 70
     1
102
RTVSPropertyOp11
 70
     1
102
RTVSPropertyOp12
 70
     1
102
RTVSPropertyOp13
 70
     1
102
RTVSPropertyOp14
 70
     1
102
RTVSPropertyOp15
 70
     1
102
RTVSPropertyOp16
 70
     1
102
RTVSPropertyOp17
 70
     1
102
RTVSPropertyOp18
 70
     1
102
RTVSPropertyOp19
 70
     1
102
RTVSPropertyOp20
 70
     1
102
RTVSPropertyOp21
 70
     1
102
RTVSPropertyOp22
 70
     1
102
RTVSPropertyOp23
 70
     1
102
RTVSPropertyOp24
 70
     1
102
RTVSPropertyOp25
 70
     1
102
RTVSPropertyOp26
 70
     1
102
RTVSPropertyOp27
 70
     1
102
RTVSPropertyOp28
 70
     1
102
RTVSPropertyOp29
 70
     1
102
RTVSPropertyOp30
 70
     1
102
RTVSPropertyOp31
 70
     1
102
RTVSPropertyOp32
 70
     1
102
RTVSPropertyOp33
 70
     1
102
RTVSPropertyOp34
 70
     1
102
RTVSPropertyOp35
 70
     1
102
RTVSPropertyOp36
 70
     1
102
RTVSPropertyOp37
 70
     1
102
RTVSPropertyOp38
 70
     1
102
RTVSPropertyOp39
 70
     1
102
RTVSPropertyOp40
 70
     1
102
RTVSPropertyOp41
 70
     1
102
RTVSPropertyOp42
 70
     1
102
RTVSPropertyOp43
 70
     1
102
RTVSPropertyOp44
 70
     1
102
RTVSPropertyOp45
 70
     1
102
RTVSPropertyOp46
 70
     1
102
RTVSPropertyOp47
 70
     1
102
RTVSPropertyOp48
 70
     1
102
RTVSPropertyOp49
 70
     1
102
RTVSPropertyOp50
 70
     1
102
RTVSPropertyOp51
 70
     0
102
RTVSPropertyOp52
 70
     0
102
RTVSPropertyOp53
 70
     1
102
RTVSPropertyOp54
 70
     1
102
RTVSPropertyOp55
 70
     1
102
RTVSPropertyOp56
 70
     1
102
RTVSPropertyOp57
 70
     1
102
RTVSPropertyOp58
 70
     1
102
RTVSPropertyOp59
 70
     1
102
RTVSPropertyOp60
 70
     1
102
RTVSPropertyOp61
 70
     1
102
RTVSPropertyOp62
 70
     1
  0
XRECORD
  5
C56C
102
{ACAD_REACTORS
330
C56B
102
}
330
C56B
100
AcDbXrecord
280
     1
102
RTVSPost2010Prop28
280
     0
102
RTVSPost2010PropOp28
 70
     1
102
RTVSPost2010Prop29
280
     1
102
RTVSPost2010PropOp29
 70
     1
102
RTVSPost2010Prop30
280
     1
102
RTVSPost2010PropOp30
 70
     1
102
RTVSPost2010Prop31
280
     0
102
RTVSPost2010PropOp31
 70
     1
102
RTVSPost2010Prop32
280
     0
102
RTVSPost2010PropOp32
 70
     1
102
RTVSPost2010Prop33
280
     0
102
RTVSPost2010PropOp33
 70
     1
102
RTVSPost2010Prop34
280
     0
102
RTVSPost2010PropOp34
 70
     1
102
RTVSPost2010Prop35
280
     0
102
RTVSPost2010PropOp35
 70
     1
102
RTVSPost2010Prop36
280
     0
102
RTVSPost2010PropOp36
 70
     1
102
RTVSPost2010Prop37
 90
       50
102
RTVSPost2010PropOp37
 70
     1
102
RTVSPost2010Prop38
140
0.0
102
RTVSPost2010PropOp38
 70
     1
102
RTVSPost2010Prop39
140
1.0
102
RTVSPost2010PropOp39
 70
     1
102
RTVSPost2010Prop40
 90
        0
102
RTVSPost2010PropOp40
 70
     1
102
RTVSPost2010Prop41ColorIndex
 90
       18
102
RTVSPost2010Prop41ColorRGB
 90
        0
102
RTVSPost2010PropOp41
 70
     1
102
RTVSPost2010Prop42
 90
       50
102
RTVSPost2010PropOp42
 70
     1
102
RTVSPost2010Prop43
 90
        3
102
RTVSPost2010PropOp43
 70
     1
102
RTVSPost2010Prop44ColorIndex
 90
        5
102
RTVSPost2010Prop44ColorRGB
 90
      255
102
RTVSPost2010PropOp44
 70
     1
102
RTVSPost2010Prop45
280
     0
102
RTVSPost2010PropOp45
 70
     1
102
RTVSPost2010Prop46
 90
       50
102
RTVSPost2010PropOp46
 70
     1
102
RTVSPost2010Prop47
 90
       50
102
RTVSPost2010PropOp47
 70
     1
102
RTVSPost2010Prop48
 90
       50
102
RTVSPost2010PropOp48
 70
     1
102
RTVSPost2010Prop49
280
     0
102
RTVSPost2010PropOp49
 70
     1
102
RTVSPost2010Prop50
 90
       50
102
RTVSPost2010PropOp50
 70
     1
102
RTVSPost2010Prop51ColorIndex
 90
      256
102
RTVSPost2010Prop51ColorRGB
 90
-16777216
102
RTVSPost2010PropOp51
 70
     0
102
RTVSPost2010Prop52
140
1.0
102
RTVSPost2010PropOp52
 70
     0
102
RTVSPost2010Prop53
 90
        2
102
RTVSPost2010PropOp53
 70
     1
102
RTVSPost2010Prop54
  1
strokes_ogs.tif
102
RTVSPost2010PropOp54
 70
     1
102
RTVSPost2010Prop55
280
     0
102
RTVSPost2010PropOp55
 70
     1
102
RTVSPost2010Prop56
140
1.0
102
RTVSPost2010PropOp56
 70
     1
102
RTVSPost2010Prop57
140
1.0
102
RTVSPost2010PropOp57
 70
     1
102
RTVSPropertyOp0
 70
     0
102
RTVSPropertyOp1
 70
     0
102
RTVSPropertyOp2
 70
     0
102
RTVSPropertyOp3
 70
     0
102
RTVSPropertyOp4
 70
     0
102
RTVSPropertyOp5
 70
     0
102
RTVSPropertyOp6
 70
     0
102
RTVSPropertyOp7
 70
     0
102
RTVSPropertyOp8
 70
     0
102
RTVSPropertyOp9
 70
     0
102
RTVSPropertyOp10
 70
     0
102
RTVSPropertyOp11
 70
     0
102
RTVSPropertyOp12
 70
     0
102
RTVSPropertyOp13
 70
     0
102
RTVSPropertyOp14
 70
     2
102
RTVSPropertyOp15
 70
     0
102
RTVSPropertyOp16
 70
     0
102
RTVSPropertyOp17
 70
     0
102
RTVSPropertyOp18
 70
     0
102
RTVSPropertyOp19
 70
     0
102
RTVSPropertyOp20
 70
     0
102
RTVSPropertyOp21
 70
     0
102
RTVSPropertyOp22
 70
     0
102
RTVSPropertyOp23
 70
     0
102
RTVSPropertyOp24
 70
     0
102
RTVSPropertyOp25
 70
     0
102
RTVSPropertyOp26
 70
     0
102
RTVSPropertyOp27
 70
     0
102
RTVSPropertyOp28
 70
     1
102
RTVSPropertyOp29
 70
     1
102
RTVSPropertyOp30
 70
     1
102
RTVSPropertyOp31
 70
     1
102
RTVSPropertyOp32
 70
     1
102
RTVSPropertyOp33
 70
     1
102
RTVSPropertyOp34
 70
     1
102
RTVSPropertyOp35
 70
     1
102
RTVSPropertyOp36
 70
     1
102
RTVSPropertyOp37
 70
     1
102
RTVSPropertyOp38
 70
     1
102
RTVSPropertyOp39
 70
     1
102
RTVSPropertyOp40
 70
     1
102
RTVSPropertyOp41
 70
     1
102
RTVSPropertyOp42
 70
     1
102
RTVSPropertyOp43
 70
     1
102
RTVSPropertyOp44
 70
     1
102
RTVSPropertyOp45
 70
     1
102
RTVSPropertyOp46
 70
     1
102
RTVSPropertyOp47
 70
     1
102
RTVSPropertyOp48
 70
     1
102
RTVSPropertyOp49
 70
     1
102
RTVSPropertyOp50
 70
     1
102
RTVSPropertyOp51
 70
     0
102
RTVSPropertyOp52
 70
     0
102
RTVSPropertyOp53
 70
     1
102
RTVSPropertyOp54
 70
     1
102
RTVSPropertyOp55
 70
     1
102
RTVSPropertyOp56
 70
     1
102
RTVSPropertyOp57
 70
     1
102
RTVSPropertyOp58
 70
     1
102
RTVSPropertyOp59
 70
     1
102
RTVSPropertyOp60
 70
     1
102
RTVSPropertyOp61
 70
     1
102
RTVSPropertyOp62
 70
     1
  0
XRECORD
  5
C564
102
{ACAD_REACTORS
330
C563
102
}
330
C563
100
AcDbXrecord
280
     1
102
RTVSPost2010Prop28
280
     0
102
RTVSPost2010PropOp28
 70
     1
102
RTVSPost2010Prop29
280
     1
102
RTVSPost2010PropOp29
 70
     1
102
RTVSPost2010Prop30
280
     1
102
RTVSPost2010PropOp30
 70
     1
102
RTVSPost2010Prop31
280
     0
102
RTVSPost2010PropOp31
 70
     1
102
RTVSPost2010Prop32
280
     0
102
RTVSPost2010PropOp32
 70
     1
102
RTVSPost2010Prop33
280
     0
102
RTVSPost2010PropOp33
 70
     1
102
RTVSPost2010Prop34
280
     0
102
RTVSPost2010PropOp34
 70
     1
102
RTVSPost2010Prop35
280
     0
102
RTVSPost2010PropOp35
 70
     1
102
RTVSPost2010Prop36
280
     0
102
RTVSPost2010PropOp36
 70
     1
102
RTVSPost2010Prop37
 90
       50
102
RTVSPost2010PropOp37
 70
     1
102
RTVSPost2010Prop38
140
0.0
102
RTVSPost2010PropOp38
 70
     1
102
RTVSPost2010Prop39
140
1.0
102
RTVSPost2010PropOp39
 70
     1
102
RTVSPost2010Prop40
 90
        0
102
RTVSPost2010PropOp40
 70
     1
102
RTVSPost2010Prop41ColorIndex
 90
       18
102
RTVSPost2010Prop41ColorRGB
 90
        0
102
RTVSPost2010PropOp41
 70
     1
102
RTVSPost2010Prop42
 90
       50
102
RTVSPost2010PropOp42
 70
     1
102
RTVSPost2010Prop43
 90
        3
102
RTVSPost2010PropOp43
 70
     1
102
RTVSPost2010Prop44ColorIndex
 90
        5
102
RTVSPost2010Prop44ColorRGB
 90
      255
102
RTVSPost2010PropOp44
 70
     1
102
RTVSPost2010Prop45
280
     0
102
RTVSPost2010PropOp45
 70
     1
102
RTVSPost2010Prop46
 90
       50
102
RTVSPost2010PropOp46
 70
     1
102
RTVSPost2010Prop47
 90
       50
102
RTVSPost2010PropOp47
 70
     1
102
RTVSPost2010Prop48
 90
       50
102
RTVSPost2010PropOp48
 70
     1
102
RTVSPost2010Prop49
280
     0
102
RTVSPost2010PropOp49
 70
     1
102
RTVSPost2010Prop50
 90
       50
102
RTVSPost2010PropOp50
 70
     1
102
RTVSPost2010Prop51ColorIndex
 90
      256
102
RTVSPost2010Prop51ColorRGB
 90
-16777216
102
RTVSPost2010PropOp51
 70
     0
102
RTVSPost2010Prop52
140
1.0
102
RTVSPost2010PropOp52
 70
     0
102
RTVSPost2010Prop53
 90
        2
102
RTVSPost2010PropOp53
 70
     1
102
RTVSPost2010Prop54
  1
strokes_ogs.tif
102
RTVSPost2010PropOp54
 70
     1
102
RTVSPost2010Prop55
280
     0
102
RTVSPost2010PropOp55
 70
     1
102
RTVSPost2010Prop56
140
1.0
102
RTVSPost2010PropOp56
 70
     1
102
RTVSPost2010Prop57
140
1.0
102
RTVSPost2010PropOp57
 70
     1
102
RTVSPropertyOp0
 70
     1
102
RTVSPropertyOp1
 70
     1
102
RTVSPropertyOp2
 70
     1
102
RTVSPropertyOp3
 70
     1
102
RTVSPropertyOp4
 70
     1
102
RTVSPropertyOp5
 70
     1
102
RTVSPropertyOp6
 70
     1
102
RTVSPropertyOp7
 70
     1
102
RTVSPropertyOp8
 70
     1
102
RTVSPropertyOp9
 70
     1
102
RTVSPropertyOp10
 70
     1
102
RTVSPropertyOp11
 70
     1
102
RTVSPropertyOp12
 70
     1
102
RTVSPropertyOp13
 70
     1
102
RTVSPropertyOp14
 70
     1
102
RTVSPropertyOp15
 70
     1
102
RTVSPropertyOp16
 70
     1
102
RTVSPropertyOp17
 70
     1
102
RTVSPropertyOp18
 70
     1
102
RTVSPropertyOp19
 70
     1
102
RTVSPropertyOp20
 70
     1
102
RTVSPropertyOp21
 70
     1
102
RTVSPropertyOp22
 70
     1
102
RTVSPropertyOp23
 70
     1
102
RTVSPropertyOp24
 70
     1
102
RTVSPropertyOp25
 70
     1
102
RTVSPropertyOp26
 70
     1
102
RTVSPropertyOp27
 70
     1
102
RTVSPropertyOp28
 70
     1
102
RTVSPropertyOp29
 70
     1
102
RTVSPropertyOp30
 70
     1
102
RTVSPropertyOp31
 70
     1
102
RTVSPropertyOp32
 70
     1
102
RTVSPropertyOp33
 70
     1
102
RTVSPropertyOp34
 70
     1
102
RTVSPropertyOp35
 70
     1
102
RTVSPropertyOp36
 70
     1
102
RTVSPropertyOp37
 70
     1
102
RTVSPropertyOp38
 70
     1
102
RTVSPropertyOp39
 70
     1
102
RTVSPropertyOp40
 70
     1
102
RTVSPropertyOp41
 70
     1
102
RTVSPropertyOp42
 70
     1
102
RTVSPropertyOp43
 70
     1
102
RTVSPropertyOp44
 70
     1
102
RTVSPropertyOp45
 70
     1
102
RTVSPropertyOp46
 70
     1
102
RTVSPropertyOp47
 70
     1
102
RTVSPropertyOp48
 70
     1
102
RTVSPropertyOp49
 70
     1
102
RTVSPropertyOp50
 70
     1
102
RTVSPropertyOp51
 70
     0
102
RTVSPropertyOp52
 70
     0
102
RTVSPropertyOp53
 70
     1
102
RTVSPropertyOp54
 70
     1
102
RTVSPropertyOp55
 70
     1
102
RTVSPropertyOp56
 70
     1
102
RTVSPropertyOp57
 70
     1
102
RTVSPropertyOp58
 70
     1
102
RTVSPropertyOp59
 70
     1
102
RTVSPropertyOp60
 70
     1
102
RTVSPropertyOp61
 70
     1
102
RTVSPropertyOp62
 70
     1
  0
XRECORD
  5
C56E
102
{ACAD_REACTORS
330
C56D
102
}
330
C56D
100
AcDbXrecord
280
     1
102
RTVSPost2010Prop28
280
     0
102
RTVSPost2010PropOp28
 70
     1
102
RTVSPost2010Prop29
280
     1
102
RTVSPost2010PropOp29
 70
     1
102
RTVSPost2010Prop30
280
     1
102
RTVSPost2010PropOp30
 70
     1
102
RTVSPost2010Prop31
280
     0
102
RTVSPost2010PropOp31
 70
     1
102
RTVSPost2010Prop32
280
     0
102
RTVSPost2010PropOp32
 70
     1
102
RTVSPost2010Prop33
280
     0
102
RTVSPost2010PropOp33
 70
     1
102
RTVSPost2010Prop34
280
     0
102
RTVSPost2010PropOp34
 70
     1
102
RTVSPost2010Prop35
280
     0
102
RTVSPost2010PropOp35
 70
     1
102
RTVSPost2010Prop36
280
     0
102
RTVSPost2010PropOp36
 70
     1
102
RTVSPost2010Prop37
 90
       50
102
RTVSPost2010PropOp37
 70
     1
102
RTVSPost2010Prop38
140
0.0
102
RTVSPost2010PropOp38
 70
     1
102
RTVSPost2010Prop39
140
1.0
102
RTVSPost2010PropOp39
 70
     1
102
RTVSPost2010Prop40
 90
        0
102
RTVSPost2010PropOp40
 70
     1
102
RTVSPost2010Prop41ColorIndex
 90
       18
102
RTVSPost2010Prop41ColorRGB
 90
        0
102
RTVSPost2010PropOp41
 70
     1
102
RTVSPost2010Prop42
 90
       50
102
RTVSPost2010PropOp42
 70
     1
102
RTVSPost2010Prop43
 90
        3
102
RTVSPost2010PropOp43
 70
     1
102
RTVSPost2010Prop44ColorIndex
 90
        5
102
RTVSPost2010Prop44ColorRGB
 90
      255
102
RTVSPost2010PropOp44
 70
     1
102
RTVSPost2010Prop45
280
     0
102
RTVSPost2010PropOp45
 70
     1
102
RTVSPost2010Prop46
 90
       50
102
RTVSPost2010PropOp46
 70
     1
102
RTVSPost2010Prop47
 90
       50
102
RTVSPost2010PropOp47
 70
     1
102
RTVSPost2010Prop48
 90
       50
102
RTVSPost2010PropOp48
 70
     1
102
RTVSPost2010Prop49
280
     0
102
RTVSPost2010PropOp49
 70
     1
102
RTVSPost2010Prop50
 90
       50
102
RTVSPost2010PropOp50
 70
     1
102
RTVSPost2010Prop51ColorIndex
 90
      256
102
RTVSPost2010Prop51ColorRGB
 90
-16777216
102
RTVSPost2010PropOp51
 70
     0
102
RTVSPost2010Prop52
140
1.0
102
RTVSPost2010PropOp52
 70
     0
102
RTVSPost2010Prop53
 90
        2
102
RTVSPost2010PropOp53
 70
     1
102
RTVSPost2010Prop54
  1
strokes_ogs.tif
102
RTVSPost2010PropOp54
 70
     1
102
RTVSPost2010Prop55
280
     0
102
RTVSPost2010PropOp55
 70
     1
102
RTVSPost2010Prop56
140
1.0
102
RTVSPost2010PropOp56
 70
     1
102
RTVSPost2010Prop57
140
1.0
102
RTVSPost2010PropOp57
 70
     1
102
RTVSPropertyOp0
 70
     0
102
RTVSPropertyOp1
 70
     0
102
RTVSPropertyOp2
 70
     0
102
RTVSPropertyOp3
 70
     0
102
RTVSPropertyOp4
 70
     0
102
RTVSPropertyOp5
 70
     0
102
RTVSPropertyOp6
 70
     0
102
RTVSPropertyOp7
 70
     0
102
RTVSPropertyOp8
 70
     0
102
RTVSPropertyOp9
 70
     0
102
RTVSPropertyOp10
 70
     0
102
RTVSPropertyOp11
 70
     0
102
RTVSPropertyOp12
 70
     0
102
RTVSPropertyOp13
 70
     0
102
RTVSPropertyOp14
 70
     2
102
RTVSPropertyOp15
 70
     0
102
RTVSPropertyOp16
 70
     0
102
RTVSPropertyOp17
 70
     0
102
RTVSPropertyOp18
 70
     0
102
RTVSPropertyOp19
 70
     0
102
RTVSPropertyOp20
 70
     0
102
RTVSPropertyOp21
 70
     0
102
RTVSPropertyOp22
 70
     0
102
RTVSPropertyOp23
 70
     0
102
RTVSPropertyOp24
 70
     0
102
RTVSPropertyOp25
 70
     0
102
RTVSPropertyOp26
 70
     0
102
RTVSPropertyOp27
 70
     0
102
RTVSPropertyOp28
 70
     1
102
RTVSPropertyOp29
 70
     1
102
RTVSPropertyOp30
 70
     1
102
RTVSPropertyOp31
 70
     1
102
RTVSPropertyOp32
 70
     1
102
RTVSPropertyOp33
 70
     1
102
RTVSPropertyOp34
 70
     1
102
RTVSPropertyOp35
 70
     1
102
RTVSPropertyOp36
 70
     1
102
RTVSPropertyOp37
 70
     1
102
RTVSPropertyOp38
 70
     1
102
RTVSPropertyOp39
 70
     1
102
RTVSPropertyOp40
 70
     1
102
RTVSPropertyOp41
 70
     1
102
RTVSPropertyOp42
 70
     1
102
RTVSPropertyOp43
 70
     1
102
RTVSPropertyOp44
 70
     1
102
RTVSPropertyOp45
 70
     1
102
RTVSPropertyOp46
 70
     1
102
RTVSPropertyOp47
 70
     1
102
RTVSPropertyOp48
 70
     1
102
RTVSPropertyOp49
 70
     1
102
RTVSPropertyOp50
 70
     1
102
RTVSPropertyOp51
 70
     0
102
RTVSPropertyOp52
 70
     0
102
RTVSPropertyOp53
 70
     1
102
RTVSPropertyOp54
 70
     1
102
RTVSPropertyOp55
 70
     1
102
RTVSPropertyOp56
 70
     1
102
RTVSPropertyOp57
 70
     1
102
RTVSPropertyOp58
 70
     1
102
RTVSPropertyOp59
 70
     1
102
RTVSPropertyOp60
 70
     1
102
RTVSPropertyOp61
 70
     1
102
RTVSPropertyOp62
 70
     1
  0
XRECORD
  5
C55C
102
{ACAD_REACTORS
330
C55B
102
}
330
C55B
100
AcDbXrecord
280
     1
102
RTVSPost2010Prop28
280
     0
102
RTVSPost2010PropOp28
 70
     1
102
RTVSPost2010Prop29
280
     1
102
RTVSPost2010PropOp29
 70
     1
102
RTVSPost2010Prop30
280
     1
102
RTVSPost2010PropOp30
 70
     1
102
RTVSPost2010Prop31
280
     0
102
RTVSPost2010PropOp31
 70
     1
102
RTVSPost2010Prop32
280
     0
102
RTVSPost2010PropOp32
 70
     1
102
RTVSPost2010Prop33
280
     0
102
RTVSPost2010PropOp33
 70
     1
102
RTVSPost2010Prop34
280
     0
102
RTVSPost2010PropOp34
 70
     1
102
RTVSPost2010Prop35
280
     0
102
RTVSPost2010PropOp35
 70
     1
102
RTVSPost2010Prop36
280
     0
102
RTVSPost2010PropOp36
 70
     1
102
RTVSPost2010Prop37
 90
       50
102
RTVSPost2010PropOp37
 70
     1
102
RTVSPost2010Prop38
140
0.0
102
RTVSPost2010PropOp38
 70
     1
102
RTVSPost2010Prop39
140
1.0
102
RTVSPost2010PropOp39
 70
     1
102
RTVSPost2010Prop40
 90
        0
102
RTVSPost2010PropOp40
 70
     1
102
RTVSPost2010Prop41ColorIndex
 90
       18
102
RTVSPost2010Prop41ColorRGB
 90
        0
102
RTVSPost2010PropOp41
 70
     1
102
RTVSPost2010Prop42
 90
       50
102
RTVSPost2010PropOp42
 70
     1
102
RTVSPost2010Prop43
 90
        3
102
RTVSPost2010PropOp43
 70
     1
102
RTVSPost2010Prop44ColorIndex
 90
        5
102
RTVSPost2010Prop44ColorRGB
 90
      255
102
RTVSPost2010PropOp44
 70
     1
102
RTVSPost2010Prop45
280
     0
102
RTVSPost2010PropOp45
 70
     1
102
RTVSPost2010Prop46
 90
       50
102
RTVSPost2010PropOp46
 70
     1
102
RTVSPost2010Prop47
 90
       50
102
RTVSPost2010PropOp47
 70
     1
102
RTVSPost2010Prop48
 90
       50
102
RTVSPost2010PropOp48
 70
     1
102
RTVSPost2010Prop49
280
     0
102
RTVSPost2010PropOp49
 70
     1
102
RTVSPost2010Prop50
 90
       50
102
RTVSPost2010PropOp50
 70
     1
102
RTVSPost2010Prop51ColorIndex
 90
      256
102
RTVSPost2010Prop51ColorRGB
 90
-16777216
102
RTVSPost2010PropOp51
 70
     0
102
RTVSPost2010Prop52
140
1.0
102
RTVSPost2010PropOp52
 70
     0
102
RTVSPost2010Prop53
 90
        2
102
RTVSPost2010PropOp53
 70
     1
102
RTVSPost2010Prop54
  1
strokes_ogs.tif
102
RTVSPost2010PropOp54
 70
     1
102
RTVSPost2010Prop55
280
     0
102
RTVSPost2010PropOp55
 70
     1
102
RTVSPost2010Prop56
140
1.0
102
RTVSPost2010PropOp56
 70
     1
102
RTVSPost2010Prop57
140
1.0
102
RTVSPost2010PropOp57
 70
     1
102
RTVSPropertyOp0
 70
     1
102
RTVSPropertyOp1
 70
     1
102
RTVSPropertyOp2
 70
     1
102
RTVSPropertyOp3
 70
     1
102
RTVSPropertyOp4
 70
     1
102
RTVSPropertyOp5
 70
     1
102
RTVSPropertyOp6
 70
     1
102
RTVSPropertyOp7
 70
     1
102
RTVSPropertyOp8
 70
     1
102
RTVSPropertyOp9
 70
     1
102
RTVSPropertyOp10
 70
     1
102
RTVSPropertyOp11
 70
     1
102
RTVSPropertyOp12
 70
     1
102
RTVSPropertyOp13
 70
     1
102
RTVSPropertyOp14
 70
     1
102
RTVSPropertyOp15
 70
     1
102
RTVSPropertyOp16
 70
     1
102
RTVSPropertyOp17
 70
     1
102
RTVSPropertyOp18
 70
     1
102
RTVSPropertyOp19
 70
     1
102
RTVSPropertyOp20
 70
     1
102
RTVSPropertyOp21
 70
     1
102
RTVSPropertyOp22
 70
     1
102
RTVSPropertyOp23
 70
     1
102
RTVSPropertyOp24
 70
     1
102
RTVSPropertyOp25
 70
     1
102
RTVSPropertyOp26
 70
     1
102
RTVSPropertyOp27
 70
     1
102
RTVSPropertyOp28
 70
     1
102
RTVSPropertyOp29
 70
     1
102
RTVSPropertyOp30
 70
     1
102
RTVSPropertyOp31
 70
     1
102
RTVSPropertyOp32
 70
     1
102
RTVSPropertyOp33
 70
     1
102
RTVSPropertyOp34
 70
     1
102
RTVSPropertyOp35
 70
     1
102
RTVSPropertyOp36
 70
     1
102
RTVSPropertyOp37
 70
     1
102
RTVSPropertyOp38
 70
     1
102
RTVSPropertyOp39
 70
     1
102
RTVSPropertyOp40
 70
     1
102
RTVSPropertyOp41
 70
     1
102
RTVSPropertyOp42
 70
     1
102
RTVSPropertyOp43
 70
     1
102
RTVSPropertyOp44
 70
     1
102
RTVSPropertyOp45
 70
     1
102
RTVSPropertyOp46
 70
     1
102
RTVSPropertyOp47
 70
     1
102
RTVSPropertyOp48
 70
     1
102
RTVSPropertyOp49
 70
     1
102
RTVSPropertyOp50
 70
     1
102
RTVSPropertyOp51
 70
     0
102
RTVSPropertyOp52
 70
     0
102
RTVSPropertyOp53
 70
     1
102
RTVSPropertyOp54
 70
     1
102
RTVSPropertyOp55
 70
     1
102
RTVSPropertyOp56
 70
     1
102
RTVSPropertyOp57
 70
     1
102
RTVSPropertyOp58
 70
     1
102
RTVSPropertyOp59
 70
     1
102
RTVSPropertyOp60
 70
     1
102
RTVSPropertyOp61
 70
     1
102
RTVSPropertyOp62
 70
     1
  0
XRECORD
  5
C57A
102
{ACAD_REACTORS
330
C579
102
}
330
C579
100
AcDbXrecord
280
     1
102
RTVSPost2010Prop28
280
     0
102
RTVSPost2010PropOp28
 70
     1
102
RTVSPost2010Prop29
280
     1
102
RTVSPost2010PropOp29
 70
     1
102
RTVSPost2010Prop30
280
     1
102
RTVSPost2010PropOp30
 70
     1
102
RTVSPost2010Prop31
280
     0
102
RTVSPost2010PropOp31
 70
     1
102
RTVSPost2010Prop32
280
     0
102
RTVSPost2010PropOp32
 70
     1
102
RTVSPost2010Prop33
280
     0
102
RTVSPost2010PropOp33
 70
     1
102
RTVSPost2010Prop34
280
     0
102
RTVSPost2010PropOp34
 70
     1
102
RTVSPost2010Prop35
280
     0
102
RTVSPost2010PropOp35
 70
     1
102
RTVSPost2010Prop36
280
     0
102
RTVSPost2010PropOp36
 70
     1
102
RTVSPost2010Prop37
 90
       50
102
RTVSPost2010PropOp37
 70
     1
102
RTVSPost2010Prop38
140
0.0
102
RTVSPost2010PropOp38
 70
     1
102
RTVSPost2010Prop39
140
1.0
102
RTVSPost2010PropOp39
 70
     1
102
RTVSPost2010Prop40
 90
        0
102
RTVSPost2010PropOp40
 70
     1
102
RTVSPost2010Prop41ColorIndex
 90
       18
102
RTVSPost2010Prop41ColorRGB
 90
        0
102
RTVSPost2010PropOp41
 70
     1
102
RTVSPost2010Prop42
 90
       50
102
RTVSPost2010PropOp42
 70
     1
102
RTVSPost2010Prop43
 90
        3
102
RTVSPost2010PropOp43
 70
     1
102
RTVSPost2010Prop44ColorIndex
 90
        5
102
RTVSPost2010Prop44ColorRGB
 90
      255
102
RTVSPost2010PropOp44
 70
     1
102
RTVSPost2010Prop45
280
     0
102
RTVSPost2010PropOp45
 70
     1
102
RTVSPost2010Prop46
 90
       50
102
RTVSPost2010PropOp46
 70
     1
102
RTVSPost2010Prop47
 90
       50
102
RTVSPost2010PropOp47
 70
     1
102
RTVSPost2010Prop48
 90
       50
102
RTVSPost2010PropOp48
 70
     1
102
RTVSPost2010Prop49
280
     0
102
RTVSPost2010PropOp49
 70
     1
102
RTVSPost2010Prop50
 90
       50
102
RTVSPost2010PropOp50
 70
     1
102
RTVSPost2010Prop51ColorIndex
 90
      256
102
RTVSPost2010Prop51ColorRGB
 90
-16777216
102
RTVSPost2010PropOp51
 70
     0
102
RTVSPost2010Prop52
140
1.0
102
RTVSPost2010PropOp52
 70
     0
102
RTVSPost2010Prop53
 90
        2
102
RTVSPost2010PropOp53
 70
     1
102
RTVSPost2010Prop54
  1
strokes_ogs.tif
102
RTVSPost2010PropOp54
 70
     1
102
RTVSPost2010Prop55
280
     0
102
RTVSPost2010PropOp55
 70
     1
102
RTVSPost2010Prop56
140
1.0
102
RTVSPost2010PropOp56
 70
     1
102
RTVSPost2010Prop57
140
1.0
102
RTVSPost2010PropOp57
 70
     1
102
RTVSPropertyOp0
 70
     1
102
RTVSPropertyOp1
 70
     1
102
RTVSPropertyOp2
 70
     1
102
RTVSPropertyOp3
 70
     1
102
RTVSPropertyOp4
 70
     1
102
RTVSPropertyOp5
 70
     1
102
RTVSPropertyOp6
 70
     1
102
RTVSPropertyOp7
 70
     1
102
RTVSPropertyOp8
 70
     1
102
RTVSPropertyOp9
 70
     1
102
RTVSPropertyOp10
 70
     1
102
RTVSPropertyOp11
 70
     1
102
RTVSPropertyOp12
 70
     1
102
RTVSPropertyOp13
 70
     1
102
RTVSPropertyOp14
 70
     1
102
RTVSPropertyOp15
 70
     1
102
RTVSPropertyOp16
 70
     1
102
RTVSPropertyOp17
 70
     1
102
RTVSPropertyOp18
 70
     1
102
RTVSPropertyOp19
 70
     1
102
RTVSPropertyOp20
 70
     1
102
RTVSPropertyOp21
 70
     1
102
RTVSPropertyOp22
 70
     1
102
RTVSPropertyOp23
 70
     1
102
RTVSPropertyOp24
 70
     1
102
RTVSPropertyOp25
 70
     1
102
RTVSPropertyOp26
 70
     1
102
RTVSPropertyOp27
 70
     1
102
RTVSPropertyOp28
 70
     1
102
RTVSPropertyOp29
 70
     1
102
RTVSPropertyOp30
 70
     1
102
RTVSPropertyOp31
 70
     1
102
RTVSPropertyOp32
 70
     1
102
RTVSPropertyOp33
 70
     1
102
RTVSPropertyOp34
 70
     1
102
RTVSPropertyOp35
 70
     1
102
RTVSPropertyOp36
 70
     1
102
RTVSPropertyOp37
 70
     1
102
RTVSPropertyOp38
 70
     1
102
RTVSPropertyOp39
 70
     1
102
RTVSPropertyOp40
 70
     1
102
RTVSPropertyOp41
 70
     1
102
RTVSPropertyOp42
 70
     1
102
RTVSPropertyOp43
 70
     1
102
RTVSPropertyOp44
 70
     1
102
RTVSPropertyOp45
 70
     1
102
RTVSPropertyOp46
 70
     1
102
RTVSPropertyOp47
 70
     1
102
RTVSPropertyOp48
 70
     1
102
RTVSPropertyOp49
 70
     1
102
RTVSPropertyOp50
 70
     1
102
RTVSPropertyOp51
 70
     0
102
RTVSPropertyOp52
 70
     0
102
RTVSPropertyOp53
 70
     1
102
RTVSPropertyOp54
 70
     1
102
RTVSPropertyOp55
 70
     1
102
RTVSPropertyOp56
 70
     1
102
RTVSPropertyOp57
 70
     1
102
RTVSPropertyOp58
 70
     1
102
RTVSPropertyOp59
 70
     1
102
RTVSPropertyOp60
 70
     1
102
RTVSPropertyOp61
 70
     1
102
RTVSPropertyOp62
 70
     1
  0
XRECORD
  5
C578
102
{ACAD_REACTORS
330
C577
102
}
330
C577
100
AcDbXrecord
280
     1
102
RTVSPost2010Prop28
280
     0
102
RTVSPost2010PropOp28
 70
     1
102
RTVSPost2010Prop29
280
     1
102
RTVSPost2010PropOp29
 70
     1
102
RTVSPost2010Prop30
280
     1
102
RTVSPost2010PropOp30
 70
     1
102
RTVSPost2010Prop31
280
     0
102
RTVSPost2010PropOp31
 70
     1
102
RTVSPost2010Prop32
280
     0
102
RTVSPost2010PropOp32
 70
     1
102
RTVSPost2010Prop33
280
     0
102
RTVSPost2010PropOp33
 70
     1
102
RTVSPost2010Prop34
280
     0
102
RTVSPost2010PropOp34
 70
     1
102
RTVSPost2010Prop35
280
     0
102
RTVSPost2010PropOp35
 70
     1
102
RTVSPost2010Prop36
280
     0
102
RTVSPost2010PropOp36
 70
     1
102
RTVSPost2010Prop37
 90
       50
102
RTVSPost2010PropOp37
 70
     1
102
RTVSPost2010Prop38
140
0.0
102
RTVSPost2010PropOp38
 70
     1
102
RTVSPost2010Prop39
140
1.0
102
RTVSPost2010PropOp39
 70
     1
102
RTVSPost2010Prop40
 90
        0
102
RTVSPost2010PropOp40
 70
     1
102
RTVSPost2010Prop41ColorIndex
 90
       18
102
RTVSPost2010Prop41ColorRGB
 90
        0
102
RTVSPost2010PropOp41
 70
     1
102
RTVSPost2010Prop42
 90
       50
102
RTVSPost2010PropOp42
 70
     1
102
RTVSPost2010Prop43
 90
        3
102
RTVSPost2010PropOp43
 70
     1
102
RTVSPost2010Prop44ColorIndex
 90
        5
102
RTVSPost2010Prop44ColorRGB
 90
      255
102
RTVSPost2010PropOp44
 70
     1
102
RTVSPost2010Prop45
280
     0
102
RTVSPost2010PropOp45
 70
     1
102
RTVSPost2010Prop46
 90
       50
102
RTVSPost2010PropOp46
 70
     1
102
RTVSPost2010Prop47
 90
       50
102
RTVSPost2010PropOp47
 70
     1
102
RTVSPost2010Prop48
 90
       50
102
RTVSPost2010PropOp48
 70
     1
102
RTVSPost2010Prop49
280
     0
102
RTVSPost2010PropOp49
 70
     1
102
RTVSPost2010Prop50
 90
       50
102
RTVSPost2010PropOp50
 70
     1
102
RTVSPost2010Prop51ColorIndex
 90
      256
102
RTVSPost2010Prop51ColorRGB
 90
-16777216
102
RTVSPost2010PropOp51
 70
     0
102
RTVSPost2010Prop52
140
1.0
102
RTVSPost2010PropOp52
 70
     0
102
RTVSPost2010Prop53
 90
        2
102
RTVSPost2010PropOp53
 70
     1
102
RTVSPost2010Prop54
  1
strokes_ogs.tif
102
RTVSPost2010PropOp54
 70
     1
102
RTVSPost2010Prop55
280
     0
102
RTVSPost2010PropOp55
 70
     1
102
RTVSPost2010Prop56
140
1.0
102
RTVSPost2010PropOp56
 70
     1
102
RTVSPost2010Prop57
140
1.0
102
RTVSPost2010PropOp57
 70
     1
102
RTVSPropertyOp0
 70
     1
102
RTVSPropertyOp1
 70
     1
102
RTVSPropertyOp2
 70
     1
102
RTVSPropertyOp3
 70
     1
102
RTVSPropertyOp4
 70
     1
102
RTVSPropertyOp5
 70
     1
102
RTVSPropertyOp6
 70
     1
102
RTVSPropertyOp7
 70
     1
102
RTVSPropertyOp8
 70
     1
102
RTVSPropertyOp9
 70
     1
102
RTVSPropertyOp10
 70
     1
102
RTVSPropertyOp11
 70
     1
102
RTVSPropertyOp12
 70
     1
102
RTVSPropertyOp13
 70
     1
102
RTVSPropertyOp14
 70
     1
102
RTVSPropertyOp15
 70
     1
102
RTVSPropertyOp16
 70
     1
102
RTVSPropertyOp17
 70
     1
102
RTVSPropertyOp18
 70
     1
102
RTVSPropertyOp19
 70
     1
102
RTVSPropertyOp20
 70
     1
102
RTVSPropertyOp21
 70
     1
102
RTVSPropertyOp22
 70
     1
102
RTVSPropertyOp23
 70
     1
102
RTVSPropertyOp24
 70
     1
102
RTVSPropertyOp25
 70
     1
102
RTVSPropertyOp26
 70
     1
102
RTVSPropertyOp27
 70
     1
102
RTVSPropertyOp28
 70
     1
102
RTVSPropertyOp29
 70
     1
102
RTVSPropertyOp30
 70
     1
102
RTVSPropertyOp31
 70
     1
102
RTVSPropertyOp32
 70
     1
102
RTVSPropertyOp33
 70
     1
102
RTVSPropertyOp34
 70
     1
102
RTVSPropertyOp35
 70
     1
102
RTVSPropertyOp36
 70
     1
102
RTVSPropertyOp37
 70
     1
102
RTVSPropertyOp38
 70
     1
102
RTVSPropertyOp39
 70
     1
102
RTVSPropertyOp40
 70
     1
102
RTVSPropertyOp41
 70
     1
102
RTVSPropertyOp42
 70
     1
102
RTVSPropertyOp43
 70
     1
102
RTVSPropertyOp44
 70
     1
102
RTVSPropertyOp45
 70
     1
102
RTVSPropertyOp46
 70
     1
102
RTVSPropertyOp47
 70
     1
102
RTVSPropertyOp48
 70
     1
102
RTVSPropertyOp49
 70
     1
102
RTVSPropertyOp50
 70
     1
102
RTVSPropertyOp51
 70
     0
102
RTVSPropertyOp52
 70
     0
102
RTVSPropertyOp53
 70
     1
102
RTVSPropertyOp54
 70
     1
102
RTVSPropertyOp55
 70
     1
102
RTVSPropertyOp56
 70
     1
102
RTVSPropertyOp57
 70
     1
102
RTVSPropertyOp58
 70
     1
102
RTVSPropertyOp59
 70
     1
102
RTVSPropertyOp60
 70
     1
102
RTVSPropertyOp61
 70
     1
102
RTVSPropertyOp62
 70
     1
  0
XRECORD
  5
C572
102
{ACAD_REACTORS
330
C571
102
}
330
C571
100
AcDbXrecord
280
     1
102
RTVSPost2010Prop28
280
     0
102
RTVSPost2010PropOp28
 70
     1
102
RTVSPost2010Prop29
280
     1
102
RTVSPost2010PropOp29
 70
     1
102
RTVSPost2010Prop30
280
     1
102
RTVSPost2010PropOp30
 70
     1
102
RTVSPost2010Prop31
280
     0
102
RTVSPost2010PropOp31
 70
     1
102
RTVSPost2010Prop32
280
     0
102
RTVSPost2010PropOp32
 70
     1
102
RTVSPost2010Prop33
280
     0
102
RTVSPost2010PropOp33
 70
     1
102
RTVSPost2010Prop34
280
     0
102
RTVSPost2010PropOp34
 70
     1
102
RTVSPost2010Prop35
280
     0
102
RTVSPost2010PropOp35
 70
     1
102
RTVSPost2010Prop36
280
     0
102
RTVSPost2010PropOp36
 70
     1
102
RTVSPost2010Prop37
 90
       50
102
RTVSPost2010PropOp37
 70
     1
102
RTVSPost2010Prop38
140
0.0
102
RTVSPost2010PropOp38
 70
     1
102
RTVSPost2010Prop39
140
1.0
102
RTVSPost2010PropOp39
 70
     1
102
RTVSPost2010Prop40
 90
        0
102
RTVSPost2010PropOp40
 70
     1
102
RTVSPost2010Prop41ColorIndex
 90
       18
102
RTVSPost2010Prop41ColorRGB
 90
        0
102
RTVSPost2010PropOp41
 70
     1
102
RTVSPost2010Prop42
 90
       50
102
RTVSPost2010PropOp42
 70
     1
102
RTVSPost2010Prop43
 90
        3
102
RTVSPost2010PropOp43
 70
     1
102
RTVSPost2010Prop44ColorIndex
 90
        5
102
RTVSPost2010Prop44ColorRGB
 90
      255
102
RTVSPost2010PropOp44
 70
     1
102
RTVSPost2010Prop45
280
     0
102
RTVSPost2010PropOp45
 70
     1
102
RTVSPost2010Prop46
 90
       50
102
RTVSPost2010PropOp46
 70
     1
102
RTVSPost2010Prop47
 90
       50
102
RTVSPost2010PropOp47
 70
     1
102
RTVSPost2010Prop48
 90
       50
102
RTVSPost2010PropOp48
 70
     1
102
RTVSPost2010Prop49
280
     0
102
RTVSPost2010PropOp49
 70
     1
102
RTVSPost2010Prop50
 90
       50
102
RTVSPost2010PropOp50
 70
     1
102
RTVSPost2010Prop51ColorIndex
 90
      256
102
RTVSPost2010Prop51ColorRGB
 90
-16777216
102
RTVSPost2010PropOp51
 70
     0
102
RTVSPost2010Prop52
140
1.0
102
RTVSPost2010PropOp52
 70
     0
102
RTVSPost2010Prop53
 90
        2
102
RTVSPost2010PropOp53
 70
     1
102
RTVSPost2010Prop54
  1
strokes_ogs.tif
102
RTVSPost2010PropOp54
 70
     1
102
RTVSPost2010Prop55
280
     0
102
RTVSPost2010PropOp55
 70
     1
102
RTVSPost2010Prop56
140
1.0
102
RTVSPost2010PropOp56
 70
     1
102
RTVSPost2010Prop57
140
1.0
102
RTVSPost2010PropOp57
 70
     1
102
RTVSPropertyOp0
 70
     1
102
RTVSPropertyOp1
 70
     1
102
RTVSPropertyOp2
 70
     1
102
RTVSPropertyOp3
 70
     1
102
RTVSPropertyOp4
 70
     1
102
RTVSPropertyOp5
 70
     1
102
RTVSPropertyOp6
 70
     1
102
RTVSPropertyOp7
 70
     1
102
RTVSPropertyOp8
 70
     1
102
RTVSPropertyOp9
 70
     1
102
RTVSPropertyOp10
 70
     1
102
RTVSPropertyOp11
 70
     1
102
RTVSPropertyOp12
 70
     1
102
RTVSPropertyOp13
 70
     1
102
RTVSPropertyOp14
 70
     1
102
RTVSPropertyOp15
 70
     1
102
RTVSPropertyOp16
 70
     1
102
RTVSPropertyOp17
 70
     1
102
RTVSPropertyOp18
 70
     1
102
RTVSPropertyOp19
 70
     1
102
RTVSPropertyOp20
 70
     1
102
RTVSPropertyOp21
 70
     1
102
RTVSPropertyOp22
 70
     1
102
RTVSPropertyOp23
 70
     1
102
RTVSPropertyOp24
 70
     1
102
RTVSPropertyOp25
 70
     1
102
RTVSPropertyOp26
 70
     1
102
RTVSPropertyOp27
 70
     1
102
RTVSPropertyOp28
 70
     1
102
RTVSPropertyOp29
 70
     1
102
RTVSPropertyOp30
 70
     1
102
RTVSPropertyOp31
 70
     1
102
RTVSPropertyOp32
 70
     1
102
RTVSPropertyOp33
 70
     1
102
RTVSPropertyOp34
 70
     1
102
RTVSPropertyOp35
 70
     1
102
RTVSPropertyOp36
 70
     1
102
RTVSPropertyOp37
 70
     1
102
RTVSPropertyOp38
 70
     1
102
RTVSPropertyOp39
 70
     1
102
RTVSPropertyOp40
 70
     1
102
RTVSPropertyOp41
 70
     1
102
RTVSPropertyOp42
 70
     1
102
RTVSPropertyOp43
 70
     1
102
RTVSPropertyOp44
 70
     1
102
RTVSPropertyOp45
 70
     1
102
RTVSPropertyOp46
 70
     1
102
RTVSPropertyOp47
 70
     1
102
RTVSPropertyOp48
 70
     1
102
RTVSPropertyOp49
 70
     1
102
RTVSPropertyOp50
 70
     1
102
RTVSPropertyOp51
 70
     0
102
RTVSPropertyOp52
 70
     0
102
RTVSPropertyOp53
 70
     1
102
RTVSPropertyOp54
 70
     1
102
RTVSPropertyOp55
 70
     1
102
RTVSPropertyOp56
 70
     1
102
RTVSPropertyOp57
 70
     1
102
RTVSPropertyOp58
 70
     1
102
RTVSPropertyOp59
 70
     1
102
RTVSPropertyOp60
 70
     1
102
RTVSPropertyOp61
 70
     1
102
RTVSPropertyOp62
 70
     1
  0
XRECORD
  5
C574
102
{ACAD_REACTORS
330
C573
102
}
330
C573
100
AcDbXrecord
280
     1
102
RTVSPost2010Prop28
280
     0
102
RTVSPost2010PropOp28
 70
     1
102
RTVSPost2010Prop29
280
     1
102
RTVSPost2010PropOp29
 70
     1
102
RTVSPost2010Prop30
280
     1
102
RTVSPost2010PropOp30
 70
     1
102
RTVSPost2010Prop31
280
     0
102
RTVSPost2010PropOp31
 70
     1
102
RTVSPost2010Prop32
280
     0
102
RTVSPost2010PropOp32
 70
     1
102
RTVSPost2010Prop33
280
     0
102
RTVSPost2010PropOp33
 70
     1
102
RTVSPost2010Prop34
280
     0
102
RTVSPost2010PropOp34
 70
     1
102
RTVSPost2010Prop35
280
     0
102
RTVSPost2010PropOp35
 70
     1
102
RTVSPost2010Prop36
280
     0
102
RTVSPost2010PropOp36
 70
     1
102
RTVSPost2010Prop37
 90
       50
102
RTVSPost2010PropOp37
 70
     1
102
RTVSPost2010Prop38
140
0.0
102
RTVSPost2010PropOp38
 70
     1
102
RTVSPost2010Prop39
140
1.0
102
RTVSPost2010PropOp39
 70
     1
102
RTVSPost2010Prop40
 90
        0
102
RTVSPost2010PropOp40
 70
     1
102
RTVSPost2010Prop41ColorIndex
 90
       18
102
RTVSPost2010Prop41ColorRGB
 90
        0
102
RTVSPost2010PropOp41
 70
     1
102
RTVSPost2010Prop42
 90
       50
102
RTVSPost2010PropOp42
 70
     1
102
RTVSPost2010Prop43
 90
        3
102
RTVSPost2010PropOp43
 70
     1
102
RTVSPost2010Prop44ColorIndex
 90
        5
102
RTVSPost2010Prop44ColorRGB
 90
      255
102
RTVSPost2010PropOp44
 70
     1
102
RTVSPost2010Prop45
280
     0
102
RTVSPost2010PropOp45
 70
     1
102
RTVSPost2010Prop46
 90
       50
102
RTVSPost2010PropOp46
 70
     1
102
RTVSPost2010Prop47
 90
       50
102
RTVSPost2010PropOp47
 70
     1
102
RTVSPost2010Prop48
 90
       50
102
RTVSPost2010PropOp48
 70
     1
102
RTVSPost2010Prop49
280
     0
102
RTVSPost2010PropOp49
 70
     1
102
RTVSPost2010Prop50
 90
       50
102
RTVSPost2010PropOp50
 70
     1
102
RTVSPost2010Prop51ColorIndex
 90
      256
102
RTVSPost2010Prop51ColorRGB
 90
-16777216
102
RTVSPost2010PropOp51
 70
     0
102
RTVSPost2010Prop52
140
1.0
102
RTVSPost2010PropOp52
 70
     0
102
RTVSPost2010Prop53
 90
        2
102
RTVSPost2010PropOp53
 70
     1
102
RTVSPost2010Prop54
  1
strokes_ogs.tif
102
RTVSPost2010PropOp54
 70
     1
102
RTVSPost2010Prop55
280
     0
102
RTVSPost2010PropOp55
 70
     1
102
RTVSPost2010Prop56
140
1.0
102
RTVSPost2010PropOp56
 70
     1
102
RTVSPost2010Prop57
140
1.0
102
RTVSPost2010PropOp57
 70
     1
102
RTVSPropertyOp0
 70
     1
102
RTVSPropertyOp1
 70
     1
102
RTVSPropertyOp2
 70
     1
102
RTVSPropertyOp3
 70
     1
102
RTVSPropertyOp4
 70
     1
102
RTVSPropertyOp5
 70
     1
102
RTVSPropertyOp6
 70
     1
102
RTVSPropertyOp7
 70
     1
102
RTVSPropertyOp8
 70
     1
102
RTVSPropertyOp9
 70
     1
102
RTVSPropertyOp10
 70
     1
102
RTVSPropertyOp11
 70
     1
102
RTVSPropertyOp12
 70
     1
102
RTVSPropertyOp13
 70
     1
102
RTVSPropertyOp14
 70
     1
102
RTVSPropertyOp15
 70
     1
102
RTVSPropertyOp16
 70
     1
102
RTVSPropertyOp17
 70
     1
102
RTVSPropertyOp18
 70
     1
102
RTVSPropertyOp19
 70
     1
102
RTVSPropertyOp20
 70
     1
102
RTVSPropertyOp21
 70
     1
102
RTVSPropertyOp22
 70
     1
102
RTVSPropertyOp23
 70
     1
102
RTVSPropertyOp24
 70
     1
102
RTVSPropertyOp25
 70
     1
102
RTVSPropertyOp26
 70
     1
102
RTVSPropertyOp27
 70
     1
102
RTVSPropertyOp28
 70
     1
102
RTVSPropertyOp29
 70
     1
102
RTVSPropertyOp30
 70
     1
102
RTVSPropertyOp31
 70
     1
102
RTVSPropertyOp32
 70
     1
102
RTVSPropertyOp33
 70
     1
102
RTVSPropertyOp34
 70
     1
102
RTVSPropertyOp35
 70
     1
102
RTVSPropertyOp36
 70
     1
102
RTVSPropertyOp37
 70
     1
102
RTVSPropertyOp38
 70
     1
102
RTVSPropertyOp39
 70
     1
102
RTVSPropertyOp40
 70
     1
102
RTVSPropertyOp41
 70
     1
102
RTVSPropertyOp42
 70
     1
102
RTVSPropertyOp43
 70
     1
102
RTVSPropertyOp44
 70
     1
102
RTVSPropertyOp45
 70
     1
102
RTVSPropertyOp46
 70
     1
102
RTVSPropertyOp47
 70
     1
102
RTVSPropertyOp48
 70
     1
102
RTVSPropertyOp49
 70
     1
102
RTVSPropertyOp50
 70
     1
102
RTVSPropertyOp51
 70
     0
102
RTVSPropertyOp52
 70
     0
102
RTVSPropertyOp53
 70
     1
102
RTVSPropertyOp54
 70
     1
102
RTVSPropertyOp55
 70
     1
102
RTVSPropertyOp56
 70
     1
102
RTVSPropertyOp57
 70
     1
102
RTVSPropertyOp58
 70
     1
102
RTVSPropertyOp59
 70
     1
102
RTVSPropertyOp60
 70
     1
102
RTVSPropertyOp61
 70
     1
102
RTVSPropertyOp62
 70
     1
  0
XRECORD
  5
C562
102
{ACAD_REACTORS
330
C561
102
}
330
C561
100
AcDbXrecord
280
     1
102
RTVSPost2010Prop28
280
     0
102
RTVSPost2010PropOp28
 70
     1
102
RTVSPost2010Prop29
280
     1
102
RTVSPost2010PropOp29
 70
     1
102
RTVSPost2010Prop30
280
     1
102
RTVSPost2010PropOp30
 70
     1
102
RTVSPost2010Prop31
280
     0
102
RTVSPost2010PropOp31
 70
     1
102
RTVSPost2010Prop32
280
     0
102
RTVSPost2010PropOp32
 70
     1
102
RTVSPost2010Prop33
280
     0
102
RTVSPost2010PropOp33
 70
     1
102
RTVSPost2010Prop34
280
     0
102
RTVSPost2010PropOp34
 70
     1
102
RTVSPost2010Prop35
280
     0
102
RTVSPost2010PropOp35
 70
     1
102
RTVSPost2010Prop36
280
     0
102
RTVSPost2010PropOp36
 70
     1
102
RTVSPost2010Prop37
 90
       50
102
RTVSPost2010PropOp37
 70
     1
102
RTVSPost2010Prop38
140
0.0
102
RTVSPost2010PropOp38
 70
     1
102
RTVSPost2010Prop39
140
1.0
102
RTVSPost2010PropOp39
 70
     1
102
RTVSPost2010Prop40
 90
        0
102
RTVSPost2010PropOp40
 70
     1
102
RTVSPost2010Prop41ColorIndex
 90
       18
102
RTVSPost2010Prop41ColorRGB
 90
        0
102
RTVSPost2010PropOp41
 70
     1
102
RTVSPost2010Prop42
 90
       50
102
RTVSPost2010PropOp42
 70
     1
102
RTVSPost2010Prop43
 90
        3
102
RTVSPost2010PropOp43
 70
     1
102
RTVSPost2010Prop44ColorIndex
 90
        5
102
RTVSPost2010Prop44ColorRGB
 90
      255
102
RTVSPost2010PropOp44
 70
     1
102
RTVSPost2010Prop45
280
     0
102
RTVSPost2010PropOp45
 70
     1
102
RTVSPost2010Prop46
 90
       50
102
RTVSPost2010PropOp46
 70
     1
102
RTVSPost2010Prop47
 90
       50
102
RTVSPost2010PropOp47
 70
     1
102
RTVSPost2010Prop48
 90
       50
102
RTVSPost2010PropOp48
 70
     1
102
RTVSPost2010Prop49
280
     0
102
RTVSPost2010PropOp49
 70
     1
102
RTVSPost2010Prop50
 90
       50
102
RTVSPost2010PropOp50
 70
     1
102
RTVSPost2010Prop51ColorIndex
 90
      256
102
RTVSPost2010Prop51ColorRGB
 90
-16777216
102
RTVSPost2010PropOp51
 70
     0
102
RTVSPost2010Prop52
140
1.0
102
RTVSPost2010PropOp52
 70
     0
102
RTVSPost2010Prop53
 90
        2
102
RTVSPost2010PropOp53
 70
     1
102
RTVSPost2010Prop54
  1
strokes_ogs.tif
102
RTVSPost2010PropOp54
 70
     1
102
RTVSPost2010Prop55
280
     0
102
RTVSPost2010PropOp55
 70
     1
102
RTVSPost2010Prop56
140
1.0
102
RTVSPost2010PropOp56
 70
     1
102
RTVSPost2010Prop57
140
1.0
102
RTVSPost2010PropOp57
 70
     1
102
RTVSPropertyOp0
 70
     1
102
RTVSPropertyOp1
 70
     1
102
RTVSPropertyOp2
 70
     1
102
RTVSPropertyOp3
 70
     1
102
RTVSPropertyOp4
 70
     1
102
RTVSPropertyOp5
 70
     1
102
RTVSPropertyOp6
 70
     1
102
RTVSPropertyOp7
 70
     1
102
RTVSPropertyOp8
 70
     1
102
RTVSPropertyOp9
 70
     1
102
RTVSPropertyOp10
 70
     1
102
RTVSPropertyOp11
 70
     1
102
RTVSPropertyOp12
 70
     1
102
RTVSPropertyOp13
 70
     1
102
RTVSPropertyOp14
 70
     1
102
RTVSPropertyOp15
 70
     1
102
RTVSPropertyOp16
 70
     1
102
RTVSPropertyOp17
 70
     1
102
RTVSPropertyOp18
 70
     1
102
RTVSPropertyOp19
 70
     1
102
RTVSPropertyOp20
 70
     1
102
RTVSPropertyOp21
 70
     1
102
RTVSPropertyOp22
 70
     1
102
RTVSPropertyOp23
 70
     1
102
RTVSPropertyOp24
 70
     1
102
RTVSPropertyOp25
 70
     1
102
RTVSPropertyOp26
 70
     1
102
RTVSPropertyOp27
 70
     1
102
RTVSPropertyOp28
 70
     1
102
RTVSPropertyOp29
 70
     1
102
RTVSPropertyOp30
 70
     1
102
RTVSPropertyOp31
 70
     1
102
RTVSPropertyOp32
 70
     1
102
RTVSPropertyOp33
 70
     1
102
RTVSPropertyOp34
 70
     1
102
RTVSPropertyOp35
 70
     1
102
RTVSPropertyOp36
 70
     1
102
RTVSPropertyOp37
 70
     1
102
RTVSPropertyOp38
 70
     1
102
RTVSPropertyOp39
 70
     1
102
RTVSPropertyOp40
 70
     1
102
RTVSPropertyOp41
 70
     1
102
RTVSPropertyOp42
 70
     1
102
RTVSPropertyOp43
 70
     1
102
RTVSPropertyOp44
 70
     1
102
RTVSPropertyOp45
 70
     1
102
RTVSPropertyOp46
 70
     1
102
RTVSPropertyOp47
 70
     1
102
RTVSPropertyOp48
 70
     1
102
RTVSPropertyOp49
 70
     1
102
RTVSPropertyOp50
 70
     1
102
RTVSPropertyOp51
 70
     0
102
RTVSPropertyOp52
 70
     0
102
RTVSPropertyOp53
 70
     1
102
RTVSPropertyOp54
 70
     1
102
RTVSPropertyOp55
 70
     1
102
RTVSPropertyOp56
 70
     1
102
RTVSPropertyOp57
 70
     1
102
RTVSPropertyOp58
 70
     1
102
RTVSPropertyOp59
 70
     1
102
RTVSPropertyOp60
 70
     1
102
RTVSPropertyOp61
 70
     1
102
RTVSPropertyOp62
 70
     1
  0
XRECORD
  5
C556
102
{ACAD_REACTORS
330
C555
102
}
330
C555
100
AcDbXrecord
280
     1
102
RTVSPost2010Prop28
280
     0
102
RTVSPost2010PropOp28
 70
     1
102
RTVSPost2010Prop29
280
     1
102
RTVSPost2010PropOp29
 70
     1
102
RTVSPost2010Prop30
280
     1
102
RTVSPost2010PropOp30
 70
     1
102
RTVSPost2010Prop31
280
     0
102
RTVSPost2010PropOp31
 70
     1
102
RTVSPost2010Prop32
280
     0
102
RTVSPost2010PropOp32
 70
     1
102
RTVSPost2010Prop33
280
     0
102
RTVSPost2010PropOp33
 70
     1
102
RTVSPost2010Prop34
280
     0
102
RTVSPost2010PropOp34
 70
     1
102
RTVSPost2010Prop35
280
     0
102
RTVSPost2010PropOp35
 70
     1
102
RTVSPost2010Prop36
280
     0
102
RTVSPost2010PropOp36
 70
     1
102
RTVSPost2010Prop37
 90
       50
102
RTVSPost2010PropOp37
 70
     1
102
RTVSPost2010Prop38
140
0.0
102
RTVSPost2010PropOp38
 70
     1
102
RTVSPost2010Prop39
140
1.0
102
RTVSPost2010PropOp39
 70
     1
102
RTVSPost2010Prop40
 90
        0
102
RTVSPost2010PropOp40
 70
     1
102
RTVSPost2010Prop41ColorIndex
 90
       18
102
RTVSPost2010Prop41ColorRGB
 90
        0
102
RTVSPost2010PropOp41
 70
     1
102
RTVSPost2010Prop42
 90
       50
102
RTVSPost2010PropOp42
 70
     1
102
RTVSPost2010Prop43
 90
        3
102
RTVSPost2010PropOp43
 70
     1
102
RTVSPost2010Prop44ColorIndex
 90
        5
102
RTVSPost2010Prop44ColorRGB
 90
      255
102
RTVSPost2010PropOp44
 70
     1
102
RTVSPost2010Prop45
280
     0
102
RTVSPost2010PropOp45
 70
     1
102
RTVSPost2010Prop46
 90
       50
102
RTVSPost2010PropOp46
 70
     1
102
RTVSPost2010Prop47
 90
       50
102
RTVSPost2010PropOp47
 70
     1
102
RTVSPost2010Prop48
 90
       50
102
RTVSPost2010PropOp48
 70
     1
102
RTVSPost2010Prop49
280
     0
102
RTVSPost2010PropOp49
 70
     1
102
RTVSPost2010Prop50
 90
       50
102
RTVSPost2010PropOp50
 70
     1
102
RTVSPost2010Prop51ColorIndex
 90
      256
102
RTVSPost2010Prop51ColorRGB
 90
-16777216
102
RTVSPost2010PropOp51
 70
     0
102
RTVSPost2010Prop52
140
1.0
102
RTVSPost2010PropOp52
 70
     0
102
RTVSPost2010Prop53
 90
        2
102
RTVSPost2010PropOp53
 70
     1
102
RTVSPost2010Prop54
  1
strokes_ogs.tif
102
RTVSPost2010PropOp54
 70
     1
102
RTVSPost2010Prop55
280
     0
102
RTVSPost2010PropOp55
 70
     1
102
RTVSPost2010Prop56
140
1.0
102
RTVSPost2010PropOp56
 70
     1
102
RTVSPost2010Prop57
140
1.0
102
RTVSPost2010PropOp57
 70
     1
102
RTVSPropertyOp0
 70
     1
102
RTVSPropertyOp1
 70
     1
102
RTVSPropertyOp2
 70
     1
102
RTVSPropertyOp3
 70
     1
102
RTVSPropertyOp4
 70
     1
102
RTVSPropertyOp5
 70
     1
102
RTVSPropertyOp6
 70
     1
102
RTVSPropertyOp7
 70
     1
102
RTVSPropertyOp8
 70
     1
102
RTVSPropertyOp9
 70
     1
102
RTVSPropertyOp10
 70
     1
102
RTVSPropertyOp11
 70
     1
102
RTVSPropertyOp12
 70
     1
102
RTVSPropertyOp13
 70
     1
102
RTVSPropertyOp14
 70
     1
102
RTVSPropertyOp15
 70
     1
102
RTVSPropertyOp16
 70
     1
102
RTVSPropertyOp17
 70
     1
102
RTVSPropertyOp18
 70
     1
102
RTVSPropertyOp19
 70
     1
102
RTVSPropertyOp20
 70
     1
102
RTVSPropertyOp21
 70
     1
102
RTVSPropertyOp22
 70
     1
102
RTVSPropertyOp23
 70
     1
102
RTVSPropertyOp24
 70
     1
102
RTVSPropertyOp25
 70
     1
102
RTVSPropertyOp26
 70
     1
102
RTVSPropertyOp27
 70
     1
102
RTVSPropertyOp28
 70
     1
102
RTVSPropertyOp29
 70
     1
102
RTVSPropertyOp30
 70
     1
102
RTVSPropertyOp31
 70
     1
102
RTVSPropertyOp32
 70
     1
102
RTVSPropertyOp33
 70
     1
102
RTVSPropertyOp34
 70
     1
102
RTVSPropertyOp35
 70
     1
102
RTVSPropertyOp36
 70
     1
102
RTVSPropertyOp37
 70
     1
102
RTVSPropertyOp38
 70
     1
102
RTVSPropertyOp39
 70
     1
102
RTVSPropertyOp40
 70
     1
102
RTVSPropertyOp41
 70
     1
102
RTVSPropertyOp42
 70
     1
102
RTVSPropertyOp43
 70
     1
102
RTVSPropertyOp44
 70
     1
102
RTVSPropertyOp45
 70
     1
102
RTVSPropertyOp46
 70
     1
102
RTVSPropertyOp47
 70
     1
102
RTVSPropertyOp48
 70
     1
102
RTVSPropertyOp49
 70
     1
102
RTVSPropertyOp50
 70
     1
102
RTVSPropertyOp51
 70
     0
102
RTVSPropertyOp52
 70
     0
102
RTVSPropertyOp53
 70
     1
102
RTVSPropertyOp54
 70
     1
102
RTVSPropertyOp55
 70
     1
102
RTVSPropertyOp56
 70
     1
102
RTVSPropertyOp57
 70
     1
102
RTVSPropertyOp58
 70
     1
102
RTVSPropertyOp59
 70
     1
102
RTVSPropertyOp60
 70
     1
102
RTVSPropertyOp61
 70
     1
102
RTVSPropertyOp62
 70
     1
  0
XRECORD
  5
C576
102
{ACAD_REACTORS
330
C575
102
}
330
C575
100
AcDbXrecord
280
     1
102
RTVSPost2010Prop28
280
     0
102
RTVSPost2010PropOp28
 70
     1
102
RTVSPost2010Prop29
280
     1
102
RTVSPost2010PropOp29
 70
     1
102
RTVSPost2010Prop30
280
     1
102
RTVSPost2010PropOp30
 70
     1
102
RTVSPost2010Prop31
280
     0
102
RTVSPost2010PropOp31
 70
     1
102
RTVSPost2010Prop32
280
     0
102
RTVSPost2010PropOp32
 70
     1
102
RTVSPost2010Prop33
280
     0
102
RTVSPost2010PropOp33
 70
     1
102
RTVSPost2010Prop34
280
     0
102
RTVSPost2010PropOp34
 70
     1
102
RTVSPost2010Prop35
280
     0
102
RTVSPost2010PropOp35
 70
     1
102
RTVSPost2010Prop36
280
     0
102
RTVSPost2010PropOp36
 70
     1
102
RTVSPost2010Prop37
 90
       50
102
RTVSPost2010PropOp37
 70
     1
102
RTVSPost2010Prop38
140
0.0
102
RTVSPost2010PropOp38
 70
     1
102
RTVSPost2010Prop39
140
1.0
102
RTVSPost2010PropOp39
 70
     1
102
RTVSPost2010Prop40
 90
        0
102
RTVSPost2010PropOp40
 70
     1
102
RTVSPost2010Prop41ColorIndex
 90
       18
102
RTVSPost2010Prop41ColorRGB
 90
        0
102
RTVSPost2010PropOp41
 70
     1
102
RTVSPost2010Prop42
 90
       50
102
RTVSPost2010PropOp42
 70
     1
102
RTVSPost2010Prop43
 90
        3
102
RTVSPost2010PropOp43
 70
     1
102
RTVSPost2010Prop44ColorIndex
 90
        5
102
RTVSPost2010Prop44ColorRGB
 90
      255
102
RTVSPost2010PropOp44
 70
     1
102
RTVSPost2010Prop45
280
     0
102
RTVSPost2010PropOp45
 70
     1
102
RTVSPost2010Prop46
 90
       50
102
RTVSPost2010PropOp46
 70
     1
102
RTVSPost2010Prop47
 90
       50
102
RTVSPost2010PropOp47
 70
     1
102
RTVSPost2010Prop48
 90
       50
102
RTVSPost2010PropOp48
 70
     1
102
RTVSPost2010Prop49
280
     0
102
RTVSPost2010PropOp49
 70
     1
102
RTVSPost2010Prop50
 90
       50
102
RTVSPost2010PropOp50
 70
     1
102
RTVSPost2010Prop51ColorIndex
 90
      256
102
RTVSPost2010Prop51ColorRGB
 90
-16777216
102
RTVSPost2010PropOp51
 70
     0
102
RTVSPost2010Prop52
140
1.0
102
RTVSPost2010PropOp52
 70
     0
102
RTVSPost2010Prop53
 90
        2
102
RTVSPost2010PropOp53
 70
     1
102
RTVSPost2010Prop54
  1
strokes_ogs.tif
102
RTVSPost2010PropOp54
 70
     1
102
RTVSPost2010Prop55
280
     0
102
RTVSPost2010PropOp55
 70
     1
102
RTVSPost2010Prop56
140
1.0
102
RTVSPost2010PropOp56
 70
     1
102
RTVSPost2010Prop57
140
1.0
102
RTVSPost2010PropOp57
 70
     1
102
RTVSPropertyOp0
 70
     1
102
RTVSPropertyOp1
 70
     1
102
RTVSPropertyOp2
 70
     1
102
RTVSPropertyOp3
 70
     1
102
RTVSPropertyOp4
 70
     1
102
RTVSPropertyOp5
 70
     1
102
RTVSPropertyOp6
 70
     1
102
RTVSPropertyOp7
 70
     1
102
RTVSPropertyOp8
 70
     1
102
RTVSPropertyOp9
 70
     1
102
RTVSPropertyOp10
 70
     1
102
RTVSPropertyOp11
 70
     1
102
RTVSPropertyOp12
 70
     1
102
RTVSPropertyOp13
 70
     1
102
RTVSPropertyOp14
 70
     1
102
RTVSPropertyOp15
 70
     1
102
RTVSPropertyOp16
 70
     1
102
RTVSPropertyOp17
 70
     1
102
RTVSPropertyOp18
 70
     1
102
RTVSPropertyOp19
 70
     1
102
RTVSPropertyOp20
 70
     1
102
RTVSPropertyOp21
 70
     1
102
RTVSPropertyOp22
 70
     1
102
RTVSPropertyOp23
 70
     1
102
RTVSPropertyOp24
 70
     1
102
RTVSPropertyOp25
 70
     1
102
RTVSPropertyOp26
 70
     1
102
RTVSPropertyOp27
 70
     1
102
RTVSPropertyOp28
 70
     1
102
RTVSPropertyOp29
 70
     1
102
RTVSPropertyOp30
 70
     1
102
RTVSPropertyOp31
 70
     1
102
RTVSPropertyOp32
 70
     1
102
RTVSPropertyOp33
 70
     1
102
RTVSPropertyOp34
 70
     1
102
RTVSPropertyOp35
 70
     1
102
RTVSPropertyOp36
 70
     1
102
RTVSPropertyOp37
 70
     1
102
RTVSPropertyOp38
 70
     1
102
RTVSPropertyOp39
 70
     1
102
RTVSPropertyOp40
 70
     1
102
RTVSPropertyOp41
 70
     1
102
RTVSPropertyOp42
 70
     1
102
RTVSPropertyOp43
 70
     1
102
RTVSPropertyOp44
 70
     1
102
RTVSPropertyOp45
 70
     1
102
RTVSPropertyOp46
 70
     1
102
RTVSPropertyOp47
 70
     1
102
RTVSPropertyOp48
 70
     1
102
RTVSPropertyOp49
 70
     1
102
RTVSPropertyOp50
 70
     1
102
RTVSPropertyOp51
 70
     0
102
RTVSPropertyOp52
 70
     0
102
RTVSPropertyOp53
 70
     1
102
RTVSPropertyOp54
 70
     1
102
RTVSPropertyOp55
 70
     1
102
RTVSPropertyOp56
 70
     1
102
RTVSPropertyOp57
 70
     1
102
RTVSPropertyOp58
 70
     1
102
RTVSPropertyOp59
 70
     1
102
RTVSPropertyOp60
 70
     1
102
RTVSPropertyOp61
 70
     1
102
RTVSPropertyOp62
 70
     1
  0
ENDSEC
  0
EOF
