  0
SECTION
  2
HEADER
  9
$ACADVER
  1
AC1015
  9
$ACADMAINTVER
 70
    18
  9
$DWGCODEPAGE
  3
ANSI_1252
  9
$INSBASE
 10
0.0
 20
0.0
 30
0.0
  9
$EXTMIN
 10
-236.3653557425893
 20
-320.7288204826517
 30
-0.0015258207003583
  9
$EXTMAX
 10
309.1104134464526
 20
349.8505561729551
 30
0.0000000349246037
  9
$LIMMIN
 10
0.0
 20
0.0
  9
$LIMMAX
 10
420.0
 20
297.0
  9
$ORTHOMODE
 70
     0
  9
$REGENMODE
 70
     1
  9
$FILLMODE
 70
     1
  9
$QTEXTMODE
 70
     0
  9
$MIRRTEXT
 70
     0
  9
$LTSCALE
 40
1.0
  9
$ATTMODE
 70
     1
  9
$TEXTSIZE
 40
2.5
  9
$TRACEWID
 40
1.0
  9
$TEXTSTYLE
  7
Standard
  9
$CLAYER
  8
0
  9
$CELTYPE
  6
ByLayer
  9
$CECOLOR
 62
   256
  9
$CELTSCALE
 40
1.0
  9
$DISPSILH
 70
     0
  9
$DIMSCALE
 40
1.0
  9
$DIMASZ
 40
2.5
  9
$DIMEXO
 40
0.625
  9
$DIMDLI
 40
3.75
  9
$DIMRND
 40
0.0
  9
$DIMDLE
 40
0.0
  9
$DIMEXE
 40
1.25
  9
$DIMTP
 40
0.0
  9
$DIMTM
 40
0.0
  9
$DIMTXT
 40
2.5
  9
$DIMCEN
 40
2.5
  9
$DIMTSZ
 40
0.0
  9
$DIMTOL
 70
     0
  9
$DIMLIM
 70
     0
  9
$DIMTIH
 70
     0
  9
$DIMTOH
 70
     0
  9
$DIMSE1
 70
     0
  9
$DIMSE2
 70
     0
  9
$DIMTAD
 70
     1
  9
$DIMZIN
 70
     8
  9
$DIMBLK
  1

  9
$DIMASO
 70
     1
  9
$DIMSHO
 70
     1
  9
$DIMPOST
  1

  9
$DIMAPOST
  1

  9
$DIMALT
 70
     0
  9
$DIMALTD
 70
     3
  9
$DIMALTF
 40
0.03937007874016
  9
$DIMLFAC
 40
1.0
  9
$DIMTOFL
 70
     1
  9
$DIMTVP
 40
0.0
  9
$DIMTIX
 70
     0
  9
$DIMSOXD
 70
     0
  9
$DIMSAH
 70
     0
  9
$DIMBLK1
  1

  9
$DIMBLK2
  1

  9
$DIMSTYLE
  2
ISO-25
  9
$DIMCLRD
 70
     0
  9
$DIMCLRE
 70
     0
  9
$DIMCLRT
 70
     0
  9
$DIMTFAC
 40
1.0
  9
$DIMGAP
 40
0.625
  9
$DIMJUST
 70
     0
  9
$DIMSD1
 70
     0
  9
$DIMSD2
 70
     0
  9
$DIMTOLJ
 70
     0
  9
$DIMTZIN
 70
     8
  9
$DIMALTZ
 70
     0
  9
$DIMALTTZ
 70
     0
  9
$DIMUPT
 70
     0
  9
$DIMDEC
 70
     2
  9
$DIMTDEC
 70
     2
  9
$DIMALTU
 70
     2
  9
$DIMALTTD
 70
     3
  9
$DIMTXSTY
  7
Standard
  9
$DIMAUNIT
 70
     0
  9
$DIMADEC
 70
     0
  9
$DIMALTRND
 40
0.0
  9
$DIMAZIN
 70
     0
  9
$DIMDSEP
 70
    44
  9
$DIMATFIT
 70
     3
  9
$DIMFRAC
 70
     0
  9
$DIMLDRBLK
  1

  9
$DIMLUNIT
 70
     2
  9
$DIMLWD
 70
    -2
  9
$DIMLWE
 70
    -2
  9
$DIMTMOVE
 70
     0
  9
$LUNITS
 70
     2
  9
$LUPREC
 70
     4
  9
$SKETCHINC
 40
1.0
  9
$FILLETRAD
 40
0.0
  9
$AUNITS
 70
     0
  9
$AUPREC
 70
     0
  9
$MENU
  1
.
  9
$ELEVATION
 40
0.0
  9
$PELEVATION
 40
0.0
  9
$THICKNESS
 40
0.0
  9
$LIMCHECK
 70
     0
  9
$CHAMFERA
 40
0.0
  9
$CHAMFERB
 40
0.0
  9
$CHAMFERC
 40
0.0
  9
$CHAMFERD
 40
0.0
  9
$SKPOLY
 70
     0
  9
$TDCREATE
 40
2460398.356956019
  9
$TDUCREATE
 40
2460398.065289352
  9
$TDUPDATE
 40
2460398.376435186
  9
$TDUUPDATE
 40
2460398.084768518
  9
$TDINDWG
 40
0.0081481481
  9
$TDUSRTIMER
 40
0.0081481481
  9
$USRTIMER
 70
     1
  9
$ANGBASE
 50
0.0
  9
$ANGDIR
 70
     0
  9
$PDMODE
 70
     0
  9
$PDSIZE
 40
0.0
  9
$PLINEWID
 40
0.0
  9
$SPLFRAME
 70
     0
  9
$SPLINETYPE
 70
     6
  9
$SPLINESEGS
 70
     8
  9
$HANDSEED
  5
C7DD
  9
$SURFTAB1
 70
     6
  9
$SURFTAB2
 70
     6
  9
$SURFTYPE
 70
     6
  9
$SURFU
 70
     6
  9
$SURFV
 70
     6
  9
$UCSBASE
  2

  9
$UCSNAME
  2

  9
$UCSORG
 10
0.0
 20
0.0
 30
0.0
  9
$UCSXDIR
 10
1.0
 20
0.0
 30
0.0
  9
$UCSYDIR
 10
0.0
 20
1.0
 30
0.0
  9
$UCSORTHOREF
  2

  9
$UCSORTHOVIEW
 70
     0
  9
$UCSORGTOP
 10
0.0
 20
0.0
 30
0.0
  9
$UCSORGBOTTOM
 10
0.0
 20
0.0
 30
0.0
  9
$UCSORGLEFT
 10
0.0
 20
0.0
 30
0.0
  9
$UCSORGRIGHT
 10
0.0
 20
0.0
 30
0.0
  9
$UCSORGFRONT
 10
0.0
 20
0.0
 30
0.0
  9
$UCSORGBACK
 10
0.0
 20
0.0
 30
0.0
  9
$PUCSBASE
  2

  9
$PUCSNAME
  2

  9
$PUCSORG
 10
0.0
 20
0.0
 30
0.0
  9
$PUCSXDIR
 10
1.0
 20
0.0
 30
0.0
  9
$PUCSYDIR
 10
0.0
 20
1.0
 30
0.0
  9
$PUCSORTHOREF
  2

  9
$PUCSORTHOVIEW
 70
     0
  9
$PUCSORGTOP
 10
0.0
 20
0.0
 30
0.0
  9
$PUCSORGBOTTOM
 10
0.0
 20
0.0
 30
0.0
  9
$PUCSORGLEFT
 10
0.0
 20
0.0
 30
0.0
  9
$PUCSORGRIGHT
 10
0.0
 20
0.0
 30
0.0
  9
$PUCSORGFRONT
 10
0.0
 20
0.0
 30
0.0
  9
$PUCSORGBACK
 10
0.0
 20
0.0
 30
0.0
  9
$USERI1
 70
     0
  9
$USERI2
 70
     0
  9
$USERI3
 70
     0
  9
$USERI4
 70
     0
  9
$USERI5
 70
     0
  9
$USERR1
 40
0.0
  9
$USERR2
 40
0.0
  9
$USERR3
 40
0.0
  9
$USERR4
 40
0.0
  9
$USERR5
 40
0.0
  9
$WORLDVIEW
 70
     1
  9
$SHADEDGE
 70
     3
  9
$SHADEDIF
 70
    70
  9
$TILEMODE
 70
     1
  9
$MAXACTVP
 70
    48
  9
$PINSBASE
 10
0.0
 20
0.0
 30
0.0
  9
$PLIMCHECK
 70
     0
  9
$PEXTMIN
 10
0.0
 20
0.0
 30
0.0
  9
$PEXTMAX
 10
0.0
 20
0.0
 30
0.0
  9
$PLIMMIN
 10
0.0
 20
0.0
  9
$PLIMMAX
 10
12.0
 20
9.0
  9
$UNITMODE
 70
     0
  9
$VISRETAIN
 70
     1
  9
$PLINEGEN
 70
     0
  9
$PSLTSCALE
 70
     1
  9
$TREEDEPTH
 70
  3020
  9
$CMLSTYLE
  2
Standard
  9
$CMLJUST
 70
     0
  9
$CMLSCALE
 40
20.0
  9
$PROXYGRAPHICS
 70
     1
  9
$MEASUREMENT
 70
     1
  9
$CELWEIGHT
370
    -1
  9
$ENDCAPS
280
     0
  9
$JOINSTYLE
280
     0
  9
$LWDISPLAY
290
     0
  9
$INSUNITS
 70
     4
  9
$HYPERLINKBASE
  1

  9
$STYLESHEET
  1

  9
$XEDIT
290
     1
  9
$CEPSNTYPE
380
     0
  9
$PSTYLEMODE
290
     1
  9
$FINGERPRINTGUID
  2
{6C1266EE-7BC1-BF4A-B059-A6E7702B10CE}
  9
$VERSIONGUID
  2
{4721ABFA-2114-1746-826B-75602D4537D8}
  9
$EXTNAMES
290
     1
  9
$PSVPSCALE
 40
0.0
  9
$OLESTARTUP
290
     0
  0
ENDSEC
  0
SECTION
  2
CLASSES
  0
CLASS
  1
ACDBDICTIONARYWDFLT
  2
AcDbDictionaryWithDefault
  3
ObjectDBX Classes
 90
        0
280
     0
281
     0
  0
CLASS
  1
ACDBPLACEHOLDER
  2
AcDbPlaceHolder
  3
ObjectDBX Classes
 90
        0
280
     0
281
     0
  0
CLASS
  1
LAYOUT
  2
AcDbLayout
  3
ObjectDBX Classes
 90
        0
280
     0
281
     0
  0
CLASS
  1
DICTIONARYVAR
  2
AcDbDictionaryVar
  3
ObjectDBX Classes
 90
        0
280
     0
281
     0
  0
CLASS
  1
TABLESTYLE
  2
AcDbTableStyle
  3
ObjectDBX Classes
 90
     4095
280
     0
281
     0
  0
CLASS
  1
MATERIAL
  2
AcDbMaterial
  3
ObjectDBX Classes
 90
     1153
280
     0
281
     0
  0
CLASS
  1
VISUALSTYLE
  2
AcDbVisualStyle
  3
ObjectDBX Classes
 90
     4095
280
     0
281
     0
  0
CLASS
  1
SCALE
  2
AcDbScale
  3
ObjectDBX Classes
 90
     1153
280
     0
281
     0
  0
CLASS
  1
MLEADERSTYLE
  2
AcDbMLeaderStyle
  3
ACDB_MLEADERSTYLE_CLASS
 90
     4095
280
     0
281
     0
  0
CLASS
  1
CELLSTYLEMAP
  2
AcDbCellStyleMap
  3
ObjectDBX Classes
 90
     1152
280
     0
281
     0
  0
CLASS
  1
EXACXREFPANELOBJECT
  2
ExAcXREFPanelObject
  3
EXAC_ESW
 90
    33793
280
     0
281
     0
  0
CLASS
  1
NPOCOLLECTION
  2
AcDbImpNonPersistentObjectsCollection
  3
ObjectDBX Classes
 90
    33921
280
     0
281
     0
  0
CLASS
  1
LAYER_INDEX
  2
AcDbLayerIndex
  3
ObjectDBX Classes
 90
    32768
280
     0
281
     0
  0
CLASS
  1
SPATIAL_INDEX
  2
AcDbSpatialIndex
  3
ObjectDBX Classes
 90
    32768
280
     0
281
     0
  0
CLASS
  1
IDBUFFER
  2
AcDbIdBuffer
  3
ObjectDBX Classes
 90
    32768
280
     0
281
     0
  0
CLASS
  1
ACDBSECTIONVIEWSTYLE
  2
AcDbSectionViewStyle
  3
ObjectDBX Classes
 90
     1025
280
     0
281
     0
  0
CLASS
  1
ACDBDETAILVIEWSTYLE
  2
AcDbDetailViewStyle
  3
ObjectDBX Classes
 90
     1025
280
     0
281
     0
  0
CLASS
  1
XRECORD
  2
AcDbXrecord
  3
ObjectDBX Classes
 90
        0
280
     0
281
     0
  0
ENDSEC
  0
SECTION
  2
TABLES
  0
TABLE
  2
VPORT
  5
8
102
{ACAD_XDICTIONARY
360
C6EB
102
}
330
0
100
AcDbSymbolTable
 70
     1
  0
VPORT
  5
EA
330
8
100
AcDbSymbolTableRecord
100
AcDbViewportTableRecord
  2
*Active
 70
     0
 10
0.0
 20
0.0
 11
1.0
 21
1.0
 12
36.37252885193167
 22
14.56086784515167
 13
0.0
 23
0.0
 14
10.0
 24
10.0
 15
10.0
 25
10.0
 16
0.0
 26
0.0
 36
1.0
 17
0.0
 27
0.0
 37
0.0
 40
713.1003969465048
 41
0.9846153846153844
 42
50.0
 43
0.0
 44
0.0
 50
0.0
 51
0.0
 71
     0
 72
  1000
 73
     1
 74
     3
 75
     0
 76
     1
 77
     0
 78
     0
281
     0
 65
     1
110
0.0
120
0.0
130
0.0
111
1.0
121
0.0
131
0.0
112
0.0
122
1.0
132
0.0
 79
     0
146
0.0
1001
ACAD_NAV_VCDISPLAY
1070
     3
  0
ENDTAB
  0
TABLE
  2
LTYPE
  5
5
330
0
100
AcDbSymbolTable
 70
     1
  0
LTYPE
  5
14
330
5
100
AcDbSymbolTableRecord
100
AcDbLinetypeTableRecord
  2
ByBlock
 70
     0
  3

 72
    65
 73
     0
 40
0.0
  0
LTYPE
  5
15
330
5
100
AcDbSymbolTableRecord
100
AcDbLinetypeTableRecord
  2
ByLayer
 70
     0
  3

 72
    65
 73
     0
 40
0.0
  0
LTYPE
  5
16
330
5
100
AcDbSymbolTableRecord
100
AcDbLinetypeTableRecord
  2
Continuous
 70
     0
  3
Solid line
 72
    65
 73
     0
 40
0.0
  0
ENDTAB
  0
TABLE
  2
LAYER
  5
2
102
{ACAD_XDICTIONARY
360
1FF
102
}
330
0
100
AcDbSymbolTable
 70
     1
  0
LAYER
  5
10
102
{ACAD_XDICTIONARY
360
13C
102
}
330
2
100
AcDbSymbolTableRecord
100
AcDbLayerTableRecord
  2
0
 70
     0
 62
     7
  6
Continuous
370
    -3
390
F
  0
ENDTAB
  0
TABLE
  2
STYLE
  5
3
330
0
100
AcDbSymbolTable
 70
     1
  0
STYLE
  5
11
330
3
100
AcDbSymbolTableRecord
100
AcDbTextStyleTableRecord
  2
Standard
 70
     0
 40
0.0
 41
1.0
 50
0.0
 71
     0
 42
2.5
  3
arial.ttf
  4

1001
ACAD
1000
Arial
1071
       34
  0
ENDTAB
  0
TABLE
  2
VIEW
  5
6
330
0
100
AcDbSymbolTable
 70
     0
  0
ENDTAB
  0
TABLE
  2
UCS
  5
7
330
0
100
AcDbSymbolTable
 70
     0
  0
ENDTAB
  0
TABLE
  2
APPID
  5
9
330
0
100
AcDbSymbolTable
 70
     8
  0
APPID
  5
12
330
9
100
AcDbSymbolTableRecord
100
AcDbRegAppTableRecord
  2
ACAD
 70
     0
  0
APPID
  5
9E
330
9
100
AcDbSymbolTableRecord
100
AcDbRegAppTableRecord
  2
ACAD_PSEXT
 70
     0
  0
APPID
  5
133
330
9
100
AcDbSymbolTableRecord
100
AcDbRegAppTableRecord
  2
AcadAnnoPO
 70
     0
  0
APPID
  5
134
330
9
100
AcDbSymbolTableRecord
100
AcDbRegAppTableRecord
  2
AcadAnnotative
 70
     0
  0
APPID
  5
135
330
9
100
AcDbSymbolTableRecord
100
AcDbRegAppTableRecord
  2
ACAD_DSTYLE_DIMJAG
 70
     0
  0
APPID
  5
136
330
9
100
AcDbSymbolTableRecord
100
AcDbRegAppTableRecord
  2
ACAD_DSTYLE_DIMTALN
 70
     0
  0
APPID
  5
165
330
9
100
AcDbSymbolTableRecord
100
AcDbRegAppTableRecord
  2
ACAD_MLEADERVER
 70
     0
  0
APPID
  5
217
330
9
100
AcDbSymbolTableRecord
100
AcDbRegAppTableRecord
  2
ACAD_NAV_VCDISPLAY
 70
     0
  0
ENDTAB
  0
TABLE
  2
DIMSTYLE
  5
A
330
0
100
AcDbSymbolTable
 70
     1
100
AcDbDimStyleTable
 71
     0
  0
DIMSTYLE
105
27
330
A
100
AcDbSymbolTableRecord
100
AcDbDimStyleTableRecord
  2
ISO-25
 70
     0
 41
2.5
 42
0.625
 43
3.75
 44
1.25
 73
     0
 74
     0
 77
     1
 78
     8
140
2.5
141
2.5
143
0.03937007874016
147
0.625
171
     3
172
     1
271
     2
272
     2
274
     3
278
    44
283
     0
284
     8
340
11
  0
ENDTAB
  0
TABLE
  2
BLOCK_RECORD
  5
1
330
0
100
AcDbSymbolTable
 70
     7
  0
BLOCK_RECORD
  5
1F
102
{ACAD_XDICTIONARY
360
1CE
102
}
330
1
100
AcDbSymbolTableRecord
100
AcDbBlockTableRecord
  2
*Model_Space
340
22
  0
BLOCK_RECORD
  5
D2
102
{ACAD_XDICTIONARY
360
C69E
102
}
330
1
100
AcDbSymbolTableRecord
100
AcDbBlockTableRecord
  2
*Paper_Space
340
D3
  0
BLOCK_RECORD
  5
D6
102
{ACAD_XDICTIONARY
360
C6A0
102
}
330
1
100
AcDbSymbolTableRecord
100
AcDbBlockTableRecord
  2
*Paper_Space0
340
D7
  0
BLOCK_RECORD
  5
C4EE
330
1
100
AcDbSymbolTableRecord
100
AcDbBlockTableRecord
  2
SAE500_95_2-Front
340
0
102
{BLKREFS
331
C694
102
}
  0
BLOCK_RECORD
  5
C551
330
1
100
AcDbSymbolTableRecord
100
AcDbBlockTableRecord
  2
SAE500_95_2-Left
340
0
102
{BLKREFS
331
C695
102
}
  0
BLOCK_RECORD
  5
C575
330
1
100
AcDbSymbolTableRecord
100
AcDbBlockTableRecord
  2
SAE500_95_2-Right
340
0
102
{BLKREFS
331
C696
102
}
  0
BLOCK_RECORD
  5
C599
330
1
100
AcDbSymbolTableRecord
100
AcDbBlockTableRecord
  2
SAE500_95_2-Top
340
0
102
{BLKREFS
331
C697
102
}
  0
BLOCK_RECORD
  5
C5C8
330
1
100
AcDbSymbolTableRecord
100
AcDbBlockTableRecord
  2
SAE500_95_2-Bottom
340
0
102
{BLKREFS
331
C698
102
}
  0
BLOCK_RECORD
  5
C5EB
330
1
100
AcDbSymbolTableRecord
100
AcDbBlockTableRecord
  2
SAE500_95_2-ISO
340
0
102
{BLKREFS
331
C699
102
}
  0
ENDTAB
  0
ENDSEC
  0
SECTION
  2
BLOCKS
  0
BLOCK
  5
20
330
1F
100
AcDbEntity
  8
0
100
AcDbBlockBegin
  2
*Model_Space
 70
     0
 10
0.0
 20
0.0
 30
0.0
  3
*Model_Space
  1

  0
ENDBLK
  5
21
330
1F
100
AcDbEntity
  8
0
100
AcDbBlockEnd
  0
BLOCK
  5
D4
330
D2
100
AcDbEntity
 67
     1
  8
0
100
AcDbBlockBegin
  2
*Paper_Space
 70
     0
 10
0.0
 20
0.0
 30
0.0
  3
*Paper_Space
  1

  0
ENDBLK
  5
D5
330
D2
100
AcDbEntity
 67
     1
  8
0
100
AcDbBlockEnd
  0
BLOCK
  5
D8
330
D6
100
AcDbEntity
 67
     1
  8
0
100
AcDbBlockBegin
  2
*Paper_Space0
 70
     0
 10
0.0
 20
0.0
 30
0.0
  3
*Paper_Space0
  1

  0
ENDBLK
  5
D9
330
D6
100
AcDbEntity
 67
     1
  8
0
100
AcDbBlockEnd
  0
BLOCK
  5
C4EF
330
C4EE
100
AcDbEntity
  8
0
100
AcDbBlockBegin
  2
SAE500_95_2-Front
 70
     0
 10
0.0
 20
0.0
 30
0.0
  3
SAE500_95_2-Front
  1

  0
SPLINE
  5
C4F1
330
C4EE
100
AcDbEntity
  8
0
100
AcDbSpline
210
0.0
220
0.0
230
1.0
 70
     8
 71
     3
 72
    17
 73
    13
 74
     0
 42
0.000000001
 43
0.0000000001
 40
0.0
 40
0.0
 40
0.0
 40
0.0
 40
0.3690626432184121
 40
0.3690626432184121
 40
0.3690626432184121
 40
0.6936378220004606
 40
0.6936378220004606
 40
0.6936378220004606
 40
0.9219545386459827
 40
0.9219545386459827
 40
0.9219545386459827
 40
0.9818174092013171
 40
0.9818174092013171
 40
0.9818174092013171
 40
0.9818174092013171
 10
52.16666666666675
 20
17.87499999999996
 30
0.0
 10
51.8108345827817
 20
17.6117213580521
 30
0.0
 10
51.35987304241748
 20
17.40773000725244
 30
0.0
 10
50.92414735818166
 20
17.18602723250462
 30
0.0
 10
50.54094481937288
 20
16.9910489027481
 30
0.0
 10
50.17697529433288
 20
16.78354840177022
 30
0.0
 10
49.91326214681965
 20
16.50806212760439
 30
0.0
 10
49.72775775858388
 20
16.31427613991897
 30
0.0
 10
49.58930240207248
 20
16.07964051226235
 30
0.0
 10
49.53081927694037
 20
15.80459395177115
 30
0.0
 10
49.51548545556762
 20
15.73247887894914
 30
0.0
 10
49.5055411147315
 20
15.66011333235558
 30
0.0
 10
49.50174101308743
 20
15.5779037366294
 30
0.0
  0
LINE
  5
C4F2
330
C4EE
100
AcDbEntity
  8
0
100
AcDbLine
 10
51.5
 20
17.87499999999999
 30
0.0
 11
52.10207915056733
 21
17.87499999999999
 31
0.0
  0
LINE
  5
C4F3
330
C4EE
100
AcDbEntity
  8
0
100
AcDbLine
 10
51.41555343255212
 20
17.87499999999999
 30
0.0
 11
51.5
 21
17.87499999999999
 31
0.0
  0
LINE
  5
C4F4
330
C4EE
100
AcDbEntity
  8
0
100
AcDbLine
 10
49.50000000000001
 20
17.87499999999999
 30
0.0
 11
51.4155534325521
 21
17.87499999999999
 31
0.0
  0
SPLINE
  5
C4F5
330
C4EE
100
AcDbEntity
  8
0
100
AcDbSpline
210
0.0
220
0.0
230
1.0
 70
     8
 71
     3
 72
    22
 73
    18
 74
     0
 42
0.000000001
 43
0.0000000001
 40
0.0436816776317069
 40
0.0436816776317069
 40
0.0436816776317069
 40
0.0436816776317069
 40
0.0444009118007655
 40
0.0444009118007655
 40
0.0463943000270273
 40
0.0463943000270273
 40
0.0504089091670767
 40
0.0504089091670767
 40
0.0545066171446484
 40
0.0545066171446484
 40
0.0627138213388552
 40
0.0627138213388552
 40
0.0804266110125498
 40
0.0804266110125498
 40
0.0836482602905989
 40
0.0836482602905989
 40
0.0869448943693401
 40
0.0869448943693401
 40
0.0869448943693401
 40
0.0869448943693401
 10
49.51855793925554
 20
15.80439796625031
 30
0.0
 10
49.51855793922235
 20
15.80439796599145
 30
0.0
 10
49.51854225705218
 20
15.80427571298531
 30
0.0
 10
49.5184284651677
 20
15.80338250130142
 30
0.0
 10
49.51823010884088
 20
15.80181974371342
 30
0.0
 10
49.5174054264626
 20
15.79514260080997
 30
0.0
 10
49.51655389386093
 20
15.78803575152861
 30
0.0
 10
49.51473622296113
 20
15.77171702757915
 30
0.0
 10
49.51375059868355
 20
15.76233348249048
 30
0.0
 10
49.51087057670942
 20
15.73271832519577
 30
0.0
 10
49.50905494079171
 20
15.71091387136344
 30
0.0
 10
49.50435511283039
 20
15.64408983603279
 30
0.0
 10
49.50227724327103
 20
15.5977541804102
 30
0.0
 10
49.50076986622229
 20
15.53993582593994
 30
0.0
 10
49.50056966703017
 20
15.53108302256827
 30
0.0
 10
49.50023541831696
 20
15.51418849420022
 30
0.0
 10
49.50010160454755
 20
15.50601371127624
 30
0.0
 10
49.50001349789396
 20
15.49999993483832
 30
0.0
  0
SPLINE
  5
C4F6
330
C4EE
100
AcDbEntity
  8
0
100
AcDbSpline
210
0.0
220
0.0
230
1.0
 70
     8
 71
     3
 72
    14
 73
    10
 74
     0
 42
0.000000001
 43
0.0000000001
 40
0.0219943628558654
 40
0.0219943628558654
 40
0.0219943628558654
 40
0.0219943628558654
 40
0.0230847046459589
 40
0.0230847046459589
 40
0.0237758180127979
 40
0.0237758180127979
 40
0.0237975178089766
 40
0.0237975178089766
 40
0.0238174138939627
 40
0.0238174138939627
 40
0.0238174138939627
 40
0.0238174138939627
 10
49.50031144798099
 20
15.51788548285638
 30
0.0
 10
49.50028744800892
 20
15.51433081289567
 30
0.0
 10
49.50026835435115
 20
15.51076962074064
 30
0.0
 10
49.50024452876193
 20
15.50494119204254
 30
0.0
 10
49.50023709678619
 20
15.50267749261884
 30
0.0
 10
49.50023118724616
 20
15.50034013404581
 30
0.0
 10
49.50023100902272
 20
15.50026897655556
 30
0.0
 10
49.50023067059915
 20
15.50013257145231
 30
0.0
 10
49.50023051013224
 20
15.50006732423717
 30
0.0
 10
49.50023035107002
 20
15.5000020749102
 30
0.0
  0
SPLINE
  5
C4F7
330
C4EE
100
AcDbEntity
  8
0
100
AcDbSpline
210
0.0
220
0.0
230
1.0
 70
     8
 71
     3
 72
    16
 73
    12
 74
     0
 42
0.000000001
 43
0.0000000001
 40
0.0120297722722625
 40
0.0120297722722625
 40
0.0120297722722625
 40
0.0120297722722625
 40
0.0126087443691814
 40
0.0126087443691814
 40
0.013104565069126
 40
0.013104565069126
 40
0.0132904932369265
 40
0.0132904932369265
 40
0.0133602161726826
 40
0.0133602161726826
 40
0.0134218648358696
 40
0.0134218648358696
 40
0.0134218648358696
 40
0.0134218648358696
 10
49.50018588318982
 20
15.51084355015846
 30
0.0
 10
49.50016436787997
 20
15.50937501866328
 30
0.0
 10
49.50014347212289
 20
15.50789026257022
 30
0.0
 10
49.50010608596628
 20
15.50511827600571
 30
0.0
 10
49.50008936118378
 20
15.50383097400727
 30
0.0
 10
49.50006714805965
 20
15.5020529847532
 30
0.0
 10
49.50006116993574
 20
15.50156726482089
 30
0.0
 10
49.50005306262024
 20
15.50089845357749
 30
0.0
 10
49.50005086304848
 20
15.50071595371663
 30
0.0
 10
49.50004674049866
 20
15.50037191864096
 30
0.0
 10
49.50004481498672
 20
15.50021040300779
 30
0.0
 10
49.50004289861329
 20
15.50004882161931
 30
0.0
  0
SPLINE
  5
C4F8
330
C4EE
100
AcDbEntity
  8
0
100
AcDbSpline
210
0.0
220
0.0
230
1.0
 70
     8
 71
     3
 72
     8
 73
     4
 74
     0
 42
0.000000001
 43
0.0000000001
 40
0.0027061984326294
 40
0.0027061984326294
 40
0.0027061984326294
 40
0.0027061984326294
 40
0.0086739982172325
 40
0.0086739982172325
 40
0.0086739982172325
 40
0.0086739982172325
 10
49.50002318946175
 20
15.50194590133721
 30
0.0
 10
49.50002318924745
 20
15.50194588344966
 30
0.0
 10
49.50000529716739
 20
15.50035215304776
 30
0.0
 10
49.50000190918223
 20
15.49999998875172
 30
0.0
  0
SPLINE
  5
C4F9
330
C4EE
100
AcDbEntity
  8
0
100
AcDbSpline
210
0.0
220
0.0
230
1.0
 70
     8
 71
     3
 72
     8
 73
     4
 74
     0
 42
0.000000001
 43
0.0000000001
 40
0.0
 40
0.0
 40
0.0
 40
0.0
 40
0.0027551258495491
 40
0.0027551258495491
 40
0.0027551258495491
 40
0.0027551258495491
 10
47.49955485052307
 20
15.50000087846429
 30
0.0
 10
47.49956351719507
 20
15.50798600033919
 30
0.0
 10
47.49957123633436
 20
15.51566402279041
 30
0.0
 10
47.49957693621164
 20
15.52277375595975
 30
0.0
  0
LINE
  5
C4FA
330
C4EE
100
AcDbEntity
  8
0
100
AcDbLine
 10
47.49999999999999
 20
15.50084440231817
 30
0.0
 11
47.49999939386194
 21
15.50087778348264
 31
0.0
  0
SPLINE
  5
C4FB
330
C4EE
100
AcDbEntity
  8
0
100
AcDbSpline
210
0.0
220
0.0
230
1.0
 70
     8
 71
     3
 72
    32
 73
    28
 74
     0
 42
0.000000001
 43
0.0000000001
 40
0.0015110960861048
 40
0.0015110960861048
 40
0.0015110960861048
 40
0.0015110960861048
 40
0.0053814192677881
 40
0.0053814192677881
 40
0.0116037994372136
 40
0.0116037994372136
 40
0.024315095884824
 40
0.024315095884824
 40
0.0272536649300611
 40
0.0272536649300611
 40
0.0287181617294386
 40
0.0287181617294386
 40
0.0309974359562708
 40
0.0309974359562708
 40
0.0334416133784215
 40
0.0334416133784215
 40
0.0369774720819225
 40
0.0369774720819225
 40
0.0431110659162167
 40
0.0431110659162167
 40
0.0561444421479717
 40
0.0561444421479717
 40
0.0951743071304282
 40
0.0951743071304282
 40
0.1857722935406458
 40
0.1857722935406458
 40
0.2465902205417996
 40
0.2465902205417996
 40
0.2465902205417996
 40
0.2465902205417996
 10
47.49993672270331
 20
15.50349218733933
 30
0.0
 10
47.49987227967928
 20
15.50703569092946
 30
0.0
 10
47.49978115179326
 20
15.51197633498003
 30
0.0
 10
47.49949841489711
 20
15.52696402985457
 30
0.0
 10
47.49927770139842
 20
15.53836304789417
 30
0.0
 10
47.49855071261851
 20
15.57496887753796
 30
0.0
 10
47.49800943374073
 20
15.60080505898069
 30
0.0
 10
47.49714367289815
 20
15.64371576937906
 30
0.0
 10
47.49696632179452
 20
15.65259556223627
 30
0.0
 10
47.49669227557724
 20
15.66667678949432
 30
0.0
 10
47.49659905969565
 20
15.67152618559473
 30
0.0
 10
47.4963638455825
 20
15.68396502711342
 30
0.0
 10
47.49622139313148
 20
15.69169910407395
 30
0.0
 10
47.49594715634549
 20
15.70706643803558
 30
0.0
 10
47.49581407109425
 20
15.71480225243639
 30
0.0
 10
47.4955150128085
 20
15.73283892630697
 30
0.0
 10
47.49535797270749
 20
15.74290750444225
 30
0.0
 10
47.49497234906772
 20
15.7690680703852
 30
0.0
 10
47.49477223608439
 20
15.78437305472946
 30
0.0
 10
47.49423444157795
 20
15.83005904382308
 30
0.0
 10
47.49398897299613
 20
15.85841591701326
 30
0.0
 10
47.4932638917706
 20
15.9697673399101
 30
0.0
 10
47.49326585710437
 20
16.0506774914285
 30
0.0
 10
47.49443802806263
 20
16.35466534610564
 30
0.0
 10
47.49747412448019
 20
16.61234333260648
 30
0.0
 10
47.49967544515118
 20
17.07533550194661
 30
0.0
 10
47.49993377596706
 20
17.27574309886873
 30
0.0
 10
47.49999999999997
 20
17.47732800642076
 30
0.0
  0
SPLINE
  5
C4FC
330
C4EE
100
AcDbEntity
  8
0
100
AcDbSpline
210
0.0
220
0.0
230
1.0
 70
     8
 71
     3
 72
    12
 73
     8
 74
     0
 42
0.000000001
 43
0.0000000001
 40
0.0
 40
0.0
 40
0.0
 40
0.0
 40
0.0030476959136785
 40
0.0030476959136785
 40
0.0059939854767589
 40
0.0059939854767589
 40
0.0075040155593471
 40
0.0075040155593471
 40
0.0075040155593471
 40
0.0075040155593471
 10
47.49994323891036
 20
15.49999984244793
 30
0.0
 10
47.49993102346273
 20
15.50666303395168
 30
0.0
 10
47.49991987188295
 20
15.51209061553598
 30
0.0
 10
47.49990274642386
 20
15.51960426671537
 30
0.0
 10
47.49989650541784
 20
15.52190086303046
 30
0.0
 10
47.49989178869831
 20
15.52354574712167
 30
0.0
 10
47.49989097901994
 20
15.52379877077633
 30
0.0
 10
47.49989097902005
 20
15.52379877074072
 30
0.0
  0
LINE
  5
C4FD
330
C4EE
100
AcDbEntity
  8
0
100
AcDbLine
 10
45.49999999999998
 20
-2.0
 30
0.0
 11
-45.49999999999998
 21
-2.000000000000003
 31
0.0
  0
LINE
  5
C4FE
330
C4EE
100
AcDbEntity
  8
0
100
AcDbLine
 10
-45.49999999999998
 20
0.0
 30
0.0
 11
45.49999999999998
 21
0.0
 31
0.0
  0
LINE
  5
C4FF
330
C4EE
100
AcDbEntity
  8
0
100
AcDbLine
 10
-51.41555343255212
 20
17.87499999999999
 30
0.0
 11
-49.50000000000001
 21
17.87499999999999
 31
0.0
  0
LINE
  5
C500
330
C4EE
100
AcDbEntity
  8
0
100
AcDbLine
 10
-51.5
 20
17.87499999999999
 30
0.0
 11
-51.41555343255212
 21
17.87499999999999
 31
0.0
  0
LINE
  5
C501
330
C4EE
100
AcDbEntity
  8
0
100
AcDbLine
 10
-52.10207915056733
 20
17.87499999999999
 30
0.0
 11
-51.5
 21
17.87499999999999
 31
0.0
  0
SPLINE
  5
C502
330
C4EE
100
AcDbEntity
  8
0
100
AcDbSpline
210
0.0
220
0.0
230
1.0
 70
     8
 71
     3
 72
    17
 73
    13
 74
     0
 42
0.000000001
 43
0.0000000001
 40
0.0
 40
0.0
 40
0.0
 40
0.0
 40
0.3690626432184121
 40
0.3690626432184121
 40
0.3690626432184121
 40
0.6936378220004606
 40
0.6936378220004606
 40
0.6936378220004606
 40
0.9219545386459827
 40
0.9219545386459827
 40
0.9219545386459827
 40
0.9818174091998654
 40
0.9818174091998654
 40
0.9818174091998654
 40
0.9818174091998654
 10
-52.16666666666675
 20
17.87499999999996
 30
0.0
 10
-51.8108345827817
 20
17.6117213580521
 30
0.0
 10
-51.35987304241748
 20
17.40773000725244
 30
0.0
 10
-50.92414735818166
 20
17.18602723250462
 30
0.0
 10
-50.54094481937288
 20
16.9910489027481
 30
0.0
 10
-50.17697529433288
 20
16.78354840177022
 30
0.0
 10
-49.91326214681965
 20
16.50806212760439
 30
0.0
 10
-49.72775775858388
 20
16.31427613991897
 30
0.0
 10
-49.58930240207248
 20
16.07964051226235
 30
0.0
 10
-49.53081927694037
 20
15.80459395177115
 30
0.0
 10
-49.515485455568
 20
15.73247887895089
 30
0.0
 10
-49.50554111473199
 20
15.66011333235909
 30
0.0
 10
-49.50174101308769
 20
15.57790373663538
 30
0.0
  0
SPLINE
  5
C503
330
C4EE
100
AcDbEntity
  8
0
100
AcDbSpline
210
0.0
220
0.0
230
1.0
 70
     8
 71
     3
 72
    10
 73
     6
 74
     0
 42
0.000000001
 43
0.0000000001
 40
0.0211846761769387
 40
0.0211846761769387
 40
0.0211846761769387
 40
0.0211846761769387
 40
0.0213660109820526
 40
0.0213660109820526
 40
0.0239374924160503
 40
0.0239374924160503
 40
0.0239374924160503
 40
0.0239374924160503
 10
-47.49957691371736
 20
15.5227473203511
 30
0.0
 10
-47.49957653803178
 20
15.52227894280815
 30
0.0
 10
-47.49957615323795
 20
15.52180839026734
 30
0.0
 10
-47.49957018019502
 20
15.51463375934496
 30
0.0
 10
-47.49956293849243
 20
15.50745275354532
 30
0.0
 10
-47.49955484941439
 20
15.49999985701133
 30
0.0
  0
LINE
  5
C504
330
C4EE
100
AcDbEntity
  8
0
100
AcDbLine
 10
-47.49999939386593
 20
15.50087777765141
 30
0.0
 11
-47.5
 21
15.50084439710779
 31
0.0
  0
SPLINE
  5
C505
330
C4EE
100
AcDbEntity
  8
0
100
AcDbSpline
210
0.0
220
0.0
230
1.0
 70
     8
 71
     3
 72
    12
 73
     8
 74
     0
 42
0.000000001
 43
0.0000000001
 40
0.0137676731834271
 40
0.0137676731834271
 40
0.0137676731834271
 40
0.0137676731834271
 40
0.0170362333972067
 40
0.0170362333972067
 40
0.0191028482178749
 40
0.0191028482178749
 40
0.0212753502092845
 40
0.0212753502092845
 40
0.0212753502092845
 40
0.0212753502092845
 10
-47.49989097902002
 20
15.52379877074737
 30
0.0
 10
-47.49989097899889
 20
15.52379877738245
 30
0.0
 10
-47.49989491301221
 20
15.5225818598007
 30
0.0
 10
-47.49990667901599
 20
15.5178849713353
 30
0.0
 10
-47.49991254988305
 20
15.51538541578031
 30
0.0
 10
-47.49992639308838
 20
15.5088759284138
 30
0.0
 10
-47.49993453135796
 20
15.50474957421123
 30
0.0
 10
-47.49994323894916
 20
15.49999982127677
 30
0.0
  0
SPLINE
  5
C506
330
C4EE
100
AcDbEntity
  8
0
100
AcDbSpline
210
0.0
220
0.0
230
1.0
 70
     8
 71
     3
 72
    32
 73
    28
 74
     0
 42
0.000000001
 43
0.0000000001
 40
0.0078945701922082
 40
0.0078945701922082
 40
0.0078945701922082
 40
0.0078945701922082
 40
0.0780481436243302
 40
0.0780481436243302
 40
0.1678963397573965
 40
0.1678963397573965
 40
0.2053018241780381
 40
0.2053018241780381
 40
0.2220253979118428
 40
0.2220253979118428
 40
0.2276138400408522
 40
0.2276138400408522
 40
0.2306891935029603
 40
0.2306891935029603
 40
0.2338220705335142
 40
0.2338220705335142
 40
0.2357779470605867
 40
0.2357779470605867
 40
0.2377368212482722
 40
0.2377368212482722
 40
0.2416950712734376
 40
0.2416950712734376
 40
0.2455868240368425
 40
0.2455868240368425
 40
0.2549325333112012
 40
0.2549325333112012
 40
0.2628929847800385
 40
0.2628929847800385
 40
0.2628929847800385
 40
0.2628929847800385
 10
-47.50000000000001
 20
17.57568786442775
 30
0.0
 10
-47.49990533022179
 20
17.34233603362081
 30
0.0
 10
-47.4998235502755
 20
17.10944456999273
 30
0.0
 10
-47.49752633753046
 20
16.61961785804223
 30
0.0
 10
-47.49452838051843
 20
16.36357958031852
 30
0.0
 10
-47.49329353295156
 20
16.0634474146666
 30
0.0
 10
-47.49325894351431
 20
15.9845565262329
 30
0.0
 10
-47.49388850150602
 20
15.86975138592047
 30
0.0
 10
-47.49417467309354
 20
15.83406184201647
 30
0.0
 10
-47.49482600309143
 20
15.78026445588246
 30
0.0
 10
-47.49501374887496
 20
15.76616716913042
 30
0.0
 10
-47.49536322669814
 20
15.74260934621289
 30
0.0
 10
-47.49549950980955
 20
15.73386563567376
 30
0.0
 10
-47.49580442404977
 20
15.71531280529397
 30
0.0
 10
-47.49597670704211
 20
15.70531512148946
 30
0.0
 10
-47.49627842206921
 20
15.68860159798742
 30
0.0
 10
-47.49640115246665
 20
15.68198009366676
 30
0.0
 10
-47.49664732815698
 20
15.6689874556411
 30
0.0
 10
-47.49677253319656
 20
15.66252190943181
 30
0.0
 10
-47.49713480550487
 20
15.6440821816866
 30
0.0
 10
-47.49736094324554
 20
15.63291650845567
 30
0.0
 10
-47.49776522106775
 20
15.61307318949223
 30
0.0
 10
-47.49795042323055
 20
15.60405666857177
 30
0.0
 10
-47.49855144539893
 20
15.57470988220296
 30
0.0
 10
-47.49893817428323
 20
15.55563375873797
 30
0.0
 10
-47.49955840458482
 20
15.52391663087833
 30
0.0
 10
-47.4998034860073
 20
15.51077626501646
 30
0.0
 10
-47.49993675207014
 20
15.50347974293668
 30
0.0
  0
SPLINE
  5
C507
330
C4EE
100
AcDbEntity
  8
0
100
AcDbSpline
210
0.0
220
0.0
230
1.0
 70
     8
 71
     3
 72
    16
 73
    12
 74
     0
 42
0.000000001
 43
0.0000000001
 40
0.0
 40
0.0
 40
0.0
 40
0.0
 40
0.000030111809433
 40
0.000030111809433
 40
0.0001277778203927
 40
0.0001277778203927
 40
0.0003882210868715
 40
0.0003882210868715
 40
0.0014222170232
 40
0.0014222170232
 40
0.0018226390521836
 40
0.0018226390521836
 40
0.0018226390521836
 40
0.0018226390521836
 10
-49.50023039712625
 20
15.5000209516179
 30
0.0
 10
-49.50023063826967
 20
15.50011970285621
 30
0.0
 10
-49.50023088263119
 20
15.50021844925911
 30
0.0
 10
-49.50023193326146
 20
15.50063745369465
 30
0.0
 10
-49.50023277025565
 20
15.50095766581233
 30
0.0
 10
-49.50023596488763
 20
15.50213159211277
 30
0.0
 10
-49.50023853195833
 20
15.50298499829859
 30
0.0
 10
-49.50025253112762
 20
15.50722474600501
 30
0.0
 10
-49.50026765077085
 20
15.5106059178884
 30
0.0
 10
-49.5002945706663
 20
15.51528839473271
 30
0.0
 10
-49.50030272805978
 20
15.51659469922159
 30
0.0
 10
-49.50031154706545
 20
15.51790015423435
 30
0.0
  0
SPLINE
  5
C508
330
C4EE
100
AcDbEntity
  8
0
100
AcDbSpline
210
0.0
220
0.0
230
1.0
 70
     8
 71
     3
 72
    16
 73
    12
 74
     0
 42
0.000000001
 43
0.0000000001
 40
0.0
 40
0.0
 40
0.0
 40
0.0
 40
0.0000136081383059
 40
0.0000136081383059
 40
0.0000408244155072
 40
0.0000408244155072
 40
0.0000952569751801
 40
0.0000952569751801
 40
0.0009662531346488
 40
0.0009662531346488
 40
0.0014106474750049
 40
0.0014106474750049
 40
0.0014106474750049
 40
0.0014106474750049
 10
-49.50004324164281
 20
15.50007773564687
 30
0.0
 10
-49.50004366489783
 20
15.50011340089446
 30
0.0
 10
-49.50004408859779
 20
15.50014906291387
 30
0.0
 10
-49.50004536103122
 20
15.50025603919011
 30
0.0
 10
-49.50004621109759
 20
15.50032734361774
 30
0.0
 10
-49.5000487666136
 20
15.50054121650033
 30
0.0
 10
-49.50005047737978
 20
15.50068374451821
 30
0.0
 10
-49.50007968251846
 20
15.50310594541292
 30
0.0
 10
-49.50010898639234
 20
15.50537141303336
 30
0.0
 10
-49.50015560147604
 20
15.50874883286638
 30
0.0
 10
-49.50017183596035
 20
15.50988808379865
 30
0.0
 10
-49.50018847910616
 20
15.51102045280274
 30
0.0
  0
SPLINE
  5
C509
330
C4EE
100
AcDbEntity
  8
0
100
AcDbSpline
210
0.0
220
0.0
230
1.0
 70
     8
 71
     3
 72
    22
 73
    18
 74
     0
 42
0.000000001
 43
0.0000000001
 40
0.0
 40
0.0
 40
0.0
 40
0.0
 40
0.0024688908462017
 40
0.0024688908462017
 40
0.0054615480056549
 40
0.0054615480056549
 40
0.013342231257904
 40
0.013342231257904
 40
0.0363140395995611
 40
0.0363140395995611
 40
0.03913388881073
 40
0.03913388881073
 40
0.0415409516151678
 40
0.0415409516151678
 40
0.0431026455085308
 40
0.0431026455085308
 40
0.043263042852789
 40
0.043263042852789
 40
0.043263042852789
 40
0.043263042852789
 10
-49.50001349789399
 20
15.49999993483833
 30
0.0
 10
-49.50007948207826
 20
15.50450372787214
 30
0.0
 10
-49.5001709403051
 20
15.51024070857938
 30
0.0
 10
-49.50041951486894
 20
15.5238072836242
 30
0.0
 10
-49.50058734744088
 20
15.53189021572941
 30
0.0
 10
-49.50129797232144
 20
15.56161594852196
 30
0.0
 10
-49.50200868781897
 20
15.58388646723896
 30
0.0
 10
-49.50547761671882
 20
15.66749196825558
 30
0.0
 10
-49.51032520198359
 20
15.73181172217368
 30
0.0
 10
-49.51614807178538
 20
15.78442503372011
 30
0.0
 10
-49.51676100971781
 20
15.78970357675435
 30
0.0
 10
-49.51770861281078
 20
15.79762125408558
 30
0.0
 10
-49.51807729504334
 20
15.80059051723281
 30
0.0
 10
-49.51845214401182
 20
15.80357228798038
 30
0.0
 10
-49.51854072421595
 20
15.80426353771646
 30
0.0
 10
-49.51855716754494
 20
15.80439194694072
 30
0.0
 10
-49.5185579391909
 20
15.80439796574599
 30
0.0
 10
-49.51855793925577
 20
15.8043979662521
 30
0.0
  0
SPLINE
  5
C50A
330
C4EE
100
AcDbEntity
  8
0
100
AcDbSpline
210
0.0
220
0.0
230
1.0
 70
     8
 71
     3
 72
     8
 73
     4
 74
     0
 42
0.000000001
 43
0.0000000001
 40
0.0
 40
0.0
 40
0.0
 40
0.0
 40
0.0059677997735993
 40
0.0059677997735993
 40
0.0059677997735993
 40
0.0059677997735993
 10
-49.50000190918224
 20
15.49999998875171
 30
0.0
 10
-49.50000529716743
 20
15.50035215304884
 30
0.0
 10
-49.50002318924744
 20
15.5019458834472
 30
0.0
 10
-49.50002318946172
 20
15.50194590133447
 30
0.0
  0
ARC
  5
C50B
330
C4EE
100
AcDbEntity
  8
0
100
AcDbCircle
 10
-45.49999999999998
 20
2.0
 30
0.0
 40
4.000000000000003
100
AcDbArc
 50
180.0
 51
270.0
  0
ARC
  5
C50C
330
C4EE
100
AcDbEntity
  8
0
100
AcDbCircle
 10
-45.49999999999998
 20
2.0
 30
0.0
 40
2.000000000000001
100
AcDbArc
 50
180.0
 51
270.0
  0
ARC
  5
C50D
330
C4EE
100
AcDbEntity
  8
0
100
AcDbCircle
 10
45.49999999999998
 20
2.0
 30
0.0
 40
4.000000000000003
100
AcDbArc
 50
270.0
 51
0.0
  0
LINE
  5
C50E
330
C4EE
100
AcDbEntity
  8
0
100
AcDbLine
 10
52.16666666666674
 20
17.875
 30
0.0
 11
89.00000000000003
 21
45.49999999999997
 31
0.0
  0
LINE
  5
C50F
330
C4EE
100
AcDbEntity
  8
0
100
AcDbLine
 10
47.49999999999999
 20
15.5
 30
0.0
 11
47.5
 21
45.49999999999997
 31
0.0
  0
LINE
  5
C510
330
C4EE
100
AcDbEntity
  8
0
100
AcDbLine
 10
49.49999999999999
 20
15.5
 30
0.0
 11
47.49999999999999
 21
15.5
 31
0.0
  0
LINE
  5
C511
330
C4EE
100
AcDbEntity
  8
0
100
AcDbLine
 10
49.49999999999999
 20
45.49999999999997
 30
0.0
 11
49.49999999999999
 21
15.5
 31
0.0
  0
LINE
  5
C512
330
C4EE
100
AcDbEntity
  8
0
100
AcDbLine
 10
49.49999999999999
 20
45.49999999999997
 30
0.0
 11
47.5
 21
45.49999999999997
 31
0.0
  0
LINE
  5
C513
330
C4EE
100
AcDbEntity
  8
0
100
AcDbLine
 10
47.5
 20
45.49999999999997
 30
0.0
 11
47.5
 21
202.5
 31
0.0
  0
LINE
  5
C514
330
C4EE
100
AcDbEntity
  8
0
100
AcDbLine
 10
49.49999999999999
 20
202.5
 30
0.0
 11
49.49999999999999
 21
45.49999999999997
 31
0.0
  0
LINE
  5
C515
330
C4EE
100
AcDbEntity
  8
0
100
AcDbLine
 10
47.5
 20
202.5
 30
0.0
 11
49.49999999999999
 21
202.5
 31
0.0
  0
LINE
  5
C516
330
C4EE
100
AcDbEntity
  8
0
100
AcDbLine
 10
49.49999999999999
 20
15.5
 30
0.0
 11
49.49999999999999
 21
1.999999999999999
 31
0.0
  0
LINE
  5
C517
330
C4EE
100
AcDbEntity
  8
0
100
AcDbLine
 10
47.49999999999999
 20
2.0
 30
0.0
 11
47.49999999999999
 21
15.5
 31
0.0
  0
ARC
  5
C518
330
C4EE
100
AcDbEntity
  8
0
100
AcDbCircle
 10
45.49999999999998
 20
2.0
 30
0.0
 40
2.000000000000001
100
AcDbArc
 50
270.0
 51
0.0
  0
LINE
  5
C519
330
C4EE
100
AcDbEntity
  8
0
100
AcDbLine
 10
51.5
 20
202.5
 30
0.0
 11
49.5
 21
202.5
 31
0.0
  0
LINE
  5
C51A
330
C4EE
100
AcDbEntity
  8
0
100
AcDbLine
 10
89.00000000000003
 20
45.49999999999997
 30
0.0
 11
89.0
 21
202.5
 31
0.0
  0
LINE
  5
C51B
330
C4EE
100
AcDbEntity
  8
0
100
AcDbLine
 10
89.0
 20
202.5
 30
0.0
 11
51.5
 21
202.5
 31
0.0
  0
CIRCLE
  5
C51C
330
C4EE
100
AcDbEntity
  8
0
100
AcDbCircle
 10
69.5
 20
182.5
 30
0.0
 40
6.5
  0
CIRCLE
  5
C51D
330
C4EE
100
AcDbEntity
  8
0
100
AcDbCircle
 10
80.5
 20
187.5
 30
0.0
 40
2.5
  0
LINE
  5
C51E
330
C4EE
100
AcDbEntity
  8
0
100
AcDbLine
 10
-89.00000000000003
 20
45.49999999999997
 30
0.0
 11
-52.16666666666674
 21
17.87499999999999
 31
0.0
  0
LINE
  5
C51F
330
C4EE
100
AcDbEntity
  8
0
100
AcDbLine
 10
-47.5
 20
45.49999999999997
 30
0.0
 11
-47.49999999999999
 21
15.5
 31
0.0
  0
LINE
  5
C520
330
C4EE
100
AcDbEntity
  8
0
100
AcDbLine
 10
-49.49999999999999
 20
45.49999999999997
 30
0.0
 11
-47.5
 21
45.49999999999997
 31
0.0
  0
LINE
  5
C521
330
C4EE
100
AcDbEntity
  8
0
100
AcDbLine
 10
-49.49999999999999
 20
15.5
 30
0.0
 11
-49.49999999999999
 21
45.49999999999997
 31
0.0
  0
LINE
  5
C522
330
C4EE
100
AcDbEntity
  8
0
100
AcDbLine
 10
-47.49999999999999
 20
15.5
 30
0.0
 11
-49.49999999999999
 21
15.5
 31
0.0
  0
LINE
  5
C523
330
C4EE
100
AcDbEntity
  8
0
100
AcDbLine
 10
-47.5
 20
202.5
 30
0.0
 11
-47.5
 21
45.49999999999997
 31
0.0
  0
LINE
  5
C524
330
C4EE
100
AcDbEntity
  8
0
100
AcDbLine
 10
-49.49999999999999
 20
202.5
 30
0.0
 11
-47.5
 21
202.5
 31
0.0
  0
LINE
  5
C525
330
C4EE
100
AcDbEntity
  8
0
100
AcDbLine
 10
-49.49999999999999
 20
45.49999999999997
 30
0.0
 11
-49.49999999999999
 21
202.5
 31
0.0
  0
CIRCLE
  5
C526
330
C4EE
100
AcDbEntity
  8
0
100
AcDbCircle
 10
-69.5
 20
52.5
 30
0.0
 40
6.5
  0
CIRCLE
  5
C527
330
C4EE
100
AcDbEntity
  8
0
100
AcDbCircle
 10
69.5
 20
52.5
 30
0.0
 40
6.5
  0
CIRCLE
  5
C528
330
C4EE
100
AcDbEntity
  8
0
100
AcDbCircle
 10
-69.5
 20
122.5
 30
0.0
 40
6.5
  0
CIRCLE
  5
C529
330
C4EE
100
AcDbEntity
  8
0
100
AcDbCircle
 10
69.5
 20
122.5
 30
0.0
 40
6.5
  0
CIRCLE
  5
C52A
330
C4EE
100
AcDbEntity
  8
0
100
AcDbCircle
 10
-69.5
 20
182.5
 30
0.0
 40
6.5
  0
CIRCLE
  5
C52B
330
C4EE
100
AcDbEntity
  8
0
100
AcDbCircle
 10
-58.5
 20
37.5
 30
0.0
 40
2.5
  0
CIRCLE
  5
C52C
330
C4EE
100
AcDbEntity
  8
0
100
AcDbCircle
 10
-58.5
 20
57.5
 30
0.0
 40
2.5
  0
CIRCLE
  5
C52D
330
C4EE
100
AcDbEntity
  8
0
100
AcDbCircle
 10
-58.5
 20
77.5
 30
0.0
 40
2.5
  0
CIRCLE
  5
C52E
330
C4EE
100
AcDbEntity
  8
0
100
AcDbCircle
 10
-58.5
 20
97.5
 30
0.0
 40
2.5
  0
CIRCLE
  5
C52F
330
C4EE
100
AcDbEntity
  8
0
100
AcDbCircle
 10
-58.5
 20
117.5
 30
0.0
 40
2.5
  0
CIRCLE
  5
C530
330
C4EE
100
AcDbEntity
  8
0
100
AcDbCircle
 10
-58.5
 20
137.5
 30
0.0
 40
2.5
  0
CIRCLE
  5
C531
330
C4EE
100
AcDbEntity
  8
0
100
AcDbCircle
 10
-58.5
 20
157.5
 30
0.0
 40
2.5
  0
CIRCLE
  5
C532
330
C4EE
100
AcDbEntity
  8
0
100
AcDbCircle
 10
-58.5
 20
177.5
 30
0.0
 40
2.5
  0
CIRCLE
  5
C533
330
C4EE
100
AcDbEntity
  8
0
100
AcDbCircle
 10
58.5
 20
37.5
 30
0.0
 40
2.5
  0
CIRCLE
  5
C534
330
C4EE
100
AcDbEntity
  8
0
100
AcDbCircle
 10
58.5
 20
57.5
 30
0.0
 40
2.5
  0
CIRCLE
  5
C535
330
C4EE
100
AcDbEntity
  8
0
100
AcDbCircle
 10
58.5
 20
77.5
 30
0.0
 40
2.5
  0
CIRCLE
  5
C536
330
C4EE
100
AcDbEntity
  8
0
100
AcDbCircle
 10
58.5
 20
97.5
 30
0.0
 40
2.5
  0
CIRCLE
  5
C537
330
C4EE
100
AcDbEntity
  8
0
100
AcDbCircle
 10
58.5
 20
117.5
 30
0.0
 40
2.5
  0
CIRCLE
  5
C538
330
C4EE
100
AcDbEntity
  8
0
100
AcDbCircle
 10
58.5
 20
137.5
 30
0.0
 40
2.5
  0
CIRCLE
  5
C539
330
C4EE
100
AcDbEntity
  8
0
100
AcDbCircle
 10
58.5
 20
157.5
 30
0.0
 40
2.5
  0
CIRCLE
  5
C53A
330
C4EE
100
AcDbEntity
  8
0
100
AcDbCircle
 10
58.5
 20
177.5
 30
0.0
 40
2.5
  0
CIRCLE
  5
C53B
330
C4EE
100
AcDbEntity
  8
0
100
AcDbCircle
 10
-58.5
 20
197.5
 30
0.0
 40
2.5
  0
CIRCLE
  5
C53C
330
C4EE
100
AcDbEntity
  8
0
100
AcDbCircle
 10
58.5
 20
197.5
 30
0.0
 40
2.5
  0
CIRCLE
  5
C53D
330
C4EE
100
AcDbEntity
  8
0
100
AcDbCircle
 10
-80.5
 20
47.5
 30
0.0
 40
2.5
  0
CIRCLE
  5
C53E
330
C4EE
100
AcDbEntity
  8
0
100
AcDbCircle
 10
-80.5
 20
67.5
 30
0.0
 40
2.5
  0
CIRCLE
  5
C53F
330
C4EE
100
AcDbEntity
  8
0
100
AcDbCircle
 10
-80.5
 20
87.5
 30
0.0
 40
2.5
  0
CIRCLE
  5
C540
330
C4EE
100
AcDbEntity
  8
0
100
AcDbCircle
 10
-80.5
 20
107.5
 30
0.0
 40
2.5
  0
CIRCLE
  5
C541
330
C4EE
100
AcDbEntity
  8
0
100
AcDbCircle
 10
-80.5
 20
127.5
 30
0.0
 40
2.5
  0
CIRCLE
  5
C542
330
C4EE
100
AcDbEntity
  8
0
100
AcDbCircle
 10
-80.5
 20
147.5
 30
0.0
 40
2.5
  0
CIRCLE
  5
C543
330
C4EE
100
AcDbEntity
  8
0
100
AcDbCircle
 10
-80.5
 20
167.5
 30
0.0
 40
2.5
  0
CIRCLE
  5
C544
330
C4EE
100
AcDbEntity
  8
0
100
AcDbCircle
 10
80.5
 20
47.5
 30
0.0
 40
2.5
  0
CIRCLE
  5
C545
330
C4EE
100
AcDbEntity
  8
0
100
AcDbCircle
 10
80.5
 20
67.5
 30
0.0
 40
2.5
  0
CIRCLE
  5
C546
330
C4EE
100
AcDbEntity
  8
0
100
AcDbCircle
 10
80.5
 20
87.5
 30
0.0
 40
2.5
  0
CIRCLE
  5
C547
330
C4EE
100
AcDbEntity
  8
0
100
AcDbCircle
 10
80.5
 20
107.5
 30
0.0
 40
2.5
  0
CIRCLE
  5
C548
330
C4EE
100
AcDbEntity
  8
0
100
AcDbCircle
 10
80.5
 20
127.5
 30
0.0
 40
2.5
  0
CIRCLE
  5
C549
330
C4EE
100
AcDbEntity
  8
0
100
AcDbCircle
 10
80.5
 20
147.5
 30
0.0
 40
2.5
  0
CIRCLE
  5
C54A
330
C4EE
100
AcDbEntity
  8
0
100
AcDbCircle
 10
80.5
 20
167.5
 30
0.0
 40
2.5
  0
CIRCLE
  5
C54B
330
C4EE
100
AcDbEntity
  8
0
100
AcDbCircle
 10
-80.5
 20
187.5
 30
0.0
 40
2.5
  0
LINE
  5
C54C
330
C4EE
100
AcDbEntity
  8
0
100
AcDbLine
 10
-89.0
 20
202.5
 30
0.0
 11
-51.5
 21
202.5
 31
0.0
  0
LINE
  5
C54D
330
C4EE
100
AcDbEntity
  8
0
100
AcDbLine
 10
-89.00000000000003
 20
45.49999999999997
 30
0.0
 11
-89.0
 21
202.5
 31
0.0
  0
LINE
  5
C54E
330
C4EE
100
AcDbEntity
  8
0
100
AcDbLine
 10
-47.49999999999999
 20
2.0
 30
0.0
 11
-47.49999999999999
 21
15.5
 31
0.0
  0
LINE
  5
C54F
330
C4EE
100
AcDbEntity
  8
0
100
AcDbLine
 10
-49.49999999999999
 20
15.5
 30
0.0
 11
-49.49999999999999
 21
1.999999999999999
 31
0.0
  0
LINE
  5
C550
330
C4EE
100
AcDbEntity
  8
0
100
AcDbLine
 10
-51.5
 20
202.5
 30
0.0
 11
-49.5
 21
202.5
 31
0.0
  0
ENDBLK
  5
C4F0
330
C4EE
100
AcDbEntity
  8
0
100
AcDbBlockEnd
  0
BLOCK
  5
C552
330
C551
100
AcDbEntity
  8
0
100
AcDbBlockBegin
  2
SAE500_95_2-Left
 70
     0
 10
0.0
 20
0.0
 30
0.0
  3
SAE500_95_2-Left
  1

  0
LINE
  5
C554
330
C551
100
AcDbEntity
  8
0
100
AcDbLine
 10
1.999999999999997
 20
-2.0
 30
0.0
 11
86.00000000000001
 21
-2.000000000000003
 31
0.0
  0
LINE
  5
C555
330
C551
100
AcDbEntity
  8
0
100
AcDbLine
 10
2.000000000000002
 20
2.000000000000004
 30
0.0
 11
1.999999999999997
 21
-1.999999999999999
 31
0.0
  0
LINE
  5
C556
330
C551
100
AcDbEntity
  8
0
100
AcDbLine
 10
86.00000000000001
 20
-2.000000000000003
 30
0.0
 11
86.00000000000001
 21
2.0
 31
0.0
  0
SPLINE
  5
C557
330
C551
100
AcDbEntity
  8
0
100
AcDbSpline
210
0.0
220
0.0
230
1.0
 70
     8
 71
     3
 72
    17
 73
    13
 74
     0
 42
0.000000001
 43
0.0000000001
 40
-0.9619350557663373
 40
-0.9619350557663373
 40
-0.9619350557663373
 40
-0.9619350557663373
 40
-0.7906685194049055
 40
-0.7906685194049055
 40
-0.7906685194049055
 40
-0.3894646006008224
 40
-0.3894646006008224
 40
-0.3894646006008224
 40
-0.1064781870860935
 40
-0.1064781870860935
 40
-0.1064781870860935
 40
0.0
 40
0.0
 40
0.0
 40
0.0
 10
1.990436076869745
 20
15.75446606983412
 30
0.0
 10
1.964295043585909
 20
16.11723173497636
 30
0.0
 10
1.886311689170061
 20
16.3953923862802
 30
0.0
 10
1.773190688156247
 20
16.59333321452264
 30
0.0
 10
1.508196779422052
 20
17.05702353996136
 30
0.0
 10
1.054549467666542
 20
17.14361801432171
 30
0.0
 10
0.6742949633965844
 20
17.2356830970882
 30
0.0
 10
0.4060850747520931
 20
17.30062056743916
 30
0.0
 10
0.1716897863640552
 20
17.37223507489018
 30
0.0
 10
0.0620429895170166
 20
17.57586904858657
 30
0.0
 10
0.0207866196331593
 20
17.65248960460206
 30
0.0
 10
0.0000165986139174
 20
17.75247760952899
 30
0.0
 10
0.0000000000000016
 20
17.87500000000006
 30
0.0
  0
LINE
  5
C558
330
C551
100
AcDbEntity
  8
0
100
AcDbLine
 10
2.000000000000011
 20
17.87499999999999
 30
0.0
 11
2.001783600996573
 21
17.87499999999999
 31
0.0
  0
SPLINE
  5
C559
330
C551
100
AcDbEntity
  8
0
100
AcDbSpline
210
0.0
220
0.0
230
1.0
 70
     8
 71
     3
 72
    17
 73
    13
 74
     0
 42
0.000000001
 43
0.0000000001
 40
0.0
 40
0.0
 40
0.0
 40
0.0
 40
0.3690626432184121
 40
0.3690626432184121
 40
0.3690626432184121
 40
0.6936378220004606
 40
0.6936378220004606
 40
0.6936378220004606
 40
0.9219545386459827
 40
0.9219545386459827
 40
0.9219545386459827
 40
1.0
 40
1.0
 40
1.0
 40
1.0
 10
2.000000000000005
 20
17.87499999999996
 30
0.0
 10
2.000007003368936
 20
17.6117213580521
 30
0.0
 10
2.000476349918939
 20
17.40773000725244
 30
0.0
 10
1.999863204548939
 20
17.18602723250462
 30
0.0
 10
1.999323968807409
 20
16.9910489027481
 30
0.0
 10
1.999985049619729
 20
16.78354840177022
 30
0.0
 10
2.000261627960532
 20
16.50806212760439
 30
0.0
 10
2.000456182143339
 20
16.31427613991897
 30
0.0
 10
2.000333558699196
 20
16.07964051226235
 30
0.0
 10
2.000050547976826
 20
15.80459395177115
 30
0.0
 10
1.999953806473532
 20
15.71057483647046
 30
0.0
 10
2.000681435773389
 20
15.61612998310374
 30
0.0
 10
2.000000000000294
 20
15.50000000000947
 30
0.0
  0
LINE
  5
C55A
330
C551
100
AcDbEntity
  8
0
100
AcDbLine
 10
0.0
 20
17.87499999999999
 30
0.0
 11
2.000000000000005
 21
17.87499999999999
 31
0.0
  0
SPLINE
  5
C55B
330
C551
100
AcDbEntity
  8
0
100
AcDbSpline
210
0.0
220
0.0
230
1.0
 70
     8
 71
     3
 72
    10
 73
     6
 74
     0
 42
0.000000001
 43
0.0000000001
 40
0.0
 40
0.0
 40
0.0
 40
0.0
 40
0.005081016369588
 40
0.005081016369588
 40
0.0085383849553549
 40
0.0085383849553549
 40
0.0085383849553549
 40
0.0085383849553549
 10
1.999900372537213
 20
15.50000015086073
 30
0.0
 10
1.999917221370601
 20
15.50946066540596
 30
0.0
 10
1.99989410658291
 20
15.51670943099537
 30
0.0
 10
1.999859358340061
 20
15.52397088590636
 30
0.0
 10
1.999846463056068
 20
15.52561694202237
 30
0.0
 10
1.999846463216231
 20
15.52561692088373
 30
0.0
  0
SPLINE
  5
C55C
330
C551
100
AcDbEntity
  8
0
100
AcDbSpline
210
0.0
220
0.0
230
1.0
 70
     8
 71
     3
 72
    10
 73
     6
 74
     0
 42
0.000000001
 43
0.0000000001
 40
0.0024217125576627
 40
0.0024217125576627
 40
0.0024217125576627
 40
0.0024217125576627
 40
0.007283152317502
 40
0.007283152317502
 40
0.0089788393878489
 40
0.0089788393878489
 40
0.0089788393878489
 40
0.0089788393878489
 10
1.999904323532699
 20
15.50816421688856
 30
0.0
 10
1.999845649675752
 20
15.51349432076724
 30
0.0
 10
1.999782972706886
 20
15.51832373161512
 30
0.0
 10
1.999740574502429
 20
15.52140499153038
 30
0.0
 10
1.999733903763104
 20
15.52187497611051
 30
0.0
 10
1.999733903663558
 20
15.52187498316038
 30
0.0
  0
SPLINE
  5
C55D
330
C551
100
AcDbEntity
  8
0
100
AcDbSpline
210
0.0
220
0.0
230
1.0
 70
     8
 71
     3
 72
    32
 73
    28
 74
     0
 42
0.000000001
 43
0.0000000001
 40
0.0020295715171636
 40
0.0020295715171636
 40
0.0020295715171636
 40
0.0020295715171636
 40
0.0056107820636898
 40
0.0056107820636898
 40
0.0106657392823573
 40
0.0106657392823573
 40
0.0144737598211072
 40
0.0144737598211072
 40
0.0170068599055904
 40
0.0170068599055904
 40
0.0196898545658914
 40
0.0196898545658914
 40
0.0223328285628643
 40
0.0223328285628643
 40
0.026090266456326
 40
0.026090266456326
 40
0.0324731092159992
 40
0.0324731092159992
 40
0.0470252729865063
 40
0.0470252729865063
 40
0.0909013281820698
 40
0.0909013281820698
 40
0.0997511892716097
 40
0.0997511892716097
 40
0.1053354348426312
 40
0.1053354348426312
 40
0.1108200017422266
 40
0.1108200017422266
 40
0.1108200017422266
 40
0.1108200017422266
 10
1.999905927047057
 20
15.508016508557
 30
0.0
 10
1.999842513112561
 20
15.51326660665342
 30
0.0
 10
1.999763734983268
 20
15.51922844491302
 30
0.0
 10
1.999546408481954
 20
15.53377013529413
 30
0.0
 10
1.999398855772856
 20
15.54249189578609
 30
0.0
 10
1.999067742950987
 20
15.5594253653781
 30
0.0
 10
1.998899539072662
 20
15.56740027467235
 30
0.0
 10
1.998520357217786
 20
15.58330885672964
 30
0.0
 10
1.998338171490644
 20
15.59050516247631
 30
0.0
 10
1.997901445702825
 20
15.60640859113335
 30
0.0
 10
1.997638509034243
 20
15.61532690062506
 30
0.0
 10
1.997076257672052
 20
15.63299506648595
 30
0.0
 10
1.996773089338158
 20
15.64190416808035
 30
0.0
 10
1.996008036103783
 20
15.66303945271832
 30
0.0
 10
1.995527367718053
 20
15.67525862104189
 30
0.0
 10
1.994173213330771
 20
15.7073162228481
 30
0.0
 10
1.993251357708326
 20
15.7267663583287
 30
0.0
 10
1.989985179189438
 20
15.78922509196738
 30
0.0
 10
1.987302236802256
 20
15.83118130017108
 30
0.0
 10
1.974293316348459
 20
15.99842216623748
 30
0.0
 10
1.9569839884347
 20
16.12958030590403
 30
0.0
 10
1.934061043501556
 20
16.2420513364175
 30
0.0
 10
1.930294593822227
 20
16.25898953202468
 30
0.0
 10
1.925457700742833
 20
16.27975187780758
 30
0.0
 10
1.923900416778736
 20
16.28615850916254
 30
0.0
 10
1.921828702277126
 20
16.29456497035661
 30
0.0
 10
1.921286908684778
 20
16.2966913093508
 30
0.0
 10
1.921286908684774
 20
16.29669130935082
 30
0.0
  0
LINE
  5
C55E
330
C551
100
AcDbEntity
  8
0
100
AcDbLine
 10
2.000000000000002
 20
2.000000000000003
 30
0.0
 11
2.000000000000002
 21
15.5
 31
0.0
  0
LINE
  5
C55F
330
C551
100
AcDbEntity
  8
0
100
AcDbLine
 10
1.999999999999992
 20
45.49999999999997
 30
0.0
 11
2.000000000000005
 21
17.87499999999999
 31
0.0
  0
LINE
  5
C560
330
C551
100
AcDbEntity
  8
0
100
AcDbLine
 10
0.0
 20
45.49999999999997
 30
0.0
 11
1.999999999999992
 21
45.49999999999997
 31
0.0
  0
LINE
  5
C561
330
C551
100
AcDbEntity
  8
0
100
AcDbLine
 10
0.0
 20
17.875
 30
0.0
 11
0.0
 21
45.49999999999997
 31
0.0
  0
LINE
  5
C562
330
C551
100
AcDbEntity
  8
0
100
AcDbLine
 10
86.00000000000006
 20
15.5
 30
0.0
 11
46.00000000000004
 21
45.49999999999997
 31
0.0
  0
LINE
  5
C563
330
C551
100
AcDbEntity
  8
0
100
AcDbLine
 10
46.00000000000004
 20
45.49999999999997
 30
0.0
 11
46.00000000000001
 21
202.5
 31
0.0
  0
LINE
  5
C564
330
C551
100
AcDbEntity
  8
0
100
AcDbLine
 10
1.999999999999992
 20
45.49999999999997
 30
0.0
 11
2.00000000000001
 21
202.5
 31
0.0
  0
LINE
  5
C565
330
C551
100
AcDbEntity
  8
0
100
AcDbLine
 10
86.00000000000006
 20
15.5
 30
0.0
 11
86.00000000000001
 21
1.999999999999999
 31
0.0
  0
LINE
  5
C566
330
C551
100
AcDbEntity
  8
0
100
AcDbLine
 10
4.000000000000003
 20
202.5
 30
0.0
 11
46.00000000000001
 21
202.5
 31
0.0
  0
LINE
  5
C567
330
C551
100
AcDbEntity
  8
0
100
AcDbLine
 10
0.0
 20
202.5
 30
0.0
 11
2.00000000000001
 21
202.5
 31
0.0
  0
LINE
  5
C568
330
C551
100
AcDbEntity
  8
0
100
AcDbLine
 10
0.0
 20
45.49999999999997
 30
0.0
 11
0.0
 21
202.5
 31
0.0
  0
LINE
  5
C569
330
C551
100
AcDbEntity
  8
0
100
AcDbLine
 10
2.000000000000002
 20
202.5
 30
0.0
 11
4.000000000000003
 21
202.5
 31
0.0
  0
CIRCLE
  5
C56A
330
C551
100
AcDbEntity
  8
0
100
AcDbCircle
 10
38.50000000000001
 20
37.5
 30
0.0
 40
2.5
  0
CIRCLE
  5
C56B
330
C551
100
AcDbEntity
  8
0
100
AcDbCircle
 10
38.50000000000001
 20
57.5
 30
0.0
 40
2.5
  0
CIRCLE
  5
C56C
330
C551
100
AcDbEntity
  8
0
100
AcDbCircle
 10
38.50000000000001
 20
77.5
 30
0.0
 40
2.5
  0
CIRCLE
  5
C56D
330
C551
100
AcDbEntity
  8
0
100
AcDbCircle
 10
38.50000000000001
 20
97.5
 30
0.0
 40
2.5
  0
CIRCLE
  5
C56E
330
C551
100
AcDbEntity
  8
0
100
AcDbCircle
 10
38.50000000000001
 20
117.5
 30
0.0
 40
2.5
  0
CIRCLE
  5
C56F
330
C551
100
AcDbEntity
  8
0
100
AcDbCircle
 10
38.50000000000001
 20
137.5
 30
0.0
 40
2.5
  0
CIRCLE
  5
C570
330
C551
100
AcDbEntity
  8
0
100
AcDbCircle
 10
38.50000000000001
 20
157.5
 30
0.0
 40
2.5
  0
CIRCLE
  5
C571
330
C551
100
AcDbEntity
  8
0
100
AcDbCircle
 10
38.50000000000001
 20
177.5
 30
0.0
 40
2.5
  0
CIRCLE
  5
C572
330
C551
100
AcDbEntity
  8
0
100
AcDbCircle
 10
38.50000000000001
 20
197.5
 30
0.0
 40
2.5
  0
SPLINE
  5
C573
330
C551
100
AcDbEntity
  8
0
100
AcDbSpline
210
0.0
220
0.0
230
1.0
 70
     8
 71
     3
 72
     8
 73
     4
 74
     0
 42
0.000000001
 43
0.0000000001
 40
0.0
 40
0.0
 40
0.0
 40
0.0
 40
0.0015432778435083
 40
0.0015432778435083
 40
0.0015432778435083
 40
0.0015432778435083
 10
1.999900516098322
 20
15.5000812467015
 30
0.0
 10
1.999905565080002
 20
15.50295069988424
 30
0.0
 10
1.999906923569383
 20
15.50561491643427
 30
0.0
 10
1.999905823331656
 20
15.5080570618629
 30
0.0
  0
SPLINE
  5
C574
330
C551
100
AcDbEntity
  8
0
100
AcDbSpline
210
0.0
220
0.0
230
1.0
 70
     8
 71
     3
 72
    24
 73
    20
 74
     0
 42
0.000000001
 43
0.0000000001
 40
0.0020291048364746
 40
0.0020291048364746
 40
0.0020291048364746
 40
0.0020291048364746
 40
0.0056113808672304
 40
0.0056113808672304
 40
0.0106674051845939
 40
0.0106674051845939
 40
0.0144762646208309
 40
0.0144762646208309
 40
0.0170074704812559
 40
0.0170074704812559
 40
0.0196898751914848
 40
0.0196898751914848
 40
0.0223330261077575
 40
0.0223330261077575
 40
0.0260908034914504
 40
0.0260908034914504
 40
0.0324745250383388
 40
0.0324745250383388
 40
0.0335327273071617
 40
0.0335327273071617
 40
0.0335327273071617
 40
0.0335327273071617
 10
1.999905927221384
 20
15.50801649435433
 30
0.0
 10
1.999842494502564
 20
15.51326814762226
 30
0.0
 10
1.999763688612654
 20
15.51923191431745
 30
0.0
 10
1.999546290931811
 20
15.53377748286855
 30
0.0
 10
1.999398695660825
 20
15.54250112900562
 30
0.0
 10
1.999067442721653
 20
15.55943993110377
 30
0.0
 10
1.998899148705627
 20
15.56741820201928
 30
0.0
 10
1.998519869123668
 20
15.58332830195853
 30
0.0
 10
1.998337767231186
 20
15.59052035366812
 30
0.0
 10
1.997901195905554
 20
15.60641718880833
 30
0.0
 10
1.997638302467315
 20
15.61533361513594
 30
0.0
 10
1.997076078001619
 20
15.63300049223248
 30
0.0
 10
1.996772881637276
 20
15.64191016597198
 30
0.0
 10
1.996007748437137
 20
15.66304702993589
 30
0.0
 10
1.995527025758713
 20
15.67526716007214
 30
0.0
 10
1.994172674169819
 20
15.70732823253683
 30
0.0
 10
1.993250661882732
 20
15.72678075185494
 30
0.0
 10
1.99208955565048
 20
15.74898317664351
 30
0.0
 10
1.991922192282959
 20
15.75213604531296
 30
0.0
 10
1.991752748265971
 20
15.75527461015594
 30
0.0
  0
ENDBLK
  5
C553
330
C551
100
AcDbEntity
  8
0
100
AcDbBlockEnd
  0
BLOCK
  5
C576
330
C575
100
AcDbEntity
  8
0
100
AcDbBlockBegin
  2
SAE500_95_2-Right
 70
     0
 10
0.0
 20
0.0
 30
0.0
  3
SAE500_95_2-Right
  1

  0
SPLINE
  5
C578
330
C575
100
AcDbEntity
  8
0
100
AcDbSpline
210
0.0
220
0.0
230
1.0
 70
     8
 71
     3
 72
    17
 73
    13
 74
     0
 42
0.000000001
 43
0.0000000001
 40
0.0
 40
0.0
 40
0.0
 40
0.0
 40
0.3690626432184121
 40
0.3690626432184121
 40
0.3690626432184121
 40
0.6936378220004606
 40
0.6936378220004606
 40
0.6936378220004606
 40
0.9219545386459827
 40
0.9219545386459827
 40
0.9219545386459827
 40
1.0
 40
1.0
 40
1.0
 40
1.0
 10
-2.000000000000005
 20
17.87499999999996
 30
0.0
 10
-2.000007003368936
 20
17.6117213580521
 30
0.0
 10
-2.000476349918939
 20
17.40773000725244
 30
0.0
 10
-1.999863204548939
 20
17.18602723250462
 30
0.0
 10
-1.999323968807409
 20
16.9910489027481
 30
0.0
 10
-1.999985049619729
 20
16.78354840177022
 30
0.0
 10
-2.000261627960532
 20
16.50806212760439
 30
0.0
 10
-2.000456182143339
 20
16.31427613991897
 30
0.0
 10
-2.000333558699196
 20
16.07964051226235
 30
0.0
 10
-2.000050547976826
 20
15.80459395177115
 30
0.0
 10
-1.999953806473532
 20
15.71057483647046
 30
0.0
 10
-2.000681435773389
 20
15.61612998310374
 30
0.0
 10
-2.000000000000294
 20
15.50000000000947
 30
0.0
  0
LINE
  5
C579
330
C575
100
AcDbEntity
  8
0
100
AcDbLine
 10
-2.001783600996573
 20
17.87499999999999
 30
0.0
 11
-2.000000000000011
 21
17.87499999999999
 31
0.0
  0
SPLINE
  5
C57A
330
C575
100
AcDbEntity
  8
0
100
AcDbSpline
210
0.0
220
0.0
230
1.0
 70
     8
 71
     3
 72
    17
 73
    13
 74
     0
 42
0.000000001
 43
0.0000000001
 40
-0.9619350557662937
 40
-0.9619350557662937
 40
-0.9619350557662937
 40
-0.9619350557662937
 40
-0.7906685194049055
 40
-0.7906685194049055
 40
-0.7906685194049055
 40
-0.3894646006008224
 40
-0.3894646006008224
 40
-0.3894646006008224
 40
-0.1064781870860935
 40
-0.1064781870860935
 40
-0.1064781870860935
 40
0.0
 40
0.0
 40
0.0
 40
0.0
 10
-1.990436076869724
 20
15.75446606983439
 30
0.0
 10
-1.964295043585869
 20
16.1172317349765
 30
0.0
 10
-1.886311689170032
 20
16.39539238628025
 30
0.0
 10
-1.773190688156247
 20
16.59333321452264
 30
0.0
 10
-1.508196779422052
 20
17.05702353996136
 30
0.0
 10
-1.054549467666542
 20
17.14361801432171
 30
0.0
 10
-0.6742949633965844
 20
17.2356830970882
 30
0.0
 10
-0.4060850747520931
 20
17.30062056743916
 30
0.0
 10
-0.1716897863640552
 20
17.37223507489018
 30
0.0
 10
-0.0620429895170166
 20
17.57586904858657
 30
0.0
 10
-0.0207866196331593
 20
17.65248960460206
 30
0.0
 10
-0.0000165986139174
 20
17.75247760952899
 30
0.0
 10
-0.0000000000000016
 20
17.87500000000006
 30
0.0
  0
LINE
  5
C57B
330
C575
100
AcDbEntity
  8
0
100
AcDbLine
 10
-2.000000000000005
 20
17.87499999999999
 30
0.0
 11
0.0
 21
17.87499999999999
 31
0.0
  0
SPLINE
  5
C57C
330
C575
100
AcDbEntity
  8
0
100
AcDbSpline
210
0.0
220
0.0
230
1.0
 70
     8
 71
     3
 72
    12
 73
     8
 74
     0
 42
0.000000001
 43
0.0000000001
 40
0.0084345323236919
 40
0.0084345323236919
 40
0.0084345323236919
 40
0.0084345323236919
 40
0.0101907149975399
 40
0.0101907149975399
 40
0.0142262249988724
 40
0.0142262249988724
 40
0.0169844211201924
 40
0.0169844211201924
 40
0.0169844211201924
 40
0.0169844211201924
 10
-1.99984646321623
 20
15.52561692088391
 30
0.0
 10
-1.999846463205296
 20
15.52561692232703
 30
0.0
 10
-1.999849670006982
 20
15.52519857858019
 30
0.0
 10
-1.999866368110215
 20
15.52258506892998
 30
0.0
 10
-1.99988814104377
 20
15.51875667908868
 30
0.0
 10
-1.999906900174296
 20
15.5096715129174
 30
0.0
 10
-1.999909539801827
 20
15.50520962632041
 30
0.0
 10
-1.999900516098322
 20
15.5000812467015
 30
0.0
  0
SPLINE
  5
C57D
330
C575
100
AcDbEntity
  8
0
100
AcDbSpline
210
0.0
220
0.0
230
1.0
 70
     8
 71
     3
 72
    10
 73
     6
 74
     0
 42
0.000000001
 43
0.0000000001
 40
0.0071597436652287
 40
0.0071597436652287
 40
0.0071597436652287
 40
0.0071597436652287
 40
0.0093414351931309
 40
0.0093414351931309
 40
0.0137123914853461
 40
0.0137123914853461
 40
0.0137123914853461
 40
0.0137123914853461
 10
-1.999733903663553
 20
15.52187498316079
 30
0.0
 10
-1.99973390366253
 20
15.52187498323316
 30
0.0
 10
-1.999745048845693
 20
15.52109127157281
 30
0.0
 10
-1.999796360234348
 20
15.51731241805776
 30
0.0
 10
-1.999851942056187
 20
15.51294208246852
 30
0.0
 10
-1.999904621413555
 20
15.5081565363728
 30
0.0
  0
SPLINE
  5
C57E
330
C575
100
AcDbEntity
  8
0
100
AcDbSpline
210
0.0
220
0.0
230
1.0
 70
     8
 71
     3
 72
    34
 73
    30
 74
     0
 42
0.000000001
 43
0.0000000001
 40
0.1091699819187448
 40
0.1091699819187448
 40
0.1091699819187448
 40
0.1091699819187448
 40
0.1102427280194852
 40
0.1102427280194852
 40
0.1181860024360613
 40
0.1181860024360613
 40
0.1256922709630385
 40
0.1256922709630385
 40
0.1353385043237329
 40
0.1353385043237329
 40
0.1512387875248828
 40
0.1512387875248828
 40
0.1851400667300284
 40
0.1851400667300284
 40
0.1936783439446372
 40
0.1936783439446372
 40
0.1981882026753219
 40
0.1981882026753219
 40
0.2013666922894293
 40
0.2013666922894293
 40
0.2030543064737764
 40
0.2030543064737764
 40
0.2056370274731274
 40
0.2056370274731274
 40
0.2082817726554443
 40
0.2082817726554443
 40
0.2125906148709798
 40
0.2125906148709798
 40
0.2181001392194802
 40
0.2181001392194802
 40
0.2181001392194802
 40
0.2181001392194802
 10
-1.921286908684638
 20
16.29669130935136
 30
0.0
 10
-1.921286908870721
 20
16.29669130861608
 30
0.0
 10
-1.921306747400789
 20
16.29661294255948
 30
0.0
 10
-1.921641096401696
 20
16.29528812546179
 30
0.0
 10
-1.92311081303351
 20
16.28949764378982
 30
0.0
 10
-1.927566225236746
 20
16.2708218544
 30
0.0
 10
-1.930453985780775
 20
16.25832194320162
 30
0.0
 10
-1.937553065837673
 20
16.22539630207052
 30
0.0
 10
-1.941934100238898
 20
16.20356797225722
 30
0.0
 10
-1.953087889544977
 20
16.14218997182182
 30
0.0
 10
-1.959632950098202
 20
16.1000074801201
 30
0.0
 10
-1.977280015651086
 20
15.96466676639391
 30
0.0
 10
-1.985407901674448
 20
15.86813108572527
 30
0.0
 10
-1.992455085339977
 20
15.74308186690399
 30
0.0
 10
-1.993728058825455
 20
15.71746492841932
 30
0.0
 10
-1.995486702385955
 20
15.67639122922305
 30
0.0
 10
-1.996065500783003
 20
15.66168269402793
 30
0.0
 10
-1.996971153263148
 20
15.63621096708033
 30
0.0
 10
-1.997327494123338
 20
15.62537995153425
 30
0.0
 10
-1.997809092800991
 20
15.6094757602573
 30
0.0
 10
-1.997965996025615
 20
15.60403628042669
 30
0.0
 10
-1.998326370639703
 20
15.59096489093471
 30
0.0
 10
-1.998513405833357
 20
15.58359346149646
 30
0.0
 10
-1.998826870883751
 20
15.57045611811961
 30
0.0
 10
-1.998956308094208
 20
15.56457055638228
 30
0.0
 10
-1.999250899312044
 20
15.55038653465931
 30
0.0
 10
-1.999392122994297
 20
15.54268717581835
 30
0.0
 10
-1.999676334992331
 20
15.52559990818466
 30
0.0
 10
-1.999808920429317
 20
15.51601570227926
 30
0.0
 10
-1.999906393279413
 20
15.50794583516225
 30
0.0
  0
LINE
  5
C57F
330
C575
100
AcDbEntity
  8
0
100
AcDbLine
 10
-1.999999999999997
 20
-2.0
 30
0.0
 11
-86.00000000000001
 21
-2.0
 31
0.0
  0
LINE
  5
C580
330
C575
100
AcDbEntity
  8
0
100
AcDbLine
 10
-2.000000000000002
 20
2.000000000000003
 30
0.0
 11
-2.000000000000002
 21
15.5
 31
0.0
  0
LINE
  5
C581
330
C575
100
AcDbEntity
  8
0
100
AcDbLine
 10
-2.000000000000002
 20
2.000000000000004
 30
0.0
 11
-1.999999999999997
 21
-1.999999999999999
 31
0.0
  0
LINE
  5
C582
330
C575
100
AcDbEntity
  8
0
100
AcDbLine
 10
-86.00000000000001
 20
-2.000000000000003
 30
0.0
 11
-86.00000000000001
 21
2.0
 31
0.0
  0
LINE
  5
C583
330
C575
100
AcDbEntity
  8
0
100
AcDbLine
 10
0.0
 20
45.49999999999997
 30
0.0
 11
0.0
 21
17.875
 31
0.0
  0
LINE
  5
C584
330
C575
100
AcDbEntity
  8
0
100
AcDbLine
 10
-1.999999999999992
 20
45.49999999999997
 30
0.0
 11
0.0
 21
45.49999999999997
 31
0.0
  0
LINE
  5
C585
330
C575
100
AcDbEntity
  8
0
100
AcDbLine
 10
-2.000000000000005
 20
17.875
 30
0.0
 11
-1.999999999999992
 21
45.49999999999997
 31
0.0
  0
LINE
  5
C586
330
C575
100
AcDbEntity
  8
0
100
AcDbLine
 10
0.0
 20
45.49999999999997
 30
0.0
 11
0.0
 21
202.5
 31
0.0
  0
CIRCLE
  5
C587
330
C575
100
AcDbEntity
  8
0
100
AcDbCircle
 10
-38.50000000000004
 20
187.5
 30
0.0
 40
2.5
  0
LINE
  5
C588
330
C575
100
AcDbEntity
  8
0
100
AcDbLine
 10
-46.00000000000004
 20
45.49999999999997
 30
0.0
 11
-86.00000000000006
 21
15.5
 31
0.0
  0
LINE
  5
C589
330
C575
100
AcDbEntity
  8
0
100
AcDbLine
 10
-46.00000000000001
 20
202.5
 30
0.0
 11
-46.00000000000004
 21
45.49999999999997
 31
0.0
  0
LINE
  5
C58A
330
C575
100
AcDbEntity
  8
0
100
AcDbLine
 10
-86.00000000000006
 20
15.5
 30
0.0
 11
-86.00000000000001
 21
1.999999999999999
 31
0.0
  0
LINE
  5
C58B
330
C575
100
AcDbEntity
  8
0
100
AcDbLine
 10
-4.000000000000003
 20
202.5
 30
0.0
 11
-46.00000000000001
 21
202.5
 31
0.0
  0
LINE
  5
C58C
330
C575
100
AcDbEntity
  8
0
100
AcDbLine
 10
-2.000000000000002
 20
202.5
 30
0.0
 11
-4.000000000000003
 21
202.5
 31
0.0
  0
LINE
  5
C58D
330
C575
100
AcDbEntity
  8
0
100
AcDbLine
 10
0.0
 20
202.5
 30
0.0
 11
-2.00000000000001
 21
202.5
 31
0.0
  0
LINE
  5
C58E
330
C575
100
AcDbEntity
  8
0
100
AcDbLine
 10
-1.999999999999992
 20
45.49999999999997
 30
0.0
 11
-2.00000000000001
 21
202.5
 31
0.0
  0
CIRCLE
  5
C58F
330
C575
100
AcDbEntity
  8
0
100
AcDbCircle
 10
-38.50000000000004
 20
27.5
 30
0.0
 40
2.5
  0
CIRCLE
  5
C590
330
C575
100
AcDbEntity
  8
0
100
AcDbCircle
 10
-38.50000000000004
 20
47.5
 30
0.0
 40
2.5
  0
CIRCLE
  5
C591
330
C575
100
AcDbEntity
  8
0
100
AcDbCircle
 10
-38.50000000000004
 20
67.5
 30
0.0
 40
2.5
  0
CIRCLE
  5
C592
330
C575
100
AcDbEntity
  8
0
100
AcDbCircle
 10
-38.50000000000004
 20
87.5
 30
0.0
 40
2.5
  0
CIRCLE
  5
C593
330
C575
100
AcDbEntity
  8
0
100
AcDbCircle
 10
-38.50000000000004
 20
107.5
 30
0.0
 40
2.5
  0
CIRCLE
  5
C594
330
C575
100
AcDbEntity
  8
0
100
AcDbCircle
 10
-38.50000000000004
 20
127.5
 30
0.0
 40
2.5
  0
CIRCLE
  5
C595
330
C575
100
AcDbEntity
  8
0
100
AcDbCircle
 10
-38.50000000000004
 20
147.5
 30
0.0
 40
2.5
  0
CIRCLE
  5
C596
330
C575
100
AcDbEntity
  8
0
100
AcDbCircle
 10
-38.50000000000004
 20
167.5
 30
0.0
 40
2.5
  0
LINE
  5
C597
330
C575
100
AcDbEntity
  8
0
100
AcDbLine
 10
-1.999900516091567
 20
15.50008124641765
 30
0.0
 11
-1.999900372537214
 21
15.50000015086073
 31
0.0
  0
SPLINE
  5
C598
330
C575
100
AcDbEntity
  8
0
100
AcDbSpline
210
0.0
220
0.0
230
1.0
 70
     8
 71
     3
 72
    22
 73
    18
 74
     0
 42
0.000000001
 43
0.0000000001
 40
0.186601156510202
 40
0.186601156510202
 40
0.186601156510202
 40
0.186601156510202
 40
0.1936806498093478
 40
0.1936806498093478
 40
0.1981883566416017
 40
0.1981883566416017
 40
0.2013660372177941
 40
0.2013660372177941
 40
0.2030536268298712
 40
0.2030536268298712
 40
0.2056363955765092
 40
0.2056363955765092
 40
0.2082810745976041
 40
0.2082810745976041
 40
0.212589605849897
 40
0.212589605849897
 40
0.2180997431197329
 40
0.2180997431197329
 40
0.2180997431197329
 40
0.2180997431197329
 10
-1.99175271853421
 20
15.75527683978744
 30
0.0
 10
-1.992888117716918
 20
15.73424615354122
 30
0.0
 10
-1.993925837094442
 20
15.71284797642839
 30
0.0
 10
-1.995487467384844
 20
15.67637194387921
 30
0.0
 10
-1.996065960293595
 20
15.66167015028379
 30
0.0
 10
-1.996971244755676
 20
15.63620812574649
 30
0.0
 10
-1.997327488538899
 20
15.6253799858527
 30
0.0
 10
-1.997809014625778
 20
15.6094784215814
 30
0.0
 10
-1.997965919650433
 20
15.60403896584452
 30
0.0
 10
-1.99832630798149
 20
15.59096729343696
 30
0.0
 10
-1.998513353996131
 20
15.58359554856248
 30
0.0
 10
-1.998826828719764
 20
15.57045797267511
 30
0.0
 10
-1.998956267728867
 20
15.56457241506053
 30
0.0
 10
-1.999250853378619
 20
15.55038888444202
 30
0.0
 10
-1.999392072663215
 20
15.54268995247169
 30
0.0
 10
-1.999676306058327
 20
15.52560196648486
 30
0.0
 10
-1.999808909907283
 20
15.51601652818988
 30
0.0
 10
-1.999906393624495
 20
15.5079457613744
 30
0.0
  0
ENDBLK
  5
C577
330
C575
100
AcDbEntity
  8
0
100
AcDbBlockEnd
  0
BLOCK
  5
C59A
330
C599
100
AcDbEntity
  8
0
100
AcDbBlockBegin
  2
SAE500_95_2-Top
 70
     0
 10
0.0
 20
0.0
 30
0.0
  3
SAE500_95_2-Top
  1

  0
LINE
  5
C59C
330
C599
100
AcDbEntity
  8
0
100
AcDbLine
 10
47.5
 20
-1.999999999999999
 30
0.0
 11
47.5
 21
-2.066816716475004
 31
0.0
  0
SPLINE
  5
C59D
330
C599
100
AcDbEntity
  8
0
100
AcDbSpline
210
0.0
220
0.0
230
1.0
 70
     8
 71
     3
 72
    11
 73
     7
 74
     0
 42
0.000000001
 43
0.0000000001
 40
-1.0
 40
-1.0
 40
-1.0
 40
-1.0
 40
-0.7906685194049055
 40
-0.7906685194049055
 40
-0.7906685194049055
 40
-0.655803601928413
 40
-0.655803601928413
 40
-0.655803601928413
 40
-0.655803601928413
 10
47.50000000000001
 20
-2.000000000000174
 30
0.0
 10
47.50001668753109
 20
-1.997223802219622
 30
0.0
 10
47.63599085877081
 20
-1.911453463428635
 30
0.0
 10
47.86703800145616
 20
-1.773190688156247
 30
0.0
 10
48.01589355697441
 20
-1.684112840313334
 30
0.0
 10
48.20303718815257
 20
-1.573717687773145
 30
0.0
 10
48.41723157308735
 20
-1.451958811591921
 30
0.0
  0
SPLINE
  5
C59E
330
C599
100
AcDbEntity
  8
0
100
AcDbSpline
210
0.0
220
0.0
230
1.0
 70
     8
 71
     3
 72
    10
 73
     6
 74
     0
 42
0.000000001
 43
0.0000000001
 40
0.0
 40
0.0
 40
0.0
 40
0.0
 40
0.0708400271194031
 40
0.0708400271194031
 40
0.1094193670474688
 40
0.1094193670474688
 40
0.1094193670474688
 40
0.1094193670474688
 10
52.14812200990582
 20
-2.000040667433791
 30
0.0
 10
51.93419475921732
 20
-2.000376789326182
 30
0.0
 10
51.71533814744354
 20
-2.001761833246878
 30
0.0
 10
51.37210113189886
 20
-2.015527502228271
 30
0.0
 10
51.24785142543157
 20
-2.022885365036867
 30
0.0
 10
51.12254551636222
 20
-2.035940909024408
 30
0.0
  0
SPLINE
  5
C59F
330
C599
100
AcDbEntity
  8
0
100
AcDbSpline
210
0.0
220
0.0
230
1.0
 70
     8
 71
     3
 72
     8
 73
     4
 74
     0
 42
0.000000001
 43
0.0000000001
 40
0.0540971272670164
 40
0.0540971272670164
 40
0.0540971272670164
 40
0.0540971272670164
 40
0.057643547530051
 40
0.057643547530051
 40
0.057643547530051
 40
0.057643547530051
 10
49.500263532016
 20
-3.967533731121481
 30
0.0
 10
49.50015829238115
 20
-3.978687637648157
 30
0.0
 10
49.50009104942525
 20
-3.989480844024288
 30
0.0
 10
49.50005195606984
 20
-3.999998939803049
 30
0.0
  0
SPLINE
  5
C5A0
330
C599
100
AcDbEntity
  8
0
100
AcDbSpline
210
0.0
220
0.0
230
1.0
 70
     8
 71
     3
 72
    12
 73
     8
 74
     0
 42
0.000000001
 43
0.0000000001
 40
0.0
 40
0.0
 40
0.0
 40
0.0
 40
0.007061215369367
 40
0.007061215369367
 40
0.0092297559652227
 40
0.0092297559652227
 40
0.0098239256692439
 40
0.0098239256692439
 40
0.0098239256692439
 40
0.0098239256692439
 10
47.4999458674721
 20
-3.999999732478201
 30
0.0
 10
47.49998616046597
 20
-3.987716593585942
 30
0.0
 10
47.5000421776095
 20
-3.975085212603246
 30
0.0
 10
47.50008822398064
 20
-3.966110033466604
 30
0.0
 10
47.50009627091358
 20
-3.964601000022017
 30
0.0
 10
47.50009988641575
 20
-3.963908415722841
 30
0.0
 10
47.5001002860329
 20
-3.963830760749278
 30
0.0
 10
47.50010028603295
 20
-3.963830760742002
 30
0.0
  0
SPLINE
  5
C5A1
330
C599
100
AcDbEntity
  8
0
100
AcDbSpline
210
0.0
220
0.0
230
1.0
 70
     8
 71
     3
 72
     8
 73
     4
 74
     0
 42
0.000000001
 43
0.0000000001
 40
0.0041961601089519
 40
0.0041961601089519
 40
0.0041961601089519
 40
0.0041961601089519
 40
0.0079377988331403
 40
0.0079377988331403
 40
0.0079377988331403
 40
0.0079377988331403
 10
47.49996854624258
 20
-3.993406619458791
 30
0.0
 10
47.49996565399333
 20
-3.992149439306587
 30
0.0
 10
47.49996423139245
 20
-3.991506758649535
 30
0.0
 10
47.49996423139245
 20
-3.991506758649241
 30
0.0
  0
SPLINE
  5
C5A2
330
C599
100
AcDbEntity
  8
0
100
AcDbSpline
210
0.0
220
0.0
230
1.0
 70
     8
 71
     3
 72
    32
 73
    28
 74
     0
 42
0.000000001
 43
0.0000000001
 40
0.0088939280951625
 40
0.0088939280951625
 40
0.0088939280951625
 40
0.0088939280951625
 40
0.0096940585994182
 40
0.0096940585994182
 40
0.0111214727689539
 40
0.0111214727689539
 40
0.0116799989929605
 40
0.0116799989929605
 40
0.0128107653799317
 40
0.0128107653799317
 40
0.0217448202574213
 40
0.0217448202574213
 40
0.0307037198239364
 40
0.0307037198239364
 40
0.0575856259005921
 40
0.0575856259005921
 40
0.1382830195335398
 40
0.1382830195335398
 40
0.1807619908845108
 40
0.1807619908845108
 40
0.2023103560365357
 40
0.2023103560365357
 40
0.2133954931532209
 40
0.2133954931532209
 40
0.2193811806395868
 40
0.2193811806395868
 40
0.2255893509342486
 40
0.2255893509342486
 40
0.2255893509342486
 40
0.2255893509342486
 10
47.49995419861336
 20
-3.997500517107495
 30
0.0
 10
47.49995035512821
 20
-3.997277684267812
 30
0.0
 10
47.49994579206039
 20
-3.997013121094363
 30
0.0
 10
47.49993053176559
 20
-3.996128274238294
 30
0.0
 10
47.49991775239492
 20
-3.995388707050929
 30
0.0
 10
47.49987115820718
 20
-3.992677896958596
 30
0.0
 10
47.49985426869923
 20
-3.991694320037476
 30
0.0
 10
47.49979317470795
 20
-3.988127486699105
 30
0.0
 10
47.49973914260482
 20
-3.984960516133812
 30
0.0
 10
47.4992536221341
 20
-3.956305999900362
 30
0.0
 10
47.49879025101427
 20
-3.927596563743581
 30
0.0
 10
47.49795760904016
 20
-3.872637910382678
 30
0.0
 10
47.49756683493526
 20
-3.845133123014745
 30
0.0
 10
47.49611668342291
 20
-3.735431788315653
 30
0.0
 10
47.49529111755095
 20
-3.65408985380645
 30
0.0
 10
47.49292451489731
 20
-3.329632469564179
 30
0.0
 10
47.4930577045886
 20
-3.083167694057844
 30
0.0
 10
47.49474448023073
 20
-2.696009120344093
 30
0.0
 10
47.49566022842977
 20
-2.561312421452278
 30
0.0
 10
47.49731774696662
 20
-2.365167784156618
 30
0.0
 10
47.49800254942259
 20
-2.297969801167198
 30
0.0
 10
47.49905653731114
 20
-2.201045073852387
 30
0.0
 10
47.49934680127799
 20
-2.1694370483425
 30
0.0
 10
47.49954511884429
 20
-2.126849374145519
 30
0.0
 10
47.49957531083487
 20
-2.112822020421821
 30
0.0
 10
47.49959212558002
 20
-2.087003814394642
 30
0.0
 10
47.49957815011471
 20
-2.074777961646188
 30
0.0
 10
47.49956383268264
 20
-2.066816716475004
 30
0.0
  0
LINE
  5
C5A3
330
C599
100
AcDbEntity
  8
0
100
AcDbLine
 10
-47.5
 20
-1.999999999999999
 30
0.0
 11
-47.5
 21
-2.066816196501149
 31
0.0
  0
SPLINE
  5
C5A4
330
C599
100
AcDbEntity
  8
0
100
AcDbSpline
210
0.0
220
0.0
230
1.0
 70
     8
 71
     3
 72
    11
 73
     7
 74
     0
 42
0.000000001
 43
0.0000000001
 40
-1.0
 40
-1.0
 40
-1.0
 40
-1.0
 40
-0.7906685194049055
 40
-0.7906685194049055
 40
-0.7906685194049055
 40
-0.655803601928413
 40
-0.655803601928413
 40
-0.655803601928413
 40
-0.655803601928413
 10
-47.50000000000001
 20
-2.000000000000174
 30
0.0
 10
-47.50001668753109
 20
-1.997223802219622
 30
0.0
 10
-47.63599085877081
 20
-1.911453463428635
 30
0.0
 10
-47.86703800145616
 20
-1.773190688156247
 30
0.0
 10
-48.01589355697441
 20
-1.684112840313334
 30
0.0
 10
-48.20303718815257
 20
-1.573717687773145
 30
0.0
 10
-48.41723157308735
 20
-1.451958811591921
 30
0.0
  0
SPLINE
  5
C5A5
330
C599
100
AcDbEntity
  8
0
100
AcDbSpline
210
0.0
220
0.0
230
1.0
 70
     8
 71
     3
 72
    36
 73
    32
 74
     0
 42
0.000000001
 43
0.0000000001
 40
0.0
 40
0.0
 40
0.0
 40
0.0
 40
0.0042077487185923
 40
0.0042077487185923
 40
0.0101074840845631
 40
0.0101074840845631
 40
0.0212113642384142
 40
0.0212113642384142
 40
0.0341268506069494
 40
0.0341268506069494
 40
0.0655420521737882
 40
0.0655420521737882
 40
0.1598408043343996
 40
0.1598408043343996
 40
0.1897382337474236
 40
0.1897382337474236
 40
0.2045613393312148
 40
0.2045613393312148
 40
0.2118854524855606
 40
0.2118854524855606
 40
0.2128902736288833
 40
0.2128902736288833
 40
0.2136462203493316
 40
0.2136462203493316
 40
0.2142355350935508
 40
0.2142355350935508
 40
0.2149218843742803
 40
0.2149218843742803
 40
0.2157688371299875
 40
0.2157688371299875
 40
0.2167369677005741
 40
0.2167369677005741
 40
0.2167369677005741
 40
0.2167369677005741
 10
-47.49956383174754
 20
-2.066816196501149
 30
0.0
 10
-47.49957353575964
 20
-2.072211993067876
 30
0.0
 10
-47.49958304837394
 20
-2.079693860919111
 30
0.0
 10
-47.49958904070113
 20
-2.099328774332203
 30
0.0
 10
-47.49957862745719
 20
-2.112440808988259
 30
0.0
 10
-47.49945311300333
 20
-2.152826557826801
 30
0.0
 10
-47.49922875043849
 20
-2.183234393049545
 30
0.0
 10
-47.49850389514503
 20
-2.253318522236496
 30
0.0
 10
-47.49803384947007
 20
-2.293353198300411
 30
0.0
 10
-47.4967022884426
 20
-2.429446197848229
 30
0.0
 10
-47.49595552515329
 20
-2.525576323978746
 30
0.0
 10
-47.49332992546047
 20
-2.919903693035126
 30
0.0
 10
-47.49261494901305
 20
-3.214985601709466
 30
0.0
 10
-47.49473310387426
 20
-3.589452027722439
 30
0.0
 10
-47.49550777262341
 20
-3.679469334209961
 30
0.0
 10
-47.49715505793175
 20
-3.815861152048287
 30
0.0
 10
-47.49778028383413
 20
-3.861358580307854
 30
0.0
 10
-47.49882126007022
 20
-3.9293825604273
 30
0.0
 10
-47.49918823901517
 20
-3.952197806227268
 30
0.0
 10
-47.49960420377283
 20
-3.976988165167807
 30
0.0
 10
-47.49965424541783
 20
-3.979953035491308
 30
0.0
 10
-47.49973829315403
 20
-3.98490694986378
 30
0.0
 10
-47.49977350438766
 20
-3.986973433512137
 30
0.0
 10
-47.49982841071584
 20
-3.990185801710658
 30
0.0
 10
-47.49984980685311
 20
-3.991433891882876
 30
0.0
 10
-47.49988630500576
 20
-3.993559889097134
 30
0.0
 10
-47.49990025249747
 20
-3.99437027773022
 30
0.0
 10
-47.49992339370949
 20
-3.99571427893713
 30
0.0
 10
-47.49993137334165
 20
-3.996177022429767
 30
0.0
 10
-47.49994490507884
 20
-3.996961729214033
 30
0.0
 10
-47.49995010384861
 20
-3.997263103276791
 30
0.0
 10
-47.49995419881678
 20
-3.997500457072601
 30
0.0
  0
SPLINE
  5
C5A6
330
C599
100
AcDbEntity
  8
0
100
AcDbSpline
210
0.0
220
0.0
230
1.0
 70
     8
 71
     3
 72
    14
 73
    10
 74
     0
 42
0.000000001
 43
0.0000000001
 40
0.0084604541584019
 40
0.0084604541584019
 40
0.0084604541584019
 40
0.0084604541584019
 40
0.0097982465146865
 40
0.0097982465146865
 40
0.0122912107156558
 40
0.0122912107156558
 40
0.0160466451477173
 40
0.0160466451477173
 40
0.0182944535844101
 40
0.0182944535844101
 40
0.0182944535844101
 40
0.0182944535844101
 10
-47.50010028603295
 20
-3.963830760741633
 30
0.0
 10
-47.50010028603475
 20
-3.963830760389166
 30
0.0
 10
-47.50009820697589
 20
-3.964230518690233
 30
0.0
 10
-47.50008741975249
 20
-3.96628245860344
 30
0.0
 10
-47.50007450161295
 20
-3.96872875117774
 30
0.0
 10
-47.50003721019648
 20
-3.976323091603278
 30
0.0
 10
-47.50001078845227
 20
-3.982218674896835
 30
0.0
 10
-47.49997236142792
 20
-3.992220499201663
 30
0.0
 10
-47.49995869400787
 20
-3.996089620438017
 30
0.0
 10
-47.49994586747209
 20
-3.999999732478199
 30
0.0
  0
SPLINE
  5
C5A7
330
C599
100
AcDbEntity
  8
0
100
AcDbSpline
210
0.0
220
0.0
230
1.0
 70
     8
 71
     3
 72
     8
 73
     4
 74
     0
 42
0.000000001
 43
0.0000000001
 40
0.010494294793882
 40
0.010494294793882
 40
0.010494294793882
 40
0.010494294793882
 40
0.0142448585265792
 40
0.0142448585265792
 40
0.0142448585265792
 40
0.0142448585265792
 10
-47.49996423139248
 20
-3.991506758646328
 30
0.0
 10
-47.49996423140283
 20
-3.991506762461431
 30
0.0
 10
-47.49996564458694
 20
-3.992145425512732
 30
0.0
 10
-47.49996853210383
 20
-3.993400548637215
 30
0.0
  0
SPLINE
  5
C5A8
330
C599
100
AcDbEntity
  8
0
100
AcDbSpline
210
0.0
220
0.0
230
1.0
 70
     8
 71
     3
 72
     8
 73
     4
 74
     0
 42
0.000000001
 43
0.0000000001
 40
0.0
 40
0.0
 40
0.0
 40
0.0
 40
0.0035328219104537
 40
0.0035328219104537
 40
0.0035328219104537
 40
0.0035328219104537
 10
-49.50005195606983
 20
-3.999998939803048
 30
0.0
 10
-49.50009089952614
 20
-3.989521174488233
 30
0.0
 10
-49.50015835353802
 20
-3.978682448685655
 30
0.0
 10
-49.50026353295285
 20
-3.967533673415642
 30
0.0
  0
SPLINE
  5
C5A9
330
C599
100
AcDbEntity
  8
0
100
AcDbSpline
210
0.0
220
0.0
230
1.0
 70
     8
 71
     3
 72
    12
 73
     8
 74
     0
 42
0.000000001
 43
0.0000000001
 40
0.1039331131524886
 40
0.1039331131524886
 40
0.1039331131524886
 40
0.1039331131524886
 40
0.1131931781692807
 40
0.1131931781692807
 40
0.1628450129036334
 40
0.1628450129036334
 40
0.2134662362741984
 40
0.2134662362741984
 40
0.2134662362741984
 40
0.2134662362741984
 10
-51.12254551654182
 20
-2.035940909005697
 30
0.0
 10
-51.15261610602226
 20
-2.032807873170092
 30
0.0
 10
-51.18257302913121
 20
-2.030018143614878
 30
0.0
 10
-51.37210579550335
 20
-2.014088371229408
 30
0.0
 10
-51.5283656249942
 20
-2.008357475600115
 30
0.0
 10
-51.83898518733201
 20
-2.001310342118704
 30
0.0
 10
-51.99525279764685
 20
-2.000280855108563
 30
0.0
 10
-52.14812200990587
 20
-2.000040667433792
 30
0.0
  0
LINE
  5
C5AA
330
C599
100
AcDbEntity
  8
0
100
AcDbLine
 10
-47.5
 20
-1.999999999999999
 30
0.0
 11
-45.5
 21
-1.999999999999997
 31
0.0
  0
LINE
  5
C5AB
330
C599
100
AcDbEntity
  8
0
100
AcDbLine
 10
-47.49999999999999
 20
-86.00000000000001
 30
0.0
 11
-45.49999999999998
 21
-86.00000000000001
 31
0.0
  0
LINE
  5
C5AC
330
C599
100
AcDbEntity
  8
0
100
AcDbLine
 10
45.50000000000001
 20
-1.999999999999997
 30
0.0
 11
-45.50000000000001
 21
-1.999999999999997
 31
0.0
  0
LINE
  5
C5AD
330
C599
100
AcDbEntity
  8
0
100
AcDbLine
 10
-45.49999999999998
 20
-86.00000000000001
 30
0.0
 11
45.49999999999998
 21
-86.00000000000001
 31
0.0
  0
CIRCLE
  5
C5AE
330
C599
100
AcDbEntity
  8
0
100
AcDbCircle
 10
0.0
 20
-47.99999999999998
 30
0.0
 40
2.5
  0
CIRCLE
  5
C5AF
330
C599
100
AcDbEntity
  8
0
100
AcDbCircle
 10
0.0
 20
-67.99999999999998
 30
0.0
 40
2.5
  0
LINE
  5
C5B0
330
C599
100
AcDbEntity
  8
0
100
AcDbLine
 10
47.5
 20
-1.999999999999999
 30
0.0
 11
45.5
 21
-1.999999999999997
 31
0.0
  0
LINE
  5
C5B1
330
C599
100
AcDbEntity
  8
0
100
AcDbLine
 10
51.5
 20
0.0
 30
0.0
 11
89.0
 21
0.0
 31
0.0
  0
ARC
  5
C5B2
330
C599
100
AcDbEntity
  8
0
100
AcDbCircle
 10
51.5
 20
-4.000000000000004
 30
0.0
 40
4.000000000000003
100
AcDbArc
 50
90.0
 51
180.0
  0
LINE
  5
C5B3
330
C599
100
AcDbEntity
  8
0
100
AcDbLine
 10
47.49999999999999
 20
-86.00000000000006
 30
0.0
 11
47.5
 21
-46.00000000000004
 31
0.0
  0
LINE
  5
C5B4
330
C599
100
AcDbEntity
  8
0
100
AcDbLine
 10
49.49999999999999
 20
-86.00000000000006
 30
0.0
 11
47.49999999999999
 21
-86.00000000000006
 31
0.0
  0
LINE
  5
C5B5
330
C599
100
AcDbEntity
  8
0
100
AcDbLine
 10
49.49999999999999
 20
-46.00000000000004
 30
0.0
 11
49.49999999999999
 21
-86.00000000000006
 31
0.0
  0
LINE
  5
C5B6
330
C599
100
AcDbEntity
  8
0
100
AcDbLine
 10
47.5
 20
-46.00000000000001
 30
0.0
 11
49.49999999999999
 21
-46.00000000000001
 31
0.0
  0
LINE
  5
C5B7
330
C599
100
AcDbEntity
  8
0
100
AcDbLine
 10
49.5
 20
-4.000000000000003
 30
0.0
 11
49.49999999999999
 21
-46.00000000000001
 31
0.0
  0
LINE
  5
C5B8
330
C599
100
AcDbEntity
  8
0
100
AcDbLine
 10
47.5
 20
-46.00000000000001
 30
0.0
 11
47.5
 21
-4.000000000000003
 31
0.0
  0
LINE
  5
C5B9
330
C599
100
AcDbEntity
  8
0
100
AcDbLine
 10
47.49999999999999
 20
-86.00000000000001
 30
0.0
 11
45.49999999999998
 21
-86.00000000000001
 31
0.0
  0
ARC
  5
C5BA
330
C599
100
AcDbEntity
  8
0
100
AcDbCircle
 10
51.5
 20
-4.000000000000004
 30
0.0
 40
2.000000000000001
100
AcDbArc
 50
90.0
 51
180.0
  0
LINE
  5
C5BB
330
C599
100
AcDbEntity
  8
0
100
AcDbLine
 10
89.0
 20
0.0
 30
0.0
 11
89.0
 21
-2.00000000000001
 31
0.0
  0
LINE
  5
C5BC
330
C599
100
AcDbEntity
  8
0
100
AcDbLine
 10
89.0
 20
-2.00000000000001
 30
0.0
 11
51.5
 21
-2.000000000000001
 31
0.0
  0
LINE
  5
C5BD
330
C599
100
AcDbEntity
  8
0
100
AcDbLine
 10
-89.0
 20
-2.00000000000001
 30
0.0
 11
-51.5
 21
-2.000000000000001
 31
0.0
  0
LINE
  5
C5BE
330
C599
100
AcDbEntity
  8
0
100
AcDbLine
 10
-47.5
 20
-46.00000000000001
 30
0.0
 11
-47.5
 21
-4.000000000000003
 31
0.0
  0
LINE
  5
C5BF
330
C599
100
AcDbEntity
  8
0
100
AcDbLine
 10
-49.5
 20
-4.000000000000003
 30
0.0
 11
-49.49999999999999
 21
-46.00000000000001
 31
0.0
  0
LINE
  5
C5C0
330
C599
100
AcDbEntity
  8
0
100
AcDbLine
 10
-51.5
 20
0.0
 30
0.0
 11
-89.0
 21
0.0
 31
0.0
  0
LINE
  5
C5C1
330
C599
100
AcDbEntity
  8
0
100
AcDbLine
 10
-89.0
 20
0.0
 30
0.0
 11
-89.0
 21
-2.00000000000001
 31
0.0
  0
ARC
  5
C5C2
330
C599
100
AcDbEntity
  8
0
100
AcDbCircle
 10
-51.5
 20
-4.000000000000004
 30
0.0
 40
2.000000000000001
100
AcDbArc
 50
0.0
 51
90.0
  0
ARC
  5
C5C3
330
C599
100
AcDbEntity
  8
0
100
AcDbCircle
 10
-51.5
 20
-4.000000000000004
 30
0.0
 40
4.000000000000003
100
AcDbArc
 50
0.0
 51
90.0
  0
LINE
  5
C5C4
330
C599
100
AcDbEntity
  8
0
100
AcDbLine
 10
-47.5
 20
-46.00000000000004
 30
0.0
 11
-47.49999999999999
 21
-86.00000000000006
 31
0.0
  0
LINE
  5
C5C5
330
C599
100
AcDbEntity
  8
0
100
AcDbLine
 10
-49.49999999999999
 20
-86.00000000000006
 30
0.0
 11
-49.49999999999999
 21
-46.00000000000004
 31
0.0
  0
LINE
  5
C5C6
330
C599
100
AcDbEntity
  8
0
100
AcDbLine
 10
-47.49999999999999
 20
-86.00000000000006
 30
0.0
 11
-49.49999999999999
 21
-86.00000000000006
 31
0.0
  0
LINE
  5
C5C7
330
C599
100
AcDbEntity
  8
0
100
AcDbLine
 10
-49.49999999999999
 20
-46.00000000000001
 30
0.0
 11
-47.5
 21
-46.00000000000001
 31
0.0
  0
ENDBLK
  5
C59B
330
C599
100
AcDbEntity
  8
0
100
AcDbBlockEnd
  0
BLOCK
  5
C5C9
330
C5C8
100
AcDbEntity
  8
0
100
AcDbBlockBegin
  2
SAE500_95_2-Bottom
 70
     0
 10
0.0
 20
0.0
 30
0.0
  3
SAE500_95_2-Bottom
  1

  0
SPLINE
  5
C5CB
330
C5C8
100
AcDbEntity
  8
0
100
AcDbSpline
210
0.0
220
0.0
230
1.0
 70
     8
 71
     3
 72
    17
 73
    13
 74
     0
 42
0.000000001
 43
0.0000000001
 40
0.0
 40
0.0
 40
0.0
 40
0.0
 40
0.3690626432184121
 40
0.3690626432184121
 40
0.3690626432184121
 40
0.6936378220004606
 40
0.6936378220004606
 40
0.6936378220004606
 40
0.9219545386459827
 40
0.9219545386459827
 40
0.9219545386459827
 40
1.0
 40
1.0
 40
1.0
 40
1.0
 10
52.16666666666675
 20
2.000000000000005
 30
0.0
 10
51.8108345827817
 20
2.000007003368936
 30
0.0
 10
51.35987304241748
 20
2.000476349918939
 30
0.0
 10
50.92414735818166
 20
1.999863204548939
 30
0.0
 10
50.54094481937288
 20
1.999323968807409
 30
0.0
 10
50.17697529433288
 20
1.999985049619729
 30
0.0
 10
49.91326214681965
 20
2.000261627960532
 30
0.0
 10
49.72775775858388
 20
2.000456182143339
 30
0.0
 10
49.58930240207248
 20
2.000333558699196
 30
0.0
 10
49.53081927694037
 20
2.000050547976826
 30
0.0
 10
49.51082800100832
 20
1.999953806473532
 30
0.0
 10
49.49999739290342
 20
2.000681435773389
 30
0.0
 10
49.50000000006099
 20
2.000000000000294
 30
0.0
  0
ARC
  5
C5CC
330
C5C8
100
AcDbEntity
  8
0
100
AcDbCircle
 10
51.5
 20
4.000000000000004
 30
0.0
 40
1.999999999999992
100
AcDbArc
 50
180.3113451085056
 51
259.1109222747458
  0
ARC
  5
C5CD
330
C5C8
100
AcDbEntity
  8
0
100
AcDbCircle
 10
51.5
 20
4.000000000000004
 30
0.0
 40
3.999999999999994
100
AcDbArc
 50
219.556954689743
 51
270.0
  0
LINE
  5
C5CE
330
C5C8
100
AcDbEntity
  8
0
100
AcDbLine
 10
52.16666666666675
 20
0.0
 30
0.0
 11
51.5
 21
0.0
 31
0.0
  0
SPLINE
  5
C5CF
330
C5C8
100
AcDbEntity
  8
0
100
AcDbSpline
210
0.0
220
0.0
230
1.0
 70
     8
 71
     3
 72
    17
 73
    13
 74
     0
 42
0.000000001
 43
0.0000000001
 40
-1.0
 40
-1.0
 40
-1.0
 40
-1.0
 40
-0.7906685194049055
 40
-0.7906685194049055
 40
-0.7906685194049055
 40
-0.3894646006008224
 40
-0.3894646006008224
 40
-0.3894646006008224
 40
-0.1064781870860935
 40
-0.1064781870860935
 40
-0.1064781870860935
 40
0.0
 40
0.0
 40
0.0
 40
0.0
 10
47.50000000000001
 20
2.000000000000174
 30
0.0
 10
47.50001668753109
 20
1.997223802219622
 30
0.0
 10
47.63599085877081
 20
1.911453463428635
 30
0.0
 10
47.86703800145616
 20
1.773190688156247
 30
0.0
 10
48.30986207555302
 20
1.508196779422052
 30
0.0
 10
49.09152709933625
 20
1.054549467666542
 30
0.0
 10
49.91619003858973
 20
0.6742949633965844
 30
0.0
 10
50.49786034787657
 20
0.4060850747520931
 30
0.0
 10
51.10765563811745
 20
0.1716897863640552
 30
0.0
 10
51.62324022301202
 20
0.0620429895170166
 30
0.0
 10
51.81723721109094
 20
0.0207866196331593
 30
0.0
 10
51.99879324341694
 20
0.0000165986139174
 30
0.0
 10
52.1666666666667
 20
0.0000000000000016
 30
0.0
  0
LINE
  5
C5D0
330
C5C8
100
AcDbEntity
  8
0
100
AcDbLine
 10
52.16666666666675
 20
2.000000000000005
 30
0.0
 11
52.16666666666675
 21
0.0
 31
0.0
  0
SPLINE
  5
C5D1
330
C5C8
100
AcDbEntity
  8
0
100
AcDbSpline
210
0.0
220
0.0
230
1.0
 70
     8
 71
     3
 72
    26
 73
    22
 74
     0
 42
0.000000001
 43
0.0000000001
 40
0.0712837232143321
 40
0.0712837232143321
 40
0.0712837232143321
 40
0.0712837232143321
 40
0.0717076577086511
 40
0.0717076577086511
 40
0.0726489099106229
 40
0.0726489099106229
 40
0.0735893606764277
 40
0.0735893606764277
 40
0.0754916084536164
 40
0.0754916084536164
 40
0.079271407589005
 40
0.079271407589005
 40
0.0831656048878757
 40
0.0831656048878757
 40
0.0925721114568177
 40
0.0925721114568177
 40
0.113193178164514
 40
0.113193178164514
 40
0.1628450128922617
 40
0.1628450128922617
 40
0.1918259878674101
 40
0.1918259878674101
 40
0.1918259878674101
 40
0.1918259878674101
 10
50.82135291138937
 20
2.081530384958957
 30
0.0
 10
50.82135291139977
 20
2.081530384956673
 30
0.0
 10
50.82143776426016
 20
2.081511760708488
 30
0.0
 10
50.82200842941201
 20
2.081387189838336
 30
0.0
 10
50.8228852370048
 20
2.08119624407608
 30
0.0
 10
50.82552935497085
 20
2.080627874403619
 30
0.0
 10
50.8273158562058
 20
2.080246573705296
 30
0.0
 10
50.83355971414007
 20
2.078930851312488
 30
0.0
 10
50.83895943297306
 20
2.077814842238409
 30
0.0
 10
50.85567041824418
 20
2.074452013469247
 30
0.0
 10
50.86805522396605
 20
2.072071219365294
 30
0.0
 10
50.89295054727354
 20
2.067505108290005
 30
0.0
 10
50.90577383159133
 20
2.065262229722354
 30
0.0
 10
50.94949786615519
 20
2.057948298546595
 30
0.0
 10
50.98055937878725
 20
2.053317460789121
 30
0.0
 10
51.07893830738504
 20
2.040049589197125
 30
0.0
 10
51.14602214397791
 20
2.033090157453133
 30
0.0
 10
51.37210579543666
 20
2.014088371233504
 30
0.0
 10
51.52836562490823
 20
2.008357475603229
 30
0.0
 10
51.77194938905206
 20
2.002831206467187
 30
0.0
 10
51.86152845243328
 20
2.001612352679079
 30
0.0
 10
51.95057516539418
 20
2.000890945945349
 30
0.0
  0
SPLINE
  5
C5D2
330
C5C8
100
AcDbEntity
  8
0
100
AcDbSpline
210
0.0
220
0.0
230
1.0
 70
     8
 71
     3
 72
    20
 73
    16
 74
     0
 42
0.000000001
 43
0.0000000001
 40
0.0
 40
0.0
 40
0.0
 40
0.0
 40
0.0056243718517252
 40
0.0056243718517252
 40
0.0088150404350669
 40
0.0088150404350669
 40
0.0117407488373265
 40
0.0117407488373265
 40
0.0143384412394459
 40
0.0143384412394459
 40
0.0172331020000036
 40
0.0172331020000036
 40
0.0203288171314608
 40
0.0203288171314608
 40
0.0219031273714674
 40
0.0219031273714674
 40
0.0219031273714674
 40
0.0219031273714674
 10
49.50005195606983
 20
3.999998939803048
 30
0.0
 10
49.50011395536812
 20
3.983317983389352
 30
0.0
 10
49.50024716986995
 20
3.96578325772724
 30
0.0
 10
49.50063173532441
 20
3.936931555057152
 30
0.0
 10
49.50081239926995
 20
3.925980405667429
 30
0.0
 10
49.50121559335499
 20
3.905856418239626
 30
0.0
 10
49.50143788656676
 20
3.896387911596099
 30
0.0
 10
49.50186079249006
 20
3.880398465760475
 30
0.0
 10
49.50206547775586
 20
3.873465907565639
 30
0.0
 10
49.50246729829181
 20
3.860788815110529
 30
0.0
 10
49.50266528242857
 20
3.855119553593813
 30
0.0
 10
49.50299226416793
 20
3.846155460745933
 30
0.0
 10
49.50311860295602
 20
3.842949888991121
 30
0.0
 10
49.50321395522893
 20
3.84054985936926
 30
0.0
 10
49.50323057408168
 20
3.840140828037523
 30
0.0
 10
49.50323057368212
 20
3.840140837909672
 30
0.0
  0
CIRCLE
  5
C5D3
330
C5C8
100
AcDbEntity
  8
0
100
AcDbCircle
 10
0.0
 20
67.99999999999998
 30
0.0
 40
2.5
  0
CIRCLE
  5
C5D4
330
C5C8
100
AcDbEntity
  8
0
100
AcDbCircle
 10
0.0
 20
47.99999999999998
 30
0.0
 40
2.5
  0
LINE
  5
C5D5
330
C5C8
100
AcDbEntity
  8
0
100
AcDbLine
 10
45.50000000000001
 20
1.999999999999997
 30
0.0
 11
-45.50000000000001
 21
1.999999999999997
 31
0.0
  0
LINE
  5
C5D6
330
C5C8
100
AcDbEntity
  8
0
100
AcDbLine
 10
45.49999999999998
 20
86.00000000000001
 30
0.0
 11
-45.49999999999998
 21
86.00000000000001
 31
0.0
  0
SPLINE
  5
C5D7
330
C5C8
100
AcDbEntity
  8
0
100
AcDbSpline
210
0.0
220
0.0
230
1.0
 70
     8
 71
     3
 72
    17
 73
    13
 74
     0
 42
0.000000001
 43
0.0000000001
 40
-1.0
 40
-1.0
 40
-1.0
 40
-1.0
 40
-0.7906685194049055
 40
-0.7906685194049055
 40
-0.7906685194049055
 40
-0.3894646006008224
 40
-0.3894646006008224
 40
-0.3894646006008224
 40
-0.1064781870860935
 40
-0.1064781870860935
 40
-0.1064781870860935
 40
0.0
 40
0.0
 40
0.0
 40
0.0
 10
-47.50000000000001
 20
2.000000000000174
 30
0.0
 10
-47.50001668753109
 20
1.997223802219622
 30
0.0
 10
-47.63599085877081
 20
1.911453463428635
 30
0.0
 10
-47.86703800145616
 20
1.773190688156247
 30
0.0
 10
-48.30986207555302
 20
1.508196779422052
 30
0.0
 10
-49.09152709933625
 20
1.054549467666542
 30
0.0
 10
-49.91619003858973
 20
0.6742949633965844
 30
0.0
 10
-50.49786034787657
 20
0.4060850747520931
 30
0.0
 10
-51.10765563811745
 20
0.1716897863640552
 30
0.0
 10
-51.62324022301202
 20
0.0620429895170166
 30
0.0
 10
-51.81723721109094
 20
0.0207866196331593
 30
0.0
 10
-51.99879324341694
 20
0.0000165986139174
 30
0.0
 10
-52.1666666666667
 20
0.0000000000000016
 30
0.0
  0
LINE
  5
C5D8
330
C5C8
100
AcDbEntity
  8
0
100
AcDbLine
 10
-51.5
 20
0.0
 30
0.0
 11
-52.16666666666675
 21
0.0
 31
0.0
  0
ARC
  5
C5D9
330
C5C8
100
AcDbEntity
  8
0
100
AcDbCircle
 10
-51.5
 20
4.000000000000004
 30
0.0
 40
3.999999999999994
100
AcDbArc
 50
270.0
 51
320.4430453102571
  0
ARC
  5
C5DA
330
C5C8
100
AcDbEntity
  8
0
100
AcDbCircle
 10
-51.5
 20
4.000000000000004
 30
0.0
 40
1.999999999999992
100
AcDbArc
 50
280.8890777252744
 51
359.68889619876
  0
SPLINE
  5
C5DB
330
C5C8
100
AcDbEntity
  8
0
100
AcDbSpline
210
0.0
220
0.0
230
1.0
 70
     8
 71
     3
 72
    17
 73
    13
 74
     0
 42
0.000000001
 43
0.0000000001
 40
0.0
 40
0.0
 40
0.0
 40
0.0
 40
0.3690626432184121
 40
0.3690626432184121
 40
0.3690626432184121
 40
0.6936378220004606
 40
0.6936378220004606
 40
0.6936378220004606
 40
0.9219545386459827
 40
0.9219545386459827
 40
0.9219545386459827
 40
1.0
 40
1.0
 40
1.0
 40
1.0
 10
-52.16666666666675
 20
2.000000000000005
 30
0.0
 10
-51.8108345827817
 20
2.000007003368936
 30
0.0
 10
-51.35987304241748
 20
2.000476349918939
 30
0.0
 10
-50.92414735818166
 20
1.999863204548939
 30
0.0
 10
-50.54094481937288
 20
1.999323968807409
 30
0.0
 10
-50.17697529433288
 20
1.999985049619729
 30
0.0
 10
-49.91326214681965
 20
2.000261627960532
 30
0.0
 10
-49.72775775858388
 20
2.000456182143339
 30
0.0
 10
-49.58930240207248
 20
2.000333558699196
 30
0.0
 10
-49.53081927694037
 20
2.000050547976826
 30
0.0
 10
-49.51082800100832
 20
1.999953806473532
 30
0.0
 10
-49.49999739290342
 20
2.000681435773389
 30
0.0
 10
-49.50000000006099
 20
2.000000000000294
 30
0.0
  0
LINE
  5
C5DC
330
C5C8
100
AcDbEntity
  8
0
100
AcDbLine
 10
-52.16666666666675
 20
0.0
 30
0.0
 11
-52.16666666666675
 21
2.000000000000005
 31
0.0
  0
SPLINE
  5
C5DD
330
C5C8
100
AcDbEntity
  8
0
100
AcDbSpline
210
0.0
220
0.0
230
1.0
 70
     8
 71
     3
 72
    24
 73
    20
 74
     0
 42
0.000000001
 43
0.0000000001
 40
0.0357062742810325
 40
0.0357062742810325
 40
0.0357062742810325
 40
0.0357062742810325
 40
0.0364933593121593
 40
0.0364933593121593
 40
0.0388980868983904
 40
0.0388980868983904
 40
0.0413035514904382
 40
0.0413035514904382
 40
0.0437099673937207
 40
0.0437099673937207
 40
0.0461188735657278
 40
0.0461188735657278
 40
0.0485323836307861
 40
0.0485323836307861
 40
0.0505918618047492
 40
0.0505918618047492
 40
0.0540210899561698
 40
0.0540210899561698
 40
0.057643547530051
 40
0.057643547530051
 40
0.057643547530051
 40
0.057643547530051
 10
-49.50323057368215
 20
3.840140837909123
 30
0.0
 10
-49.50323057364828
 20
3.84014083874589
 30
0.0
 10
-49.50322647393619
 20
3.840242034043082
 30
0.0
 10
-49.50319360757415
 20
3.841059926717973
 30
0.0
 10
-49.50313035097817
 20
3.842635082940671
 30
0.0
 10
-49.50293968949238
 20
3.847611580874334
 30
0.0
 10
-49.50281104988038
 20
3.851049605742253
 30
0.0
 10
-49.50251220628026
 20
3.859559758565841
 30
0.0
 10
-49.50233995126315
 20
3.864696446864955
 30
0.0
 10
-49.50198078319488
 20
3.876326350876814
 30
0.0
 10
-49.50179094184544
 20
3.882923236996506
 30
0.0
 10
-49.50142321241035
 20
3.897099362284217
 30
0.0
 10
-49.50124190258323
 20
3.904827797430552
 30
0.0
 10
-49.50093988641498
 20
3.919453025695583
 30
0.0
 10
-49.50081199186637
 20
3.926405352065676
 30
0.0
 10
-49.50051579853542
 20
3.944675580691167
 30
0.0
 10
-49.5003736955595
 20
3.956015476331997
 30
0.0
 10
-49.50016118877756
 20
3.978224685949495
 30
0.0
 10
-49.50009188760951
 20
3.989255329939964
 30
0.0
 10
-49.50005195606984
 20
3.999998939803049
 30
0.0
  0
SPLINE
  5
C5DE
330
C5C8
100
AcDbEntity
  8
0
100
AcDbSpline
210
0.0
220
0.0
230
1.0
 70
     8
 71
     3
 72
    26
 73
    22
 74
     0
 42
0.000000001
 43
0.0000000001
 40
0.0216354149201235
 40
0.0216354149201235
 40
0.0216354149201235
 40
0.0216354149201235
 40
0.0708400271194079
 40
0.0708400271194079
 40
0.1241856021502573
 40
0.1241856021502573
 40
0.1319856866036656
 40
0.1319856866036656
 40
0.1353053858928118
 40
0.1353053858928118
 40
0.1386554211327766
 40
0.1386554211327766
 40
0.1394865276360396
 40
0.1394865276360396
 40
0.140320066166268
 40
0.140320066166268
 40
0.1411562188226404
 40
0.1411562188226404
 40
0.1419923018210703
 40
0.1419923018210703
 40
0.1420884957184421
 40
0.1420884957184421
 40
0.1420884957184421
 40
0.1420884957184421
 10
-51.950575165394
 20
2.00089094594535
 30
0.0
 10
-51.79932638441997
 20
2.002116279092809
 30
0.0
 10
-51.64747013241441
 20
2.004483709347078
 30
0.0
 10
-51.32578100956337
 20
2.017385190771086
 30
0.0
 10
-51.15321496093038
 20
2.028318655099434
 30
0.0
 10
-50.95235789545497
 20
2.057575292645701
 30
0.0
 10
-50.92654090386215
 20
2.061667902580267
 30
0.0
 10
-50.89009960982193
 20
2.068024293178869
 30
0.0
 10
-50.87921848696132
 20
2.069997457557191
 30
0.0
 10
-50.85785810450396
 20
2.074031701501024
 30
0.0
 10
-50.84701003408818
 20
2.076171777387388
 30
0.0
 10
-50.83555893415821
 20
2.078521094735799
 30
0.0
 10
-50.8333846534833
 20
2.078972026099456
 30
0.0
 10
-50.82942795406655
 20
2.079800138061088
 30
0.0
 10
-50.82762783297583
 20
2.080181076101453
 30
0.0
 10
-50.82465232625428
 20
2.080815535274
 30
0.0
 10
-50.82346197624123
 20
2.081072172163449
 30
0.0
 10
-50.82186453177367
 20
2.081418229369832
 30
0.0
 10
-50.82144194669325
 20
2.081510869870562
 30
0.0
 10
-50.82135722778847
 20
2.081529437910813
 30
0.0
 10
-50.82135291141444
 20
2.08153038495346
 30
0.0
 10
-50.82135291138975
 20
2.081530384958877
 30
0.0
  0
LINE
  5
C5DF
330
C5C8
100
AcDbEntity
  8
0
100
AcDbLine
 10
-49.50000000000001
 20
2.000000000000002
 30
0.0
 11
-45.5
 21
1.999999999999997
 31
0.0
  0
LINE
  5
C5E0
330
C5C8
100
AcDbEntity
  8
0
100
AcDbLine
 10
-45.49999999999998
 20
86.00000000000001
 30
0.0
 11
-49.49999999999999
 21
86.00000000000001
 31
0.0
  0
LINE
  5
C5E1
330
C5C8
100
AcDbEntity
  8
0
100
AcDbLine
 10
-49.5
 20
2.000000000000002
 30
0.0
 11
-49.49999999999999
 21
86.00000000000001
 31
0.0
  0
LINE
  5
C5E2
330
C5C8
100
AcDbEntity
  8
0
100
AcDbLine
 10
49.50000000000001
 20
2.000000000000002
 30
0.0
 11
45.5
 21
1.999999999999997
 31
0.0
  0
LINE
  5
C5E3
330
C5C8
100
AcDbEntity
  8
0
100
AcDbLine
 10
49.5
 20
2.000000000000002
 30
0.0
 11
49.49999999999999
 21
86.00000000000001
 31
0.0
  0
LINE
  5
C5E4
330
C5C8
100
AcDbEntity
  8
0
100
AcDbLine
 10
45.49999999999998
 20
86.00000000000001
 30
0.0
 11
49.49999999999999
 21
86.00000000000001
 31
0.0
  0
LINE
  5
C5E5
330
C5C8
100
AcDbEntity
  8
0
100
AcDbLine
 10
89.00000000000003
 20
0.0
 30
0.0
 11
52.16666666666674
 21
0.0
 31
0.0
  0
LINE
  5
C5E6
330
C5C8
100
AcDbEntity
  8
0
100
AcDbLine
 10
89.00000000000003
 20
1.999999999999992
 30
0.0
 11
89.00000000000003
 21
0.0
 31
0.0
  0
LINE
  5
C5E7
330
C5C8
100
AcDbEntity
  8
0
100
AcDbLine
 10
52.16666666666674
 20
2.000000000000005
 30
0.0
 11
89.00000000000003
 21
1.999999999999992
 31
0.0
  0
LINE
  5
C5E8
330
C5C8
100
AcDbEntity
  8
0
100
AcDbLine
 10
-89.00000000000003
 20
1.999999999999992
 30
0.0
 11
-52.16666666666674
 21
2.000000000000005
 31
0.0
  0
LINE
  5
C5E9
330
C5C8
100
AcDbEntity
  8
0
100
AcDbLine
 10
-89.00000000000003
 20
0.0
 30
0.0
 11
-89.00000000000003
 21
1.999999999999992
 31
0.0
  0
LINE
  5
C5EA
330
C5C8
100
AcDbEntity
  8
0
100
AcDbLine
 10
-52.16666666666674
 20
0.0
 30
0.0
 11
-89.00000000000003
 21
0.0
 31
0.0
  0
ENDBLK
  5
C5CA
330
C5C8
100
AcDbEntity
  8
0
100
AcDbBlockEnd
  0
BLOCK
  5
C5EC
330
C5EB
100
AcDbEntity
  8
0
100
AcDbBlockBegin
  2
SAE500_95_2-ISO
 70
     0
 10
0.0
 20
0.0
 30
0.0
  3
SAE500_95_2-ISO
  1

  0
LINE
  5
C5EE
330
C5EB
100
AcDbEntity
  8
0
100
AcDbLine
 10
63.97934436650766
 20
-72.67617429696827
 30
0.0
 11
62.56513080413457
 21
-73.49267087789598
 31
0.0
  0
SPLINE
  5
C5EF
330
C5EB
100
AcDbEntity
  8
0
100
AcDbSpline
210
0.0
220
0.0
230
1.0
 70
     8
 71
     3
 72
    17
 73
    13
 74
     0
 42
0.000000001
 43
0.0000000001
 40
0.0
 40
0.0
 40
0.0
 40
0.0
 40
0.3690626432184121
 40
0.3690626432184121
 40
0.3690626432184121
 40
0.6936378220004606
 40
0.6936378220004606
 40
0.6936378220004606
 40
0.9219545386459827
 40
0.9219545386459827
 40
0.9219545386459827
 40
1.0
 40
1.0
 40
1.0
 40
1.0
 10
65.86496244967185
 20
-71.82565702516862
 30
0.0
 10
65.61334621806333
 20
-71.89535815532548
 30
0.0
 10
65.29413637668921
 20
-71.87800372780024
 30
0.0
 10
64.9864653498779
 20
-71.88088870411447
 30
0.0
 10
64.71588153336781
 20
-71.88342592027594
 30
0.0
 10
64.45804875934147
 20
-71.90452931859811
 30
0.0
 10
64.2713798340265
 20
-72.02191539053673
 30
0.0
 10
64.14007085258316
 20
-72.10448856395531
 30
0.0
 10
64.04225483897123
 20
-72.23949352828798
 30
0.0
 10
64.00110114340627
 20
-72.44007693002522
 30
0.0
 10
63.98703358320315
 20
-72.5086423174333
 30
0.0
 10
63.97886067515568
 20
-72.5816316934677
 30
0.0
 10
63.97934436655058
 20
-72.67617429698555
 30
0.0
  0
LINE
  5
C5F0
330
C5EB
100
AcDbEntity
  8
0
100
AcDbLine
 10
65.81929217905795
 20
-71.7992892821357
 30
0.0
 11
65.86496244967183
 21
-71.8256570251686
 31
0.0
  0
LINE
  5
C5F1
330
C5EB
100
AcDbEntity
  8
0
100
AcDbLine
 10
65.39355792888075
 20
-71.55349149819265
 30
0.0
 11
65.81929217905795
 21
-71.7992892821357
 31
0.0
  0
ELLIPSE
  5
C5F2
330
C5EB
100
AcDbEntity
  8
0
100
AcDbEllipse
 10
63.97934436650766
 20
-72.36998807912037
 30
0.0
 11
1.999999999999992
 21
0.0000000000000001
 31
0.0
210
0.0
220
0.0
230
1.0
 40
0.5773502691896257
 41
0.7853981633974536
 42
0.8276340031823332
  0
ELLIPSE
  5
C5F3
330
C5EB
100
AcDbEntity
  8
0
100
AcDbEllipse
 10
63.97934436650766
 20
-72.36998807912037
 30
0.0
 11
1.999999999999992
 21
-0.0000000000001196
 31
0.0
210
0.0
220
0.0
230
1.0
 40
0.5773502691896257
 41
0.8276340031825606
 42
2.356194490192603
  0
LINE
  5
C5F4
330
C5EB
100
AcDbEntity
  8
0
100
AcDbLine
 10
62.56513080413456
 20
-73.49267087789598
 30
0.0
 11
62.56513080413456
 21
-71.55349149819265
 31
0.0
  0
ELLIPSE
  5
C5F5
330
C5EB
100
AcDbEntity
  8
0
100
AcDbEllipse
 10
-17.69148886053856
 20
-93.70096125585721
 30
0.0
 11
-2.5
 21
-0.000000000000149
 31
0.0
210
0.0
220
0.0
230
1.0
 40
0.5773502691896259
 41
3.742856870268575
 42
5.68192109050012
  0
ELLIPSE
  5
C5F6
330
C5EB
100
AcDbEntity
  8
0
100
AcDbEllipse
 10
-3.549353236807615
 20
-85.53599544657997
 30
0.0
 11
-2.5
 21
-0.000000000000149
 31
0.0
210
0.0
220
0.0
230
1.0
 40
0.5773502691896259
 41
3.742856870268575
 42
5.68192109050012
  0
LINE
  5
C5F7
330
C5EB
100
AcDbEntity
  8
0
100
AcDbLine
 10
1.753947622091458
 20
-119.6247277003125
 30
0.0
 11
-62.59276946588435
 21
-82.47413326810098
 31
0.0
  0
LINE
  5
C5F8
330
C5EB
100
AcDbEntity
  8
0
100
AcDbLine
 10
-4.610013408587461
 20
-33.07609012197354
 30
0.0
 11
-4.610013408587452
 21
-44.09879396449785
 31
0.0
  0
LINE
  5
C5F9
330
C5EB
100
AcDbEntity
  8
0
100
AcDbLine
 10
30.84634090519515
 20
-66.20252283389844
 30
0.0
 11
-3.195799846214364
 21
-46.54828370728103
 31
0.0
  0
LINE
  5
C5FA
330
C5EB
100
AcDbEntity
  8
0
100
AcDbLine
 10
-62.59276946588435
 20
-80.84114010624553
 30
0.0
 11
1.753947622091462
 21
-117.9917345384571
 31
0.0
  0
ELLIPSE
  5
C5FB
330
C5EB
100
AcDbEntity
  8
0
100
AcDbEllipse
 10
-3.549353236807615
 20
-83.90300228472449
 30
0.0
 11
-2.5
 21
0.0000000000001492
 31
0.0
210
0.0
220
0.0
230
1.0
 40
0.5773502691896258
 41
0.0
 42
6.283185307179586
  0
ELLIPSE
  5
C5FC
330
C5EB
100
AcDbEntity
  8
0
100
AcDbEllipse
 10
-17.69148886053856
 20
-92.06796809400175
 30
0.0
 11
-2.5
 21
0.0000000000001492
 31
0.0
210
0.0
220
0.0
230
1.0
 40
0.5773502691896258
 41
0.0
 42
6.283185307179586
  0
LINE
  5
C5FD
330
C5EB
100
AcDbEntity
  8
0
100
AcDbLine
 10
-4.610013408587461
 20
-33.07609012197354
 30
0.0
 11
-6.024226970960557
 21
-33.89258670290127
 31
0.0
  0
SPLINE
  5
C5FE
330
C5EB
100
AcDbEntity
  8
0
100
AcDbSpline
210
0.0
220
0.0
230
1.0
 70
     8
 71
     3
 72
    11
 73
     7
 74
     0
 42
0.000000001
 43
0.0000000001
 40
-1.0
 40
-1.0
 40
-1.0
 40
-1.0
 40
-0.7906685194049055
 40
-0.7906685194049055
 40
-0.7906685194049055
 40
-0.6677363489855232
 40
-0.6677363489855232
 40
-0.6677363489855232
 40
-0.6677363489855232
 10
-4.610013408587585
 20
-33.0760901219736
 30
0.0
 10
-4.608062140177424
 20
-32.67517397183888
 30
0.0
 10
-4.64356161054348
 20
-32.28925879744175
 30
0.0
 10
-4.709170065929293
 20
-31.94095014004985
 30
0.0
 10
-4.747699339192505
 20
-31.73640212315663
 30
0.0
 10
-4.796199175666706
 20
-31.54054314199358
 30
0.0
 10
-4.85398209223486
 20
-31.35093927371589
 30
0.0
  0
ELLIPSE
  5
C5FF
330
C5EB
100
AcDbEntity
  8
0
100
AcDbEllipse
 10
-8.852654095706743
 20
-30.32041416134248
 30
0.0
 11
3.999999999999994
 21
0.0000000000000003
 31
0.0
210
0.0
220
0.0
230
1.0
 40
0.5773502691896259
 41
6.081788027125054
 42
6.283185307179586
  0
ELLIPSE
  5
C600
330
C5EB
100
AcDbEntity
  8
0
100
AcDbEllipse
 10
-8.852654095706743
 20
-30.32041416134248
 30
0.0
 11
3.999999999999994
 21
0.0000000000000001
 31
0.0
210
0.0
220
0.0
230
1.0
 40
0.5773502691896258
 41
5.49778714378213
 42
6.081788027125054
  0
LINE
  5
C601
330
C5EB
100
AcDbEntity
  8
0
100
AcDbLine
 10
-6.024226970960548
 20
-31.95340732319794
 30
0.0
 11
-6.024226970960548
 21
-33.89258670290128
 31
0.0
  0
SPLINE
  5
C602
330
C5EB
100
AcDbEntity
  8
0
100
AcDbSpline
210
0.0
220
0.0
230
1.0
 70
     8
 71
     3
 72
    16
 73
    12
 74
     0
 42
0.000000001
 43
0.0000000001
 40
0.0
 40
0.0
 40
0.0
 40
0.0
 40
0.0282630965261406
 40
0.0282630965261406
 40
0.0461467009554994
 40
0.0461467009554994
 40
0.068925008751217
 40
0.068925008751217
 40
0.0923109242192084
 40
0.0923109242192084
 40
0.1011501675641538
 40
0.1011501675641538
 40
0.1011501675641538
 40
0.1011501675641538
 10
-4.864955471900924
 20
-30.50140221087777
 30
0.0
 10
-4.877656728182961
 20
-30.59468707565515
 30
0.0
 10
-4.889532562079854
 20
-30.6896547147729
 30
0.0
 10
-4.901989341666141
 20
-30.83956652022559
 30
0.0
 10
-4.90509647106025
 20
-30.89695665490078
 30
0.0
 10
-4.906755444613448
 20
-31.01871805972371
 30
0.0
 10
-4.903794861533654
 20
-31.08151335738301
 30
0.0
 10
-4.891326835085267
 20
-31.19384798504941
 30
0.0
 10
-4.881848838413334
 20
-31.24439431342481
 30
0.0
 10
-4.864285022330521
 20
-31.31351924268644
 30
0.0
 10
-4.858959254978234
 20
-31.33252320620613
 30
0.0
 10
-4.853030934022233
 20
-31.35195876932889
 30
0.0
  0
ELLIPSE
  5
C603
330
C5EB
100
AcDbEntity
  8
0
100
AcDbEllipse
 10
-3.195799846214359
 20
-44.91529054542557
 30
0.0
 11
1.000000000000105
 21
-1.732050807568816
 31
0.0
210
0.0
220
0.0
230
1.0
 40
0.5773502691896264
 41
3.926990816987
 42
5.497787143781893
  0
LINE
  5
C604
330
C5EB
100
AcDbEntity
  8
0
100
AcDbLine
 10
-3.195799846214364
 20
-46.54828370728103
 30
0.0
 11
-62.59276946588435
 21
-80.84114010624553
 31
0.0
  0
ELLIPSE
  5
C605
330
C5EB
100
AcDbEntity
  8
0
100
AcDbEllipse
 10
-62.59276946588435
 20
-79.20814694439008
 30
0.0
 11
2.000000000000208
 21
-3.464101615137638
 31
0.0
210
0.0
220
0.0
230
1.0
 40
0.5773502691896258
 41
3.926990816986997
 42
5.497787143781893
  0
LINE
  5
C606
330
C5EB
100
AcDbEntity
  8
0
100
AcDbLine
 10
-64.00698302825745
 20
-78.39165036346236
 30
0.0
 11
-4.610013408587443
 21
-44.09879396449785
 31
0.0
  0
LINE
  5
C607
330
C5EB
100
AcDbEntity
  8
0
100
AcDbLine
 10
-65.42119659063054
 20
-77.57515378253464
 30
0.0
 11
-64.00698302825745
 21
-78.39165036346236
 31
0.0
  0
LINE
  5
C608
330
C5EB
100
AcDbEntity
  8
0
100
AcDbLine
 10
-62.59276946588435
 20
-82.47413326810098
 30
0.0
 11
-62.59276946588435
 21
-80.84114010624553
 31
0.0
  0
ELLIPSE
  5
C609
330
C5EB
100
AcDbEntity
  8
0
100
AcDbEllipse
 10
-62.59276946588435
 20
-79.20814694439008
 30
0.0
 11
1.000000000000104
 21
-1.732050807568819
 31
0.0
210
0.0
220
0.0
230
1.0
 40
0.5773502691896258
 41
3.926990816986997
 42
5.497787143781896
  0
LINE
  5
C60A
330
C5EB
100
AcDbEntity
  8
0
100
AcDbLine
 10
63.97934436650766
 20
-83.69887813949256
 30
0.0
 11
63.97934436650766
 21
-72.67617429696827
 31
0.0
  0
ELLIPSE
  5
C60B
330
C5EB
100
AcDbEntity
  8
0
100
AcDbEllipse
 10
61.15091724176147
 20
-82.06588497763712
 30
0.0
 11
2.0
 21
-3.464101615137754
 31
0.0
210
0.0
220
0.0
230
1.0
 40
0.5773502691896251
 41
0.0
 42
0.7853981633974394
  0
LINE
  5
C60C
330
C5EB
100
AcDbEntity
  8
0
100
AcDbLine
 10
1.753947622091458
 20
-117.9917345384571
 30
0.0
 11
3.16816118446455
 21
-117.1752379575293
 31
0.0
  0
LINE
  5
C60D
330
C5EB
100
AcDbEntity
  8
0
100
AcDbLine
 10
63.97934436650766
 20
-83.69887813949256
 30
0.0
 11
4.582374746837647
 21
-117.9917345384571
 31
0.0
  0
ELLIPSE
  5
C60E
330
C5EB
100
AcDbEntity
  8
0
100
AcDbEllipse
 10
1.753947622091458
 20
-116.3587413766016
 30
0.0
 11
2.000000000000002
 21
-3.464101615137759
 31
0.0
210
0.0
220
0.0
230
1.0
 40
0.5773502691896258
 41
5.497787143782137
 42
7.068583470577033
  0
LINE
  5
C60F
330
C5EB
100
AcDbEntity
  8
0
100
AcDbLine
 10
91.91006222337632
 20
-64.30708434245912
 30
0.0
 11
93.32427578574939
 21
-63.49058776153137
 31
0.0
  0
LINE
  5
C610
330
C5EB
100
AcDbEntity
  8
0
100
AcDbLine
 10
65.86496244967183
 20
-71.82565702516858
 30
0.0
 11
91.91006222337632
 21
-64.30708434245912
 31
0.0
  0
ELLIPSE
  5
C611
330
C5EB
100
AcDbEntity
  8
0
100
AcDbEllipse
 10
79.5356935526117
 20
56.33028548961245
 30
0.0
 11
-3.249999999999998
 21
5.629165124598853
 31
0.0
210
0.0
220
0.0
230
1.0
 40
0.5773502691896258
 41
0.219325486300596
 42
2.922267167289193
  0
ELLIPSE
  5
C612
330
C5EB
100
AcDbEntity
  8
0
100
AcDbEllipse
 10
87.31386814566375
 20
55.92203719914857
 30
0.0
 11
1.250000000000129
 21
-2.165063509461022
 31
0.0
210
0.0
220
0.0
230
1.0
 40
0.5773502691896258
 41
3.742856870268601
 42
5.681921090500121
  0
LINE
  5
C613
330
C5EB
100
AcDbEntity
  8
0
100
AcDbLine
 10
66.80777149125384
 20
80.00868633651649
 30
0.0
 11
93.32427578574938
 21
64.69937544412161
 31
0.0
  0
LINE
  5
C614
330
C5EB
100
AcDbEntity
  8
0
100
AcDbLine
 10
93.32427578574939
 20
-63.49058776153137
 30
0.0
 11
93.32427578574938
 21
64.69937544412161
 31
0.0
  0
ELLIPSE
  5
C615
330
C5EB
100
AcDbEntity
  8
0
100
AcDbEllipse
 10
63.97934436650766
 20
78.37569317466104
 30
0.0
 11
4.000000000000003
 21
-0.0000000000002381
 31
0.0
210
0.0
220
0.0
230
1.0
 40
0.5773502691896259
 41
0.7853981633976881
 42
2.356194490192583
  0
ELLIPSE
  5
C616
330
C5EB
100
AcDbEntity
  8
0
100
AcDbEllipse
 10
36.75573329082555
 20
53.67667160159733
 30
0.0
 11
1.249999999999871
 21
2.16506350946117
 31
0.0
210
0.0
220
0.0
230
1.0
 40
0.577350269189626
 41
3.742856870268578
 42
5.681921090500104
  0
ELLIPSE
  5
C617
330
C5EB
100
AcDbEntity
  8
0
100
AcDbEllipse
 10
38.16994685319865
 20
52.8601750206696
 30
0.0
 11
-1.25
 21
-2.165063509461096
 31
0.0
210
0.0
220
0.0
230
1.0
 40
0.577350269189626
 41
0.0
 42
6.283185307179586
  0
LINE
  5
C618
330
C5EB
100
AcDbEntity
  8
0
100
AcDbLine
 10
3.168161184464524
 20
-106.152534115005
 30
0.0
 11
31.45243243192645
 21
-65.32770506861878
 31
0.0
  0
LINE
  5
C619
330
C5EB
100
AcDbEntity
  8
0
100
AcDbLine
 10
4.58237474683762
 20
-106.9690306959327
 30
0.0
 11
3.168161184464524
 21
-106.152534115005
 31
0.0
  0
LINE
  5
C61A
330
C5EB
100
AcDbEntity
  8
0
100
AcDbLine
 10
32.86664599429954
 20
-66.1442016495465
 30
0.0
 11
4.58237474683762
 21
-106.9690306959327
 31
0.0
  0
LINE
  5
C61B
330
C5EB
100
AcDbEntity
  8
0
100
AcDbLine
 10
32.86664599429954
 20
-66.1442016495465
 30
0.0
 11
31.45243243192645
 21
-65.32770506861878
 31
0.0
  0
LINE
  5
C61C
330
C5EB
100
AcDbEntity
  8
0
100
AcDbLine
 10
31.45243243192645
 20
-65.32770506861878
 30
0.0
 11
31.45243243192646
 21
62.86225813703424
 31
0.0
  0
LINE
  5
C61D
330
C5EB
100
AcDbEntity
  8
0
100
AcDbLine
 10
32.86664599429955
 20
62.04576155610651
 30
0.0
 11
32.86664599429954
 21
-66.1442016495465
 31
0.0
  0
LINE
  5
C61E
330
C5EB
100
AcDbEntity
  8
0
100
AcDbLine
 10
31.45243243192646
 20
62.86225813703424
 30
0.0
 11
32.86664599429955
 21
62.04576155610651
 31
0.0
  0
LINE
  5
C61F
330
C5EB
100
AcDbEntity
  8
0
100
AcDbLine
 10
4.58237474683762
 20
-106.9690306959327
 30
0.0
 11
4.582374746837651
 21
-117.9917345384571
 31
0.0
  0
LINE
  5
C620
330
C5EB
100
AcDbEntity
  8
0
100
AcDbLine
 10
62.56513080413456
 20
-71.55349149819265
 30
0.0
 11
62.56513080413456
 21
79.19218975558877
 31
0.0
  0
LINE
  5
C621
330
C5EB
100
AcDbEntity
  8
0
100
AcDbLine
 10
62.56513080413456
 20
79.19218975558877
 30
0.0
 11
32.86664599429955
 21
62.04576155610651
 31
0.0
  0
LINE
  5
C622
330
C5EB
100
AcDbEntity
  8
0
100
AcDbLine
 10
31.45243243192646
 20
62.86225813703424
 30
0.0
 11
61.15091724176146
 21
80.00868633651649
 31
0.0
  0
LINE
  5
C623
330
C5EB
100
AcDbEntity
  8
0
100
AcDbLine
 10
3.16816118446455
 20
-117.1752379575293
 30
0.0
 11
3.168161184464524
 21
-106.152534115005
 31
0.0
  0
LINE
  5
C624
330
C5EB
100
AcDbEntity
  8
0
100
AcDbLine
 10
1.753947622091458
 20
-117.9917345384571
 30
0.0
 11
1.753947622091458
 21
-119.6247277003125
 31
0.0
  0
LINE
  5
C625
330
C5EB
100
AcDbEntity
  8
0
100
AcDbLine
 10
3.16816118446455
 20
-117.1752379575293
 30
0.0
 11
4.582374746837651
 21
-117.9917345384571
 31
0.0
  0
ELLIPSE
  5
C626
330
C5EB
100
AcDbEntity
  8
0
100
AcDbEllipse
 10
1.753947622091458
 20
-116.3587413766016
 30
0.0
 11
1.000000000000001
 21
-1.732050807568879
 31
0.0
210
0.0
220
0.0
230
1.0
 40
0.5773502691896258
 41
5.497787143782142
 42
7.068583470577038
  0
LINE
  5
C627
330
C5EB
100
AcDbEntity
  8
0
100
AcDbLine
 10
65.39355792888075
 20
-71.55349149819265
 30
0.0
 11
65.39355792888075
 21
79.19218975558877
 31
0.0
  0
ELLIPSE
  5
C628
330
C5EB
100
AcDbEntity
  8
0
100
AcDbEllipse
 10
63.97934436650766
 20
78.37569317466104
 30
0.0
 11
-2.000000000000002
 21
-0.0000000000001193
 31
0.0
210
0.0
220
0.0
230
1.0
 40
0.5773502691896257
 41
3.926990816987
 42
5.497787143781896
  0
LINE
  5
C629
330
C5EB
100
AcDbEntity
  8
0
100
AcDbLine
 10
93.32427578574938
 20
64.69937544412161
 30
0.0
 11
91.91006222337628
 21
63.88287886319389
 31
0.0
  0
LINE
  5
C62A
330
C5EB
100
AcDbEntity
  8
0
100
AcDbLine
 10
91.91006222337632
 20
-64.30708434245912
 30
0.0
 11
91.91006222337628
 21
63.88287886319389
 31
0.0
  0
LINE
  5
C62B
330
C5EB
100
AcDbEntity
  8
0
100
AcDbLine
 10
62.56513080413456
 20
79.19218975558877
 30
0.0
 11
61.15091724176146
 21
80.00868633651649
 31
0.0
  0
LINE
  5
C62C
330
C5EB
100
AcDbEntity
  8
0
100
AcDbLine
 10
65.39355792888075
 20
79.19218975558877
 30
0.0
 11
66.80777149125384
 21
80.00868633651649
 31
0.0
  0
LINE
  5
C62D
330
C5EB
100
AcDbEntity
  8
0
100
AcDbLine
 10
91.91006222337628
 20
63.88287886319389
 30
0.0
 11
65.39355792888075
 21
79.19218975558877
 31
0.0
  0
ELLIPSE
  5
C62E
330
C5EB
100
AcDbEntity
  8
0
100
AcDbEllipse
 10
78.12147999023861
 20
55.51378890868472
 30
0.0
 11
-3.25
 21
5.62916512459885
 31
0.0
210
0.0
220
0.0
230
1.0
 40
0.5773502691896258
 41
0.0
 42
6.283185307179586
  0
ELLIPSE
  5
C62F
330
C5EB
100
AcDbEntity
  8
0
100
AcDbEllipse
 10
85.89965458329064
 20
55.10554061822086
 30
0.0
 11
-1.25
 21
2.165063509461097
 31
0.0
210
0.0
220
0.0
230
1.0
 40
0.5773502691896259
 41
0.0
 42
6.283185307179586
  0
LINE
  5
C630
330
C5EB
100
AcDbEntity
  8
0
100
AcDbLine
 10
3.75394762209146
 20
-119.8228429917393
 30
0.0
 11
63.15091724176148
 21
-85.5299865927749
 31
0.0
  0
ELLIPSE
  5
C631
330
C5EB
100
AcDbEntity
  8
0
100
AcDbEllipse
 10
79.53569355261169
 20
-49.81427003099193
 30
0.0
 11
-3.249999999999998
 21
5.629165124598853
 31
0.0
210
0.0
220
0.0
230
1.0
 40
0.5773502691896258
 41
0.219325486300596
 42
2.922267167289199
  0
ELLIPSE
  5
C632
330
C5EB
100
AcDbEntity
  8
0
100
AcDbEllipse
 10
78.12147999023861
 20
-50.63076661191967
 30
0.0
 11
-3.25
 21
5.62916512459885
 31
0.0
210
0.0
220
0.0
230
1.0
 40
0.5773502691896258
 41
0.0
 42
6.283185307179586
  0
ELLIPSE
  5
C633
330
C5EB
100
AcDbEntity
  8
0
100
AcDbEllipse
 10
79.5356935526117
 20
7.340490633948872
 30
0.0
 11
-3.25
 21
5.629165124598853
 31
0.0
210
0.0
220
0.0
230
1.0
 40
0.5773502691896258
 41
0.2193254863005917
 42
2.922267167289202
  0
ELLIPSE
  5
C634
330
C5EB
100
AcDbEntity
  8
0
100
AcDbEllipse
 10
78.12147999023861
 20
6.523994053021144
 30
0.0
 11
-3.25
 21
5.62916512459885
 31
0.0
210
0.0
220
0.0
230
1.0
 40
0.5773502691896258
 41
0.0
 42
6.283185307179586
  0
ELLIPSE
  5
C635
330
C5EB
100
AcDbEntity
  8
0
100
AcDbEllipse
 10
71.75751895955968
 20
-57.57098754980534
 30
0.0
 11
1.250000000000128
 21
-2.165063509461022
 31
0.0
210
0.0
220
0.0
230
0.9999999999999998
 40
0.5773502691896258
 41
3.742856870268576
 42
5.681921090500122
  0
ELLIPSE
  5
C636
330
C5EB
100
AcDbEntity
  8
0
100
AcDbEllipse
 10
71.75751895955968
 20
-41.24105593125081
 30
0.0
 11
1.250000000000128
 21
-2.165063509461022
 31
0.0
210
0.0
220
0.0
230
0.9999999999999998
 40
0.5773502691896258
 41
3.742856870268576
 42
5.681921090500122
  0
ELLIPSE
  5
C637
330
C5EB
100
AcDbEntity
  8
0
100
AcDbEllipse
 10
71.75751895955968
 20
-24.9111243126963
 30
0.0
 11
1.250000000000128
 21
-2.165063509461022
 31
0.0
210
0.0
220
0.0
230
0.9999999999999998
 40
0.5773502691896258
 41
3.742856870268576
 42
5.681921090500122
  0
ELLIPSE
  5
C638
330
C5EB
100
AcDbEntity
  8
0
100
AcDbEllipse
 10
71.75751895955968
 20
-8.581192694141765
 30
0.0
 11
1.250000000000128
 21
-2.165063509461022
 31
0.0
210
0.0
220
0.0
230
0.9999999999999998
 40
0.5773502691896258
 41
3.742856870268578
 42
5.681921090500122
  0
ELLIPSE
  5
C639
330
C5EB
100
AcDbEntity
  8
0
100
AcDbEllipse
 10
71.75751895955968
 20
7.748738924412759
 30
0.0
 11
1.250000000000128
 21
-2.165063509461022
 31
0.0
210
0.0
220
0.0
230
0.9999999999999998
 40
0.5773502691896258
 41
3.742856870268578
 42
5.681921090500122
  0
ELLIPSE
  5
C63A
330
C5EB
100
AcDbEntity
  8
0
100
AcDbEllipse
 10
71.75751895955968
 20
24.07867054296727
 30
0.0
 11
1.250000000000128
 21
-2.165063509461022
 31
0.0
210
0.0
220
0.0
230
0.9999999999999998
 40
0.5773502691896258
 41
3.742856870268576
 42
5.681921090500122
  0
ELLIPSE
  5
C63B
330
C5EB
100
AcDbEntity
  8
0
100
AcDbEllipse
 10
71.75751895955968
 20
40.40860216152179
 30
0.0
 11
1.250000000000128
 21
-2.165063509461022
 31
0.0
210
0.0
220
0.0
230
0.9999999999999998
 40
0.5773502691896258
 41
3.742856870268576
 42
5.681921090500122
  0
ELLIPSE
  5
C63C
330
C5EB
100
AcDbEntity
  8
0
100
AcDbEllipse
 10
71.75751895955968
 20
56.73853378007631
 30
0.0
 11
1.250000000000129
 21
-2.165063509461022
 31
0.0
210
0.0
220
0.0
230
1.0
 40
0.5773502691896258
 41
3.742856870268585
 42
5.681921090500116
  0
ELLIPSE
  5
C63D
330
C5EB
100
AcDbEntity
  8
0
100
AcDbEllipse
 10
70.34330539718658
 20
-58.38748413073306
 30
0.0
 11
-1.25
 21
2.165063509461097
 31
0.0
210
0.0
220
0.0
230
1.0
 40
0.5773502691896259
 41
0.0
 42
6.283185307179586
  0
ELLIPSE
  5
C63E
330
C5EB
100
AcDbEntity
  8
0
100
AcDbEllipse
 10
70.34330539718658
 20
-42.05755251217853
 30
0.0
 11
-1.25
 21
2.165063509461097
 31
0.0
210
0.0
220
0.0
230
1.0
 40
0.5773502691896259
 41
0.0
 42
6.283185307179586
  0
ELLIPSE
  5
C63F
330
C5EB
100
AcDbEntity
  8
0
100
AcDbEllipse
 10
70.34330539718658
 20
-25.72762089362402
 30
0.0
 11
-1.25
 21
2.165063509461097
 31
0.0
210
0.0
220
0.0
230
1.0
 40
0.5773502691896259
 41
0.0
 42
6.283185307179586
  0
ELLIPSE
  5
C640
330
C5EB
100
AcDbEntity
  8
0
100
AcDbEllipse
 10
70.34330539718658
 20
-9.397689275069494
 30
0.0
 11
-1.25
 21
2.165063509461097
 31
0.0
210
0.0
220
0.0
230
1.0
 40
0.5773502691896259
 41
0.0
 42
6.283185307179586
  0
ELLIPSE
  5
C641
330
C5EB
100
AcDbEntity
  8
0
100
AcDbEllipse
 10
70.34330539718658
 20
6.932242343485031
 30
0.0
 11
-1.25
 21
2.165063509461097
 31
0.0
210
0.0
220
0.0
230
1.0
 40
0.5773502691896259
 41
0.0
 42
6.283185307179586
  0
ELLIPSE
  5
C642
330
C5EB
100
AcDbEntity
  8
0
100
AcDbEllipse
 10
70.34330539718658
 20
23.26217396203955
 30
0.0
 11
-1.25
 21
2.165063509461097
 31
0.0
210
0.0
220
0.0
230
1.0
 40
0.5773502691896259
 41
0.0
 42
6.283185307179586
  0
ELLIPSE
  5
C643
330
C5EB
100
AcDbEntity
  8
0
100
AcDbEllipse
 10
70.34330539718658
 20
39.59210558059407
 30
0.0
 11
-1.25
 21
2.165063509461097
 31
0.0
210
0.0
220
0.0
230
1.0
 40
0.5773502691896259
 41
0.0
 42
6.283185307179586
  0
ELLIPSE
  5
C644
330
C5EB
100
AcDbEntity
  8
0
100
AcDbEllipse
 10
70.34330539718658
 20
55.92203719914859
 30
0.0
 11
-1.25
 21
2.165063509461097
 31
0.0
210
0.0
220
0.0
230
1.0
 40
0.5773502691896259
 41
0.0
 42
6.283185307179586
  0
ELLIPSE
  5
C645
330
C5EB
100
AcDbEntity
  8
0
100
AcDbEllipse
 10
71.75751895955968
 20
73.06846539863082
 30
0.0
 11
1.250000000000129
 21
-2.165063509461022
 31
0.0
210
0.0
220
0.0
230
1.0
 40
0.5773502691896258
 41
3.742856870268585
 42
5.681921090500116
  0
ELLIPSE
  5
C646
330
C5EB
100
AcDbEntity
  8
0
100
AcDbEllipse
 10
-12.38818800163947
 20
120.0170188019751
 30
0.0
 11
1.25
 21
-2.165063509461096
 31
0.0
210
0.0
220
0.0
230
1.0
 40
0.5773502691896259
 41
0.0
 42
6.283185307179586
  0
ELLIPSE
  5
C647
330
C5EB
100
AcDbEntity
  8
0
100
AcDbEllipse
 10
-10.97397443926637
 20
120.8335153829028
 30
0.0
 11
1.25000000000013
 21
-2.165063509461022
 31
0.0
210
0.0
220
0.0
230
1.0
 40
0.5773502691896259
 41
3.742856870268578
 42
5.681921090500122
  0
ELLIPSE
  5
C648
330
C5EB
100
AcDbEntity
  8
0
100
AcDbEllipse
 10
70.34330539718658
 20
72.25196881770308
 30
0.0
 11
-1.25
 21
2.165063509461097
 31
0.0
210
0.0
220
0.0
230
1.0
 40
0.5773502691896259
 41
0.0
 42
6.283185307179586
  0
ELLIPSE
  5
C649
330
C5EB
100
AcDbEntity
  8
0
100
AcDbEllipse
 10
87.31386814566375
 20
-58.38748413073306
 30
0.0
 11
1.250000000000128
 21
-2.165063509461022
 31
0.0
210
0.0
220
0.0
230
0.9999999999999998
 40
0.5773502691896258
 41
3.742856870268573
 42
5.681921090500111
  0
ELLIPSE
  5
C64A
330
C5EB
100
AcDbEntity
  8
0
100
AcDbEllipse
 10
87.31386814566375
 20
-42.05755251217855
 30
0.0
 11
1.250000000000128
 21
-2.165063509461022
 31
0.0
210
0.0
220
0.0
230
0.9999999999999998
 40
0.5773502691896258
 41
3.742856870268573
 42
5.681921090500111
  0
ELLIPSE
  5
C64B
330
C5EB
100
AcDbEntity
  8
0
100
AcDbEllipse
 10
87.31386814566375
 20
-25.72762089362403
 30
0.0
 11
1.250000000000128
 21
-2.165063509461022
 31
0.0
210
0.0
220
0.0
230
0.9999999999999998
 40
0.5773502691896258
 41
3.742856870268575
 42
5.681921090500111
  0
ELLIPSE
  5
C64C
330
C5EB
100
AcDbEntity
  8
0
100
AcDbEllipse
 10
87.31386814566375
 20
-9.397689275069502
 30
0.0
 11
1.250000000000128
 21
-2.165063509461022
 31
0.0
210
0.0
220
0.0
230
0.9999999999999998
 40
0.5773502691896258
 41
3.742856870268575
 42
5.681921090500111
  0
ELLIPSE
  5
C64D
330
C5EB
100
AcDbEntity
  8
0
100
AcDbEllipse
 10
87.31386814566375
 20
6.932242343485004
 30
0.0
 11
1.250000000000128
 21
-2.165063509461022
 31
0.0
210
0.0
220
0.0
230
0.9999999999999998
 40
0.5773502691896258
 41
3.742856870268575
 42
5.681921090500111
  0
ELLIPSE
  5
C64E
330
C5EB
100
AcDbEntity
  8
0
100
AcDbEllipse
 10
87.31386814566375
 20
23.26217396203953
 30
0.0
 11
1.250000000000128
 21
-2.165063509461022
 31
0.0
210
0.0
220
0.0
230
0.9999999999999998
 40
0.5773502691896258
 41
3.742856870268575
 42
5.681921090500111
  0
ELLIPSE
  5
C64F
330
C5EB
100
AcDbEntity
  8
0
100
AcDbEllipse
 10
87.31386814566375
 20
39.59210558059405
 30
0.0
 11
1.250000000000129
 21
-2.165063509461022
 31
0.0
210
0.0
220
0.0
230
1.0
 40
0.5773502691896258
 41
3.742856870268601
 42
5.681921090500122
  0
ELLIPSE
  5
C650
330
C5EB
100
AcDbEntity
  8
0
100
AcDbEllipse
 10
85.89965458329064
 20
-59.20398071166079
 30
0.0
 11
-1.25
 21
2.165063509461097
 31
0.0
210
0.0
220
0.0
230
1.0
 40
0.5773502691896259
 41
0.0
 42
6.283185307179586
  0
ELLIPSE
  5
C651
330
C5EB
100
AcDbEntity
  8
0
100
AcDbEllipse
 10
85.89965458329064
 20
-42.87404909310627
 30
0.0
 11
-1.25
 21
2.165063509461097
 31
0.0
210
0.0
220
0.0
230
1.0
 40
0.5773502691896259
 41
0.0
 42
6.283185307179586
  0
ELLIPSE
  5
C652
330
C5EB
100
AcDbEntity
  8
0
100
AcDbEllipse
 10
85.89965458329064
 20
-26.54411747455175
 30
0.0
 11
-1.25
 21
2.165063509461097
 31
0.0
210
0.0
220
0.0
230
1.0
 40
0.5773502691896259
 41
0.0
 42
6.283185307179586
  0
ELLIPSE
  5
C653
330
C5EB
100
AcDbEntity
  8
0
100
AcDbEllipse
 10
85.89965458329064
 20
-10.21418585599722
 30
0.0
 11
-1.25
 21
2.165063509461097
 31
0.0
210
0.0
220
0.0
230
1.0
 40
0.5773502691896259
 41
0.0
 42
6.283185307179586
  0
ELLIPSE
  5
C654
330
C5EB
100
AcDbEntity
  8
0
100
AcDbEllipse
 10
85.89965458329064
 20
6.115745762557285
 30
0.0
 11
-1.25
 21
2.165063509461097
 31
0.0
210
0.0
220
0.0
230
1.0
 40
0.5773502691896259
 41
0.0
 42
6.283185307179586
  0
ELLIPSE
  5
C655
330
C5EB
100
AcDbEntity
  8
0
100
AcDbEllipse
 10
85.89965458329064
 20
22.44567738111181
 30
0.0
 11
-1.25
 21
2.165063509461097
 31
0.0
210
0.0
220
0.0
230
1.0
 40
0.5773502691896259
 41
0.0
 42
6.283185307179586
  0
ELLIPSE
  5
C656
330
C5EB
100
AcDbEntity
  8
0
100
AcDbEllipse
 10
85.89965458329064
 20
38.77560899966633
 30
0.0
 11
-1.25
 21
2.165063509461097
 31
0.0
210
0.0
220
0.0
230
1.0
 40
0.5773502691896259
 41
0.0
 42
6.283185307179586
  0
LINE
  5
C657
330
C5EB
100
AcDbEntity
  8
0
100
AcDbLine
 10
-31.05824954271036
 20
4.180091853549345
 30
0.0
 11
-30.36350863512831
 21
3.177319728525489
 31
0.0
  0
LINE
  5
C658
330
C5EB
100
AcDbEntity
  8
0
100
AcDbLine
 10
-35.72271178079557
 20
-26.54411747455179
 30
0.0
 11
-64.00698302825746
 21
-67.36894652093806
 31
0.0
  0
LINE
  5
C659
330
C5EB
100
AcDbEntity
  8
0
100
AcDbLine
 10
-37.13692534316866
 20
-25.72762089362406
 30
0.0
 11
-35.72271178079557
 21
-26.54411747455179
 31
0.0
  0
LINE
  5
C65A
330
C5EB
100
AcDbEntity
  8
0
100
AcDbLine
 10
-65.42119659063058
 20
-66.55244994001034
 30
0.0
 11
-37.13692534316866
 21
-25.72762089362406
 31
0.0
  0
LINE
  5
C65B
330
C5EB
100
AcDbEntity
  8
0
100
AcDbLine
 10
-64.00698302825746
 20
-67.36894652093806
 30
0.0
 11
-65.42119659063058
 21
-66.55244994001034
 31
0.0
  0
LINE
  5
C65C
330
C5EB
100
AcDbEntity
  8
0
100
AcDbLine
 10
-35.72271178079555
 20
101.6458457311012
 30
0.0
 11
-35.72271178079557
 21
-26.54411747455178
 31
0.0
  0
LINE
  5
C65D
330
C5EB
100
AcDbEntity
  8
0
100
AcDbLine
 10
-37.13692534316864
 20
102.4623423120289
 30
0.0
 11
-35.72271178079555
 21
101.6458457311012
 31
0.0
  0
LINE
  5
C65E
330
C5EB
100
AcDbEntity
  8
0
100
AcDbLine
 10
-37.13692534316866
 20
-25.72762089362406
 30
0.0
 11
-37.13692534316864
 21
102.4623423120289
 31
0.0
  0
ELLIPSE
  5
C65F
330
C5EB
100
AcDbEntity
  8
0
100
AcDbEllipse
 10
-20.16636259469149
 20
112.2603012831617
 30
0.0
 11
-3.250000000000003
 21
5.629165124598848
 31
0.0
210
0.0
220
0.0
230
1.0
 40
0.577350269189626
 41
4.71238898038469
 42
7.853981633974483
  0
ELLIPSE
  5
C660
330
C5EB
100
AcDbEntity
  8
0
100
AcDbEllipse
 10
-18.7521490323184
 20
113.0767978640894
 30
0.0
 11
-3.250000000000003
 21
5.629165124598854
 31
0.0
210
0.0
220
0.0
230
1.0
 40
0.5773502691896259
 41
0.2193254863005869
 42
1.570796326794897
  0
ELLIPSE
  5
C661
330
C5EB
100
AcDbEntity
  8
0
100
AcDbEllipse
 10
-27.94453718774353
 20
120.8335153829028
 30
0.0
 11
1.25
 21
-2.165063509461096
 31
0.0
210
0.0
220
0.0
230
1.0
 40
0.5773502691896259
 41
0.0
 42
6.283185307179586
  0
ELLIPSE
  5
C662
330
C5EB
100
AcDbEntity
  8
0
100
AcDbEllipse
 10
-26.53032362537043
 20
121.6500119638305
 30
0.0
 11
1.25000000000013
 21
-2.165063509461022
 31
0.0
210
0.0
220
0.0
230
1.0
 40
0.5773502691896259
 41
3.742856870268576
 42
5.681921090500115
  0
LINE
  5
C663
330
C5EB
100
AcDbEntity
  8
0
100
AcDbLine
 10
-7.43844053333365
 20
119.6087705115112
 30
0.0
 11
-7.438440533333645
 21
121.2417636733666
 31
0.0
  0
ELLIPSE
  5
C664
330
C5EB
100
AcDbEntity
  8
0
100
AcDbEllipse
 10
-8.852654095706743
 20
120.4252670924389
 30
0.0
 11
2.000000000000002
 21
0.0
 31
0.0
210
0.0
220
0.0
230
1.0
 40
0.5773502691896257
 41
5.497787143782129
 42
7.068583470577027
  0
LINE
  5
C665
330
C5EB
100
AcDbEntity
  8
0
100
AcDbLine
 10
-6.024226970960548
 20
118.7922739305834
 30
0.0
 11
-6.024226970960548
 21
-31.95340732319792
 31
0.0
  0
ELLIPSE
  5
C666
330
C5EB
100
AcDbEntity
  8
0
100
AcDbEllipse
 10
-8.852654095706743
 20
120.4252670924389
 30
0.0
 11
4.000000000000003
 21
0.0000000000000001
 31
0.0
210
0.0
220
0.0
230
1.0
 40
0.5773502691896258
 41
5.497787143782137
 42
7.068583470577034
  0
LINE
  5
C667
330
C5EB
100
AcDbEntity
  8
0
100
AcDbLine
 10
-7.438440533333645
 20
121.2417636733666
 30
0.0
 11
-6.024226970960548
 21
122.0582602542944
 31
0.0
  0
LINE
  5
C668
330
C5EB
100
AcDbEntity
  8
0
100
AcDbLine
 10
-7.438440533333645
 20
119.6087705115111
 30
0.0
 11
-6.024226970960548
 21
118.7922739305834
 31
0.0
  0
LINE
  5
C669
330
C5EB
100
AcDbEntity
  8
0
100
AcDbLine
 10
-4.852654095706752
 20
-30.32041416134247
 30
0.0
 11
-4.852654095706752
 21
120.4252670924389
 31
0.0
  0
LINE
  5
C66A
330
C5EB
100
AcDbEntity
  8
0
100
AcDbLine
 10
-33.95494482782919
 20
136.5510745657615
 30
0.0
 11
-7.438440533333645
 21
121.2417636733666
 31
0.0
  0
LINE
  5
C66B
330
C5EB
100
AcDbEntity
  8
0
100
AcDbLine
 10
-33.95494482782919
 20
104.2994596191164
 30
0.0
 11
-33.95494482782919
 21
136.5510745657615
 31
0.0
  0
LINE
  5
C66C
330
C5EB
100
AcDbEntity
  8
0
100
AcDbLine
 10
-64.00698302825745
 20
-78.39165036346236
 30
0.0
 11
-64.00698302825746
 21
-67.36894652093806
 31
0.0
  0
LINE
  5
C66D
330
C5EB
100
AcDbEntity
  8
0
100
AcDbLine
 10
-35.72271178079555
 20
101.6458457311012
 30
0.0
 11
-6.024226970960548
 21
118.7922739305834
 31
0.0
  0
LINE
  5
C66E
330
C5EB
100
AcDbEntity
  8
0
100
AcDbLine
 10
-65.42119659063058
 20
-66.55244994001034
 30
0.0
 11
-65.42119659063054
 21
-77.57515378253464
 31
0.0
  0
LINE
  5
C66F
330
C5EB
100
AcDbEntity
  8
0
100
AcDbLine
 10
-7.438440533333645
 20
119.6087705115111
 30
0.0
 11
-37.13692534316864
 21
102.4623423120289
 31
0.0
  0
LINE
  5
C670
330
C5EB
100
AcDbEntity
  8
0
100
AcDbLine
 10
-6.024226970960548
 20
122.0582602542944
 30
0.0
 11
-32.54073126545609
 21
137.3675711466892
 31
0.0
  0
LINE
  5
C671
330
C5EB
100
AcDbEntity
  8
0
100
AcDbLine
 10
-32.54073126545609
 20
137.3675711466892
 30
0.0
 11
-33.95494482782919
 21
136.5510745657615
 31
0.0
  0
ELLIPSE
  5
C672
330
C5EB
100
AcDbEntity
  8
0
100
AcDbEllipse
 10
36.75573329082555
 20
-76.96278134683885
 30
0.0
 11
1.249999999999871
 21
2.16506350946117
 31
0.0
210
0.0
220
0.0
230
1.0
 40
0.577350269189626
 41
3.742856870268578
 42
5.681921090500116
  0
ELLIPSE
  5
C673
330
C5EB
100
AcDbEntity
  8
0
100
AcDbEllipse
 10
38.16994685319865
 20
-77.77927792776657
 30
0.0
 11
-1.25
 21
-2.165063509461096
 31
0.0
210
0.0
220
0.0
230
1.0
 40
0.577350269189626
 41
0.0
 42
6.283185307179586
  0
ELLIPSE
  5
C674
330
C5EB
100
AcDbEntity
  8
0
100
AcDbEllipse
 10
36.75573329082555
 20
-60.63284972828433
 30
0.0
 11
1.249999999999871
 21
2.16506350946117
 31
0.0
210
0.0
220
0.0
230
1.0
 40
0.577350269189626
 41
3.742856870268578
 42
5.681921090500118
  0
ELLIPSE
  5
C675
330
C5EB
100
AcDbEntity
  8
0
100
AcDbEllipse
 10
38.16994685319865
 20
-61.44934630921206
 30
0.0
 11
-1.25
 21
-2.165063509461096
 31
0.0
210
0.0
220
0.0
230
1.0
 40
0.577350269189626
 41
0.0
 42
6.283185307179586
  0
ELLIPSE
  5
C676
330
C5EB
100
AcDbEntity
  8
0
100
AcDbEllipse
 10
36.75573329082555
 20
-44.3029181097298
 30
0.0
 11
1.249999999999871
 21
2.16506350946117
 31
0.0
210
0.0
220
0.0
230
1.0
 40
0.577350269189626
 41
3.742856870268578
 42
5.681921090500118
  0
ELLIPSE
  5
C677
330
C5EB
100
AcDbEntity
  8
0
100
AcDbEllipse
 10
38.16994685319865
 20
-45.11941469065753
 30
0.0
 11
-1.25
 21
-2.165063509461096
 31
0.0
210
0.0
220
0.0
230
1.0
 40
0.577350269189626
 41
0.0
 42
6.283185307179586
  0
ELLIPSE
  5
C678
330
C5EB
100
AcDbEntity
  8
0
100
AcDbEllipse
 10
36.75573329082555
 20
-27.97298649117529
 30
0.0
 11
1.249999999999871
 21
2.16506350946117
 31
0.0
210
0.0
220
0.0
230
1.0
 40
0.577350269189626
 41
3.742856870268578
 42
5.681921090500118
  0
ELLIPSE
  5
C679
330
C5EB
100
AcDbEntity
  8
0
100
AcDbEllipse
 10
38.16994685319865
 20
-28.78948307210301
 30
0.0
 11
-1.25
 21
-2.165063509461096
 31
0.0
210
0.0
220
0.0
230
1.0
 40
0.577350269189626
 41
0.0
 42
6.283185307179586
  0
ELLIPSE
  5
C67A
330
C5EB
100
AcDbEntity
  8
0
100
AcDbEllipse
 10
36.75573329082555
 20
-11.64305487262075
 30
0.0
 11
1.249999999999871
 21
2.16506350946117
 31
0.0
210
0.0
220
0.0
230
1.0
 40
0.577350269189626
 41
3.742856870268578
 42
5.681921090500118
  0
ELLIPSE
  5
C67B
330
C5EB
100
AcDbEntity
  8
0
100
AcDbEllipse
 10
38.16994685319865
 20
-12.45955145354848
 30
0.0
 11
-1.25
 21
-2.165063509461096
 31
0.0
210
0.0
220
0.0
230
1.0
 40
0.577350269189626
 41
0.0
 42
6.283185307179586
  0
ELLIPSE
  5
C67C
330
C5EB
100
AcDbEntity
  8
0
100
AcDbEllipse
 10
36.75573329082555
 20
4.68687674593375
 30
0.0
 11
1.249999999999871
 21
2.16506350946117
 31
0.0
210
0.0
220
0.0
230
1.0
 40
0.577350269189626
 41
3.742856870268578
 42
5.681921090500118
  0
ELLIPSE
  5
C67D
330
C5EB
100
AcDbEntity
  8
0
100
AcDbEllipse
 10
38.16994685319865
 20
3.870380165006022
 30
0.0
 11
-1.25
 21
-2.165063509461096
 31
0.0
210
0.0
220
0.0
230
1.0
 40
0.577350269189626
 41
0.0
 42
6.283185307179586
  0
ELLIPSE
  5
C67E
330
C5EB
100
AcDbEntity
  8
0
100
AcDbEllipse
 10
36.75573329082555
 20
21.01680836448828
 30
0.0
 11
1.249999999999871
 21
2.16506350946117
 31
0.0
210
0.0
220
0.0
230
1.0
 40
0.577350269189626
 41
3.742856870268578
 42
5.681921090500118
  0
ELLIPSE
  5
C67F
330
C5EB
100
AcDbEntity
  8
0
100
AcDbEllipse
 10
38.16994685319865
 20
20.20031178356055
 30
0.0
 11
-1.25
 21
-2.165063509461096
 31
0.0
210
0.0
220
0.0
230
1.0
 40
0.577350269189626
 41
0.0
 42
6.283185307179586
  0
ELLIPSE
  5
C680
330
C5EB
100
AcDbEntity
  8
0
100
AcDbEllipse
 10
36.75573329082555
 20
37.34673998304281
 30
0.0
 11
1.249999999999871
 21
2.16506350946117
 31
0.0
210
0.0
220
0.0
230
1.0
 40
0.577350269189626
 41
3.742856870268578
 42
5.681921090500104
  0
ELLIPSE
  5
C681
330
C5EB
100
AcDbEntity
  8
0
100
AcDbEllipse
 10
38.16994685319865
 20
36.53024340211508
 30
0.0
 11
-1.25
 21
-2.165063509461096
 31
0.0
210
0.0
220
0.0
230
1.0
 40
0.577350269189626
 41
0.0
 42
6.283185307179586
  0
ELLIPSE
  5
C682
330
C5EB
100
AcDbEntity
  8
0
100
AcDbEllipse
 10
-31.83362448426953
 20
-29.19773136256686
 30
0.0
 11
1.249999999999871
 21
2.165063509461171
 31
0.0
210
0.0
220
0.0
230
1.0
 40
0.5773502691896259
 41
3.742856870268578
 42
5.681921090500114
  0
ELLIPSE
  5
C683
330
C5EB
100
AcDbEntity
  8
0
100
AcDbEllipse
 10
-30.41941092189644
 20
-30.01422794349459
 30
0.0
 11
1.249999999999999
 21
2.165063509461097
 31
0.0
210
0.0
220
0.0
230
0.9999999999999998
 40
0.5773502691896258
 41
0.0
 42
6.283185307179586
  0
ELLIPSE
  5
C684
330
C5EB
100
AcDbEntity
  8
0
100
AcDbEllipse
 10
-31.83362448426953
 20
-12.86779974401233
 30
0.0
 11
1.249999999999871
 21
2.165063509461171
 31
0.0
210
0.0
220
0.0
230
1.0
 40
0.5773502691896259
 41
3.742856870268578
 42
5.681921090500114
  0
ELLIPSE
  5
C685
330
C5EB
100
AcDbEntity
  8
0
100
AcDbEllipse
 10
-30.41941092189644
 20
-13.68429632494006
 30
0.0
 11
1.249999999999999
 21
2.165063509461097
 31
0.0
210
0.0
220
0.0
230
0.9999999999999998
 40
0.5773502691896258
 41
0.0
 42
6.283185307179586
  0
ELLIPSE
  5
C686
330
C5EB
100
AcDbEntity
  8
0
100
AcDbEllipse
 10
-31.83362448426953
 20
3.46213187454218
 30
0.0
 11
1.249999999999871
 21
2.165063509461171
 31
0.0
210
0.0
220
0.0
230
1.0
 40
0.5773502691896259
 41
3.742856870268578
 42
5.681921090500114
  0
ELLIPSE
  5
C687
330
C5EB
100
AcDbEntity
  8
0
100
AcDbEllipse
 10
-30.41941092189644
 20
2.645635293614452
 30
0.0
 11
1.249999999999999
 21
2.165063509461097
 31
0.0
210
0.0
220
0.0
230
0.9999999999999998
 40
0.5773502691896258
 41
0.0
 42
6.283185307179586
  0
ELLIPSE
  5
C688
330
C5EB
100
AcDbEntity
  8
0
100
AcDbEllipse
 10
-31.83362448426953
 20
19.7920634930967
 30
0.0
 11
1.249999999999871
 21
2.165063509461171
 31
0.0
210
0.0
220
0.0
230
1.0
 40
0.5773502691896259
 41
3.742856870268578
 42
5.681921090500118
  0
ELLIPSE
  5
C689
330
C5EB
100
AcDbEntity
  8
0
100
AcDbEllipse
 10
-30.41941092189644
 20
18.97556691216898
 30
0.0
 11
1.249999999999999
 21
2.165063509461097
 31
0.0
210
0.0
220
0.0
230
0.9999999999999998
 40
0.5773502691896258
 41
0.0
 42
6.283185307179586
  0
ELLIPSE
  5
C68A
330
C5EB
100
AcDbEntity
  8
0
100
AcDbEllipse
 10
-31.83362448426953
 20
36.12199511165123
 30
0.0
 11
1.249999999999871
 21
2.165063509461171
 31
0.0
210
0.0
220
0.0
230
1.0
 40
0.5773502691896259
 41
3.742856870268578
 42
5.681921090500118
  0
ELLIPSE
  5
C68B
330
C5EB
100
AcDbEntity
  8
0
100
AcDbEllipse
 10
-30.41941092189644
 20
35.30549853072351
 30
0.0
 11
1.249999999999999
 21
2.165063509461097
 31
0.0
210
0.0
220
0.0
230
0.9999999999999998
 40
0.5773502691896258
 41
0.0
 42
6.283185307179586
  0
ELLIPSE
  5
C68C
330
C5EB
100
AcDbEntity
  8
0
100
AcDbEllipse
 10
-31.83362448426953
 20
52.45192673020574
 30
0.0
 11
1.249999999999871
 21
2.165063509461171
 31
0.0
210
0.0
220
0.0
230
1.0
 40
0.5773502691896259
 41
3.742856870268578
 42
5.681921090500118
  0
ELLIPSE
  5
C68D
330
C5EB
100
AcDbEntity
  8
0
100
AcDbEllipse
 10
-30.41941092189644
 20
51.63543014927802
 30
0.0
 11
1.249999999999999
 21
2.165063509461097
 31
0.0
210
0.0
220
0.0
230
0.9999999999999998
 40
0.5773502691896258
 41
0.0
 42
6.283185307179586
  0
ELLIPSE
  5
C68E
330
C5EB
100
AcDbEntity
  8
0
100
AcDbEllipse
 10
-31.83362448426953
 20
68.78185834876027
 30
0.0
 11
1.249999999999871
 21
2.165063509461171
 31
0.0
210
0.0
220
0.0
230
1.0
 40
0.5773502691896259
 41
3.742856870268578
 42
5.681921090500118
  0
ELLIPSE
  5
C68F
330
C5EB
100
AcDbEntity
  8
0
100
AcDbEllipse
 10
-30.41941092189644
 20
67.96536176783255
 30
0.0
 11
1.249999999999999
 21
2.165063509461097
 31
0.0
210
0.0
220
0.0
230
0.9999999999999998
 40
0.5773502691896258
 41
0.0
 42
6.283185307179586
  0
ELLIPSE
  5
C690
330
C5EB
100
AcDbEntity
  8
0
100
AcDbEllipse
 10
-31.83362448426953
 20
85.11178996731478
 30
0.0
 11
1.249999999999871
 21
2.165063509461171
 31
0.0
210
0.0
220
0.0
230
1.0
 40
0.5773502691896259
 41
3.74285687026858
 42
5.681921090500104
  0
ELLIPSE
  5
C691
330
C5EB
100
AcDbEntity
  8
0
100
AcDbEllipse
 10
-30.41941092189644
 20
84.29529338638706
 30
0.0
 11
1.249999999999999
 21
2.165063509461097
 31
0.0
210
0.0
220
0.0
230
0.9999999999999998
 40
0.5773502691896258
 41
0.0
 42
6.283185307179586
  0
ELLIPSE
  5
C692
330
C5EB
100
AcDbEntity
  8
0
100
AcDbEllipse
 10
-31.83362448426953
 20
101.4417215858693
 30
0.0
 11
1.249999999999871
 21
2.165063509461171
 31
0.0
210
0.0
220
0.0
230
1.0
 40
0.5773502691896259
 41
3.74285687026858
 42
5.681921090500104
  0
ELLIPSE
  5
C693
330
C5EB
100
AcDbEntity
  8
0
100
AcDbEllipse
 10
-30.41941092189644
 20
100.6252250049415
 30
0.0
 11
1.249999999999999
 21
2.165063509461097
 31
0.0
210
0.0
220
0.0
230
0.9999999999999998
 40
0.5773502691896258
 41
0.0
 42
6.283185307179586
  0
ENDBLK
  5
C5ED
330
C5EB
100
AcDbEntity
  8
0
100
AcDbBlockEnd
  0
ENDSEC
  0
SECTION
  2
ENTITIES
  0
INSERT
  5
C694
330
1F
100
AcDbEntity
  8
0
100
AcDbBlockReference
  2
SAE500_95_2-Front
 10
0.0
 20
0.0
 30
0.0
  0
INSERT
  5
C695
330
1F
100
AcDbEntity
  8
0
100
AcDbBlockReference
  2
SAE500_95_2-Left
 10
150.35
 20
0.0
 30
0.0
  0
INSERT
  5
C696
330
1F
100
AcDbEntity
  8
0
100
AcDbBlockReference
  2
SAE500_95_2-Right
 10
-150.35
 20
0.0
 30
0.0
  0
INSERT
  5
C697
330
1F
100
AcDbEntity
  8
0
100
AcDbBlockReference
  2
SAE500_95_2-Top
 10
0.0
 20
-63.35
 30
0.0
  0
INSERT
  5
C698
330
1F
100
AcDbEntity
  8
0
100
AcDbBlockReference
  2
SAE500_95_2-Bottom
 10
0.0
 20
263.85
 30
0.0
  0
INSERT
  5
C699
330
1F
100
AcDbEntity
  8
0
100
AcDbBlockReference
  2
SAE500_95_2-ISO
 10
215.7711965906307
 20
-200.7175711466893
 30
0.0
  0
MTEXT
  5
C69A
330
1F
100
AcDbEntity
  8
0
100
AcDbMText
 10
0.0
 20
-210.7000000000001
 30
0.0
 40
18.79375
 41
0.0
 71
     5
 72
     5
  1
SAE500/95/2
 73
     1
 44
1.0
1001
ACAD
1000
MTEXTBEGIN
1070
    73
1070
     1
1070
    44
1040
1.0
1070
    74
1070
     0
1000
MTEXTEND
  0
ENDSEC
  0
SECTION
  2
OBJECTS
  0
DICTIONARY
  5
C
330
0
100
AcDbDictionary
281
     1
  3
ACAD_CIP_PREVIOUS_PRODUCT_INFO
350
216
  3
ACAD_COLOR
350
6B
  3
ACAD_DETAILVIEWSTYLE
350
21B
  3
ACAD_GROUP
350
D
  3
ACAD_LAYOUT
350
1A
  3
ACAD_MATERIAL
350
6A
  3
ACAD_MLEADERSTYLE
350
12D
  3
ACAD_MLINESTYLE
350
17
  3
ACAD_PLOTSETTINGS
350
19
  3
ACAD_PLOTSTYLENAME
350
E
  3
ACAD_SCALELIST
350
10C
  3
ACAD_SECTIONVIEWSTYLE
350
219
  3
ACAD_TABLESTYLE
350
7E
  3
ACAD_VISUALSTYLE
350
EF
  3
ACDB_RECOMPOSE_DATA
350
C79B
  3
AcDbVariableDictionary
350
5E
  3
DWGPROPS
350
C79C
  0
DICTIONARY
  5
C6EB
330
8
100
AcDbDictionary
280
     1
281
     1
  0
DICTIONARY
  5
1FF
330
2
100
AcDbDictionary
280
     1
281
     1
  3
ACAD_LAYERSTATES
360
200
  0
DICTIONARY
  5
13C
330
10
100
AcDbDictionary
280
     1
281
     1
  0
DICTIONARY
  5
1CE
330
1F
100
AcDbDictionary
280
     1
281
     1
  3
ACAD_LAYOUTSELFREF
360
C6F3
  0
DICTIONARY
  5
C69E
330
D2
100
AcDbDictionary
280
     1
281
     1
  3
ACAD_LAYOUTSELFREF
360
C6FC
  0
DICTIONARY
  5
C6A0
330
D6
100
AcDbDictionary
280
     1
281
     1
  3
ACAD_LAYOUTSELFREF
360
C6FF
  0
XRECORD
  5
216
102
{ACAD_REACTORS
330
C
102
}
330
C
100
AcDbXrecord
280
     1
300
ACD
300
2021
300
87393ACD_2021_0F
  0
DICTIONARY
  5
6B
102
{ACAD_REACTORS
330
C
102
}
330
C
100
AcDbDictionary
281
     1
  0
DICTIONARY
  5
21B
102
{ACAD_REACTORS
330
C
102
}
330
C
100
AcDbDictionary
281
     1
  3
Metric50
350
21C
  0
DICTIONARY
  5
D
102
{ACAD_REACTORS
330
C
102
}
330
C
100
AcDbDictionary
281
     1
  0
DICTIONARY
  5
1A
102
{ACAD_REACTORS
330
C
102
}
330
C
100
AcDbDictionary
281
     1
  3
Layout1
350
D3
  3
Layout2
350
D7
  3
Model
350
22
  0
DICTIONARY
  5
6A
102
{ACAD_REACTORS
330
C
102
}
330
C
100
AcDbDictionary
281
     1
  3
ByBlock
350
ED
  3
ByLayer
350
EC
  3
Global
350
EE
  0
DICTIONARY
  5
12D
102
{ACAD_REACTORS
330
C
102
}
330
C
100
AcDbDictionary
281
     1
  3
Standard
350
12E
  0
DICTIONARY
  5
17
102
{ACAD_REACTORS
330
C
102
}
330
C
100
AcDbDictionary
281
     1
  3
Standard
350
18
  0
DICTIONARY
  5
19
102
{ACAD_REACTORS
330
C
102
}
330
C
100
AcDbDictionary
281
     1
  0
ACDBDICTIONARYWDFLT
  5
E
102
{ACAD_REACTORS
330
C
102
}
330
C
100
AcDbDictionary
281
     1
  3
Normal
350
F
100
AcDbDictionaryWithDefault
340
F
  0
DICTIONARY
  5
10C
102
{ACAD_REACTORS
330
C
102
}
330
C
100
AcDbDictionary
281
     1
  3
A0
350
10D
  3
A1
350
1BE
  3
A2
350
1BF
  3
A3
350
1C0
  3
A4
350
1C1
  3
A5
350
1C2
  3
A6
350
1C3
  3
A7
350
1C4
  3
A8
350
1C5
  3
A9
350
1C6
  3
B0
350
1C7
  3
B1
350
1C8
  3
B2
350
1C9
  3
B3
350
1CA
  3
B4
350
1CB
  3
B5
350
1CC
  3
B6
350
1CD
  0
DICTIONARY
  5
219
102
{ACAD_REACTORS
330
C
102
}
330
C
100
AcDbDictionary
281
     1
  3
Metric50
350
21A
  0
DICTIONARY
  5
7E
102
{ACAD_REACTORS
330
C
102
}
330
C
100
AcDbDictionary
281
     1
  3
Standard
350
7F
  0
DICTIONARY
  5
EF
102
{ACAD_REACTORS
330
C
102
}
330
C
100
AcDbDictionary
281
     1
  3
2dWireframe
350
F5
  3
Basic
350
F4
  3
Brighten
350
FB
  3
ColorChange
350
FF
  3
Conceptual
350
F8
  3
Dim
350
FA
  3
EdgeColorOff
350
1E6
  3
Facepattern
350
FE
  3
Flat
350
F0
  3
FlatWithEdges
350
F1
  3
Gouraud
350
F2
  3
GouraudWithEdges
350
F3
  3
Hidden
350
F7
  3
JitterOff
350
1E4
  3
Linepattern
350
FD
  3
OverhangOff
350
1E5
  3
Realistic
350
F9
  3
Shaded
350
1F3
  3
Shaded with edges
350
1F2
  3
Shades of Gray
350
1EF
  3
Sketchy
350
1F0
  3
Thicken
350
FC
  3
Wireframe
350
F6
  3
X-Ray
350
1F1
  0
XRECORD
  5
C79B
102
{ACAD_REACTORS
330
C
102
}
330
C
100
AcDbXrecord
280
     1
 90
        1
330
7F
  0
DICTIONARY
  5
5E
102
{ACAD_REACTORS
330
C
102
}
330
C
100
AcDbDictionary
281
     1
  3
CANNOSCALE
350
146
  3
CENTEREXE
350
259
  3
CENTERLTYPEFILE
350
25A
  3
CMLEADERSTYLE
350
145
  3
CTABLESTYLE
350
84
  3
CVIEWDETAILSTYLE
350
227
  3
CVIEWSECTIONSTYLE
350
228
  3
DIMASSOC
350
5F
  3
HIDETEXT
350
63
  3
INDEXCTL
350
C748
  3
LAYEREVAL
350
1AE
  3
LAYERNOTIFY
350
1AF
  3
LIGHTINGUNITS
350
C746
  3
MSLTSCALE
350
C745
  3
PSOLHEIGHT
350
C798
  3
PSOLWIDTH
350
C797
  3
SORTENTS
350
C747
  3
XCLIPFRAME
350
C799
  0
XRECORD
  5
C79C
102
{ACAD_REACTORS
330
C
102
}
330
C
100
AcDbXrecord
280
     1
  1
DWGPROPS COOKIE
  2

  3

  4

  6

  7

  8
truole
  9

300
=
301
=
302
=
303
=
304
=
305
=
306
=
307
=
308
=
309
=
 40
0.0081481481481481
 41
2460398.356956019
 42
2460398.376435186
  1

 90
        0
  0
DICTIONARY
  5
200
102
{ACAD_REACTORS
330
1FF
102
}
330
1FF
100
AcDbDictionary
281
     1
  0
XRECORD
  5
C6F3
102
{ACAD_REACTORS
330
1CE
102
}
330
1CE
100
AcDbXrecord
280
     1
340
1F
  0
XRECORD
  5
C6FC
102
{ACAD_REACTORS
330
C69E
102
}
330
C69E
100
AcDbXrecord
280
     1
340
D2
  0
XRECORD
  5
C6FF
102
{ACAD_REACTORS
330
C6A0
102
}
330
C6A0
100
AcDbXrecord
280
     1
340
D6
  0
ACDBDETAILVIEWSTYLE
  5
21C
102
{ACAD_XDICTIONARY
360
C7DB
102
}
102
{ACAD_REACTORS
330
21B
102
}
330
21B
100
AcDbModelDocViewStyle
 70
     0
  3
Metric50
290
     0
100
AcDbDetailViewStyle
 70
     0
 71
     0
 90
        3
 71
     1
340
11
 40
5.0
340
0
 40
5.0
300

 40
0.0
280
     1
 71
     2
340
16
 90
       25
 71
     3
340
11
 40
5.0
 90
        0
 40
15.0
 90
        1
300
%<\AcVar ViewDetailId>% (%<\AcVar ViewScale \f "%sn">%)
 71
     4
340
16
 90
       25
340
16
 90
       25
280
     0
  0
LAYOUT
  5
D3
102
{ACAD_XDICTIONARY
360
C7A0
102
}
102
{ACAD_REACTORS
330
1A
102
}
330
1A
100
AcDbPlotSettings
  1

  2
C:\Documents and Settings\basas\Application Data\Autodesk\AutoCAD 2005\R16.1\enu\plotters\Default Windows System Printer.pc3
  4

  6

 40
0.0
 41
0.0
 42
0.0
 43
0.0
 44
0.0
 45
0.0
 46
0.0
 47
0.0
 48
0.0
 49
0.0
140
0.0
141
0.0
142
1.0
143
1.0
 70
   688
 72
     0
 73
     0
 74
     5
  7

 75
    16
147
1.0
148
0.0
149
0.0
100
AcDbLayout
  1
Layout1
 70
     1
 71
     1
 10
0.0
 20
0.0
 11
12.0
 21
9.0
 12
0.0
 22
0.0
 32
0.0
 14
0.0
 24
0.0
 34
0.0
 15
0.0
 25
0.0
 35
0.0
146
0.0
 13
0.0
 23
0.0
 33
0.0
 16
1.0
 26
0.0
 36
0.0
 17
0.0
 27
1.0
 37
0.0
 76
     0
330
D2
  0
LAYOUT
  5
D7
102
{ACAD_XDICTIONARY
360
C7A2
102
}
102
{ACAD_REACTORS
330
1A
102
}
330
1A
100
AcDbPlotSettings
  1

  2
C:\Documents and Settings\basas\Application Data\Autodesk\AutoCAD 2005\R16.1\enu\plotters\Default Windows System Printer.pc3
  4

  6

 40
0.0
 41
0.0
 42
0.0
 43
0.0
 44
0.0
 45
0.0
 46
0.0
 47
0.0
 48
0.0
 49
0.0
140
0.0
141
0.0
142
1.0
143
1.0
 70
   688
 72
     0
 73
     0
 74
     5
  7

 75
    16
147
1.0
148
0.0
149
0.0
100
AcDbLayout
  1
Layout2
 70
     1
 71
     2
 10
0.0
 20
0.0
 11
12.0
 21
9.0
 12
0.0
 22
0.0
 32
0.0
 14
0.0
 24
0.0
 34
0.0
 15
0.0
 25
0.0
 35
0.0
146
0.0
 13
0.0
 23
0.0
 33
0.0
 16
1.0
 26
0.0
 36
0.0
 17
0.0
 27
1.0
 37
0.0
 76
     0
330
D6
  0
LAYOUT
  5
22
102
{ACAD_XDICTIONARY
360
C79D
102
}
102
{ACAD_REACTORS
330
1A
102
}
330
1A
100
AcDbPlotSettings
  1

  2
none_device
  4
ISO_A4_(210.00_x_297.00_MM)
  6

 40
7.5
 41
20.0
 42
7.5
 43
20.0
 44
210.0
 45
297.0
 46
11.54999923706054
 47
-13.65000009536743
 48
0.0
 49
0.0
140
0.0
141
0.0
142
1.0
143
8.704084754739808
 70
 11952
 72
     1
 73
     0
 74
     0
  7

 75
     0
147
0.1148885871608098
148
0.0
149
0.0
100
AcDbLayout
  1
Model
 70
     1
 71
     0
 10
0.0
 20
0.0
 11
12.0
 21
9.0
 12
0.0
 22
0.0
 32
0.0
 14
0.0
 24
0.0
 34
0.0
 15
0.0
 25
0.0
 35
0.0
146
0.0
 13
0.0
 23
0.0
 33
0.0
 16
1.0
 26
0.0
 36
0.0
 17
0.0
 27
1.0
 37
0.0
 76
     0
330
1F
331
EA
1001
ACAD_PSEXT
1000
None
1000
None
1000
Not applicable
1000
The layout will not be plotted unless a new plotter configuration name is selected.
1070
     0
  0
MATERIAL
  5
ED
102
{ACAD_XDICTIONARY
360
1F9
102
}
102
{ACAD_REACTORS
330
6A
102
}
330
6A
100
AcDbMaterial
  1
ByBlock
  0
MATERIAL
  5
EC
102
{ACAD_XDICTIONARY
360
1F7
102
}
102
{ACAD_REACTORS
330
6A
102
}
330
6A
100
AcDbMaterial
  1
ByLayer
  0
MATERIAL
  5
EE
102
{ACAD_XDICTIONARY
360
173
102
}
102
{ACAD_REACTORS
330
6A
102
}
330
6A
100
AcDbMaterial
  1
Global
 43
0.0007999999797903
 43
0.0
 43
0.0
 43
0.0
 43
0.0
 43
0.0007999999797903
 43
0.0
 43
0.0
 43
0.0
 43
0.0
 43
1.0
 43
0.0
 43
0.0
 43
0.0
 43
0.0
 43
1.0
 49
0.0007999999797903
 49
0.0
 49
0.0
 49
0.0
 49
0.0
 49
0.0007999999797903
 49
0.0
 49
0.0
 49
0.0
 49
0.0
 49
1.0
 49
0.0
 49
0.0
 49
0.0
 49
0.0
 49
1.0
142
0.0007999999797903
142
0.0
142
0.0
142
0.0
142
0.0
142
0.0007999999797903
142
0.0
142
0.0
142
0.0
142
0.0
142
1.0
142
0.0
142
0.0
142
0.0
142
0.0
142
1.0
144
0.0007999999797903
144
0.0
144
0.0
144
0.0
144
0.0
144
0.0007999999797903
144
0.0
144
0.0
144
0.0
144
0.0
144
1.0
144
0.0
144
0.0
144
0.0
144
0.0
144
1.0
1001
ACAD
1070
    -1
1070
     3
1070
     0
1000

1071
        0
1070
     0
  0
MLEADERSTYLE
  5
12E
102
{ACAD_XDICTIONARY
360
C7C7
102
}
102
{ACAD_REACTORS
330
12D
102
}
330
12D
100
AcDbMLeaderStyle
170
     2
171
     1
172
     0
 90
        2
 40
0.0
 41
0.0
173
     1
 91
-1056964608
340
14
 92
       -2
290
     1
 42
2.0
291
     1
 43
8.0
  3
Standard
 44
4.0
300

342
11
174
     1
178
     1
175
     1
176
     0
 93
-1056964608
 45
4.0
292
     0
297
     0
 46
4.0
 94
-1056964608
 47
1.0
 49
1.0
140
1.0
293
     1
141
0.0
294
     1
177
     0
142
1.0
295
     0
296
     0
143
3.75
1001
ACAD_MLEADERVER
1070
     2
  0
MLINESTYLE
  5
18
102
{ACAD_REACTORS
330
17
102
}
330
17
100
AcDbMlineStyle
  2
STANDARD
 70
     0
  3

 62
   256
 51
90.0
 52
90.0
 71
     2
 49
0.5
 62
   256
  6
BYLAYER
 49
-0.5
 62
   256
  6
BYLAYER
  0
ACDBPLACEHOLDER
  5
F
102
{ACAD_REACTORS
330
E
102
}
330
E
  0
SCALE
  5
10D
102
{ACAD_REACTORS
330
10C
102
}
330
10C
100
AcDbScale
 70
     0
300
1:1
140
1.0
141
1.0
290
     1
  0
SCALE
  5
1BE
102
{ACAD_REACTORS
330
10C
102
}
330
10C
100
AcDbScale
 70
     0
300
1:2
140
1.0
141
2.0
290
     0
  0
SCALE
  5
1BF
102
{ACAD_REACTORS
330
10C
102
}
330
10C
100
AcDbScale
 70
     0
300
1:4
140
1.0
141
4.0
290
     0
  0
SCALE
  5
1C0
102
{ACAD_REACTORS
330
10C
102
}
330
10C
100
AcDbScale
 70
     0
300
1:5
140
1.0
141
5.0
290
     0
  0
SCALE
  5
1C1
102
{ACAD_REACTORS
330
10C
102
}
330
10C
100
AcDbScale
 70
     0
300
1:8
140
1.0
141
8.0
290
     0
  0
SCALE
  5
1C2
102
{ACAD_REACTORS
330
10C
102
}
330
10C
100
AcDbScale
 70
     0
300
1:10
140
1.0
141
10.0
290
     0
  0
SCALE
  5
1C3
102
{ACAD_REACTORS
330
10C
102
}
330
10C
100
AcDbScale
 70
     0
300
1:16
140
1.0
141
16.0
290
     0
  0
SCALE
  5
1C4
102
{ACAD_REACTORS
330
10C
102
}
330
10C
100
AcDbScale
 70
     0
300
1:20
140
1.0
141
20.0
290
     0
  0
SCALE
  5
1C5
102
{ACAD_REACTORS
330
10C
102
}
330
10C
100
AcDbScale
 70
     0
300
1:30
140
1.0
141
30.0
290
     0
  0
SCALE
  5
1C6
102
{ACAD_REACTORS
330
10C
102
}
330
10C
100
AcDbScale
 70
     0
300
1:40
140
1.0
141
40.0
290
     0
  0
SCALE
  5
1C7
102
{ACAD_REACTORS
330
10C
102
}
330
10C
100
AcDbScale
 70
     0
300
1:50
140
1.0
141
50.0
290
     0
  0
SCALE
  5
1C8
102
{ACAD_REACTORS
330
10C
102
}
330
10C
100
AcDbScale
 70
     0
300
1:100
140
1.0
141
100.0
290
     0
  0
SCALE
  5
1C9
102
{ACAD_REACTORS
330
10C
102
}
330
10C
100
AcDbScale
 70
     0
300
2:1
140
2.0
141
1.0
290
     0
  0
SCALE
  5
1CA
102
{ACAD_REACTORS
330
10C
102
}
330
10C
100
AcDbScale
 70
     0
300
4:1
140
4.0
141
1.0
290
     0
  0
SCALE
  5
1CB
102
{ACAD_REACTORS
330
10C
102
}
330
10C
100
AcDbScale
 70
     0
300
8:1
140
8.0
141
1.0
290
     0
  0
SCALE
  5
1CC
102
{ACAD_REACTORS
330
10C
102
}
330
10C
100
AcDbScale
 70
     0
300
10:1
140
10.0
141
1.0
290
     0
  0
SCALE
  5
1CD
102
{ACAD_REACTORS
330
10C
102
}
330
10C
100
AcDbScale
 70
     0
300
100:1
140
100.0
141
1.0
290
     0
  0
ACDBSECTIONVIEWSTYLE
  5
21A
102
{ACAD_XDICTIONARY
360
C7D9
102
}
102
{ACAD_REACTORS
330
219
102
}
330
219
100
AcDbModelDocViewStyle
 70
     0
  3
Metric50
290
     0
100
AcDbSectionViewStyle
 70
     0
 71
     0
 90
      102
 71
     1
340
11
 40
5.0
340
0
340
0
 40
5.0
300
I, O, Q, S, X, Z
 40
10.0
 90
        0
 40
2.5
 90
        0
 71
     2
340
16
 90
       25
340
16
 90
       50
 40
5.0
 40
2.5
 40
5.0
 71
     3
340
11
 40
5.0
 90
        0
 40
15.0
 90
        1
300
%<\AcVar ViewSectionStartId>%-%<\AcVar ViewSectionEndId>% (%<\AcVar ViewScale \f "%sn">%)
 71
     4
300
ANSI31
 40
1.0
 90
        0
290
     0
290
     0
 90
        6
 40
0.0
 40
1.570796326794896
 40
0.2617993877991494
 40
1.308996938995747
 40
-0.2617993877991494
 40
1.832595714594046
  0
TABLESTYLE
  5
7F
102
{ACAD_XDICTIONARY
360
162
102
}
102
{ACAD_REACTORS
330
7E
102
}
330
7E
100
AcDbTableStyle
  3
Standard
 70
     0
 71
     0
 40
1.5
 41
1.5
280
     0
281
     0
  7
Standard
140
4.5
170
     2
 62
     0
 63
     7
283
     0
274
    -2
284
     1
 64
     0
275
    -2
285
     1
 65
     0
276
    -2
286
     1
 66
     0
277
    -2
287
     1
 67
     0
278
    -2
288
     1
 68
     0
279
    -2
289
     1
 69
     0
  7
Standard
140
6.0
170
     5
 62
     0
 63
     7
283
     0
274
    -2
284
     1
 64
     0
275
    -2
285
     1
 65
     0
276
    -2
286
     1
 66
     0
277
    -2
287
     1
 67
     0
278
    -2
288
     1
 68
     0
279
    -2
289
     1
 69
     0
  7
Standard
140
4.5
170
     5
 62
     0
 63
     7
283
     0
274
    -2
284
     1
 64
     0
275
    -2
285
     1
 65
     0
276
    -2
286
     1
 66
     0
277
    -2
287
     1
 67
     0
278
    -2
288
     1
 68
     0
279
    -2
289
     1
 69
     0
  0
VISUALSTYLE
  5
F5
102
{ACAD_XDICTIONARY
360
C7B1
102
}
102
{ACAD_REACTORS
330
EF
102
}
330
EF
100
AcDbVisualStyle
  2
2dWireframe
 70
     4
 71
     0
 72
     2
 73
     1
 90
        0
 40
-0.6
 41
-30.0
 62
     5
 63
     7
 74
     1
 91
        4
 64
     7
 65
   257
 75
     1
175
     1
 42
1.0
 92
        0
 66
   257
 43
1.0
 76
     1
 77
     6
 78
     2
 67
     7
 79
     5
170
     0
171
     0
290
     0
174
     0
 93
        1
 44
0.0
173
     0
291
     0
 45
0.0
1001
ACAD
1000
AcDbSavedByObjectVersion
1070
     0
  0
VISUALSTYLE
  5
F4
102
{ACAD_XDICTIONARY
360
C7AF
102
}
102
{ACAD_REACTORS
330
EF
102
}
330
EF
100
AcDbVisualStyle
  2
Basic
 70
     7
 71
     1
 72
     0
 73
     1
 90
        0
 40
-0.6
 41
-30.0
 62
     5
 63
     7
 74
     0
 91
        4
 64
     7
 65
   257
 75
     1
175
     1
 42
1.0
 92
        8
 66
     7
 43
1.0
 76
     1
 77
     6
 78
     2
 67
     7
 79
     5
170
     0
171
     0
290
     0
174
     0
 93
        1
 44
0.0
173
     0
291
     1
 45
0.0
1001
ACAD
1000
AcDbSavedByObjectVersion
1070
     0
  0
VISUALSTYLE
  5
FB
102
{ACAD_XDICTIONARY
360
C7BD
102
}
102
{ACAD_REACTORS
330
EF
102
}
330
EF
100
AcDbVisualStyle
  2
Brighten
 70
    12
 71
     2
 72
     2
 73
     1
 90
        0
 40
-0.6
 41
-30.0
 62
     5
 63
     7
 74
     1
 91
        4
 64
     7
 65
   257
 75
     1
175
     1
 42
1.0
 92
        8
 66
     7
 43
1.0
 76
     1
 77
     6
 78
     2
 67
     7
 79
     5
170
     0
171
     0
290
     0
174
     0
 93
        1
 44
50.0
173
     0
291
     1
 45
0.0
1001
ACAD
1000
AcDbSavedByObjectVersion
1070
     0
  0
VISUALSTYLE
  5
FF
102
{ACAD_XDICTIONARY
360
C7C5
102
}
102
{ACAD_REACTORS
330
EF
102
}
330
EF
100
AcDbVisualStyle
  2
ColorChange
 70
    16
 71
     2
 72
     2
 73
     3
 90
        0
 40
-0.6
 41
-30.0
 62
     5
 63
     8
 74
     1
 91
        4
 64
     7
 65
   257
 75
     1
175
     1
 42
1.0
 92
        8
 66
     8
 43
1.0
 76
     1
 77
     6
 78
     2
 67
     7
 79
     5
170
     0
171
     0
290
     0
174
     0
 93
        1
 44
0.0
173
     0
291
     1
 45
0.0
1001
ACAD
1000
AcDbSavedByObjectVersion
1070
     0
  0
VISUALSTYLE
  5
F8
102
{ACAD_XDICTIONARY
360
C7B7
102
}
102
{ACAD_REACTORS
330
EF
102
}
330
EF
100
AcDbVisualStyle
  2
Conceptual
 70
     9
 71
     3
 72
     2
 73
     1
 90
        0
 40
-0.6
 41
-30.0
 62
     5
 63
     7
 74
     2
 91
        2
 64
     7
 65
   257
 75
     1
175
     1
 42
40.0
 92
        8
 66
     7
 43
1.0
 76
     1
 77
     6
 78
     2
 67
     7
 79
     3
170
     0
171
     0
290
     0
174
     0
 93
        1
 44
0.0
173
     0
291
     0
 45
0.0
1001
ACAD
1000
AcDbSavedByObjectVersion
1070
     0
  0
VISUALSTYLE
  5
FA
102
{ACAD_XDICTIONARY
360
C7BB
102
}
102
{ACAD_REACTORS
330
EF
102
}
330
EF
100
AcDbVisualStyle
  2
Dim
 70
    11
 71
     2
 72
     2
 73
     1
 90
        0
 40
-0.6
 41
-30.0
 62
     5
 63
     7
 74
     1
 91
        4
 64
     7
 65
   257
 75
     1
175
     1
 42
1.0
 92
        8
 66
     7
 43
1.0
 76
     1
 77
     6
 78
     2
 67
     7
 79
     5
170
     0
171
     0
290
     0
174
     0
 93
        1
 44
-50.0
173
     0
291
     1
 45
0.0
1001
ACAD
1000
AcDbSavedByObjectVersion
1070
     0
  0
VISUALSTYLE
  5
1E6
102
{ACAD_XDICTIONARY
360
C7CD
102
}
102
{ACAD_REACTORS
330
EF
102
}
330
EF
100
AcDbVisualStyle
  2
EdgeColorOff
 70
    22
 71
     2
 72
     2
 73
     0
 90
        0
 40
-0.6
 41
-30.0
 62
     5
 63
     7
 74
     1
 91
        4
 64
     7
 65
   257
 75
     1
175
     1
 42
1.0
 92
        8
 66
     7
 43
1.0
 76
     1
 77
     6
 78
     2
 67
     7
 79
     5
170
     0
171
     0
290
     0
174
     0
 93
        1
 44
0.0
173
     0
291
     1
 45
0.0
1001
ACAD
1000
AcDbSavedByObjectVersion
1070
     0
  0
VISUALSTYLE
  5
FE
102
{ACAD_XDICTIONARY
360
C7C3
102
}
102
{ACAD_REACTORS
330
EF
102
}
330
EF
100
AcDbVisualStyle
  2
Facepattern
 70
    15
 71
     2
 72
     2
 73
     1
 90
        0
 40
-0.6
 41
-30.0
 62
     5
 63
     7
 74
     1
 91
        4
 64
     7
 65
   257
 75
     1
175
     1
 42
1.0
 92
        8
 66
     7
 43
1.0
 76
     1
 77
     6
 78
     2
 67
     7
 79
     5
170
     0
171
     0
290
     0
174
     0
 93
        1
 44
0.0
173
     0
291
     1
 45
0.0
1001
ACAD
1000
AcDbSavedByObjectVersion
1070
     0
  0
VISUALSTYLE
  5
F0
102
{ACAD_XDICTIONARY
360
C7A7
102
}
102
{ACAD_REACTORS
330
EF
102
}
330
EF
100
AcDbVisualStyle
  2
Flat
 70
     0
 71
     2
 72
     1
 73
     1
 90
        2
 40
-0.6
 41
30.0
 62
     5
 63
     7
 74
     0
 91
        0
 64
     7
 65
   257
 75
     1
175
     1
 42
1.0
 92
        8
 66
     7
 43
1.0
 76
     1
 77
     6
 78
     2
 67
     7
 79
     5
170
     0
171
     0
290
     0
174
     0
 93
       13
 44
0.0
173
     0
291
     1
 45
0.0
1001
ACAD
1000
AcDbSavedByObjectVersion
1070
     0
  0
VISUALSTYLE
  5
F1
102
{ACAD_XDICTIONARY
360
C7A9
102
}
102
{ACAD_REACTORS
330
EF
102
}
330
EF
100
AcDbVisualStyle
  2
FlatWithEdges
 70
     1
 71
     2
 72
     1
 73
     1
 90
        2
 40
-0.6
 41
30.0
 62
     5
 63
     7
 74
     1
 91
        0
 64
     7
 65
   257
 75
     1
175
     1
 42
1.0
 92
        0
 66
   257
 43
1.0
 76
     1
 77
     6
 78
     2
 67
     7
 79
     5
170
     0
171
     0
290
     0
174
     0
 93
       13
 44
0.0
173
     0
291
     1
 45
0.0
1001
ACAD
1000
AcDbSavedByObjectVersion
1070
     0
  0
VISUALSTYLE
  5
F2
102
{ACAD_XDICTIONARY
360
C7AB
102
}
102
{ACAD_REACTORS
330
EF
102
}
330
EF
100
AcDbVisualStyle
  2
Gouraud
 70
     2
 71
     2
 72
     2
 73
     1
 90
        2
 40
-0.6
 41
30.0
 62
     5
 63
     7
 74
     0
 91
        0
 64
     7
 65
   257
 75
     1
175
     1
 42
1.0
 92
        0
 66
     7
 43
1.0
 76
     1
 77
     6
 78
     2
 67
     7
 79
     5
170
     0
171
     0
290
     0
174
     0
 93
       13
 44
0.0
173
     0
291
     1
 45
0.0
1001
ACAD
1000
AcDbSavedByObjectVersion
1070
     0
  0
VISUALSTYLE
  5
F3
102
{ACAD_XDICTIONARY
360
C7AD
102
}
102
{ACAD_REACTORS
330
EF
102
}
330
EF
100
AcDbVisualStyle
  2
GouraudWithEdges
 70
     3
 71
     2
 72
     2
 73
     1
 90
        2
 40
-0.6
 41
30.0
 62
     5
 63
     7
 74
     1
 91
        0
 64
     7
 65
   257
 75
     1
175
     1
 42
1.0
 92
        0
 66
   257
 43
1.0
 76
     1
 77
     6
 78
     2
 67
     7
 79
     5
170
     0
171
     0
290
     0
174
     0
 93
       13
 44
0.0
173
     0
291
     1
 45
0.0
1001
ACAD
1000
AcDbSavedByObjectVersion
1070
     0
  0
VISUALSTYLE
  5
F7
102
{ACAD_XDICTIONARY
360
C7B5
102
}
102
{ACAD_REACTORS
330
EF
102
}
330
EF
100
AcDbVisualStyle
  2
Hidden
 70
     6
 71
     1
 72
     2
 73
     2
 90
        0
 40
-0.6
 41
-30.0
 62
     5
 63
     7
 74
     2
 91
        2
 64
     7
 65
   257
 75
     2
175
     1
 42
40.0
 92
        0
 66
   257
 43
1.0
 76
     1
 77
     6
 78
     2
 67
     7
 79
     3
170
     0
171
     0
290
     0
174
     0
 93
        1
 44
0.0
173
     0
291
     0
 45
0.0
1001
ACAD
1000
AcDbSavedByObjectVersion
1070
     0
  0
VISUALSTYLE
  5
1E4
102
{ACAD_XDICTIONARY
360
C7C9
102
}
102
{ACAD_REACTORS
330
EF
102
}
330
EF
100
AcDbVisualStyle
  2
JitterOff
 70
    20
 71
     2
 72
     2
 73
     0
 90
        0
 40
-0.6
 41
-30.0
 62
     5
 63
     7
 74
     1
 91
        4
 64
     7
 65
   257
 75
     1
175
     1
 42
1.0
 92
       10
 66
     7
 43
1.0
 76
     1
 77
     6
 78
     2
 67
     7
 79
     5
170
     0
171
     0
290
     0
174
     0
 93
        1
 44
0.0
173
     0
291
     1
 45
0.0
1001
ACAD
1000
AcDbSavedByObjectVersion
1070
     0
  0
VISUALSTYLE
  5
FD
102
{ACAD_XDICTIONARY
360
C7C1
102
}
102
{ACAD_REACTORS
330
EF
102
}
330
EF
100
AcDbVisualStyle
  2
Linepattern
 70
    14
 71
     2
 72
     2
 73
     1
 90
        0
 40
-0.6
 41
-30.0
 62
     5
 63
     7
 74
     1
 91
        4
 64
     7
 65
   257
 75
     7
175
     7
 42
1.0
 92
        8
 66
     7
 43
1.0
 76
     1
 77
     6
 78
     2
 67
     7
 79
     5
170
     0
171
     0
290
     0
174
     0
 93
        1
 44
0.0
173
     0
291
     1
 45
0.0
1001
ACAD
1000
AcDbSavedByObjectVersion
1070
     0
  0
VISUALSTYLE
  5
1E5
102
{ACAD_XDICTIONARY
360
C7CB
102
}
102
{ACAD_REACTORS
330
EF
102
}
330
EF
100
AcDbVisualStyle
  2
OverhangOff
 70
    21
 71
     2
 72
     2
 73
     0
 90
        0
 40
-0.6
 41
-30.0
 62
     5
 63
     7
 74
     1
 91
        4
 64
     7
 65
   257
 75
     1
175
     1
 42
1.0
 92
        9
 66
     7
 43
1.0
 76
     1
 77
     6
 78
     2
 67
     7
 79
     5
170
     0
171
     0
290
     0
174
     0
 93
        1
 44
0.0
173
     0
291
     1
 45
0.0
1001
ACAD
1000
AcDbSavedByObjectVersion
1070
     0
  0
VISUALSTYLE
  5
F9
102
{ACAD_XDICTIONARY
360
C7B9
102
}
102
{ACAD_REACTORS
330
EF
102
}
330
EF
100
AcDbVisualStyle
  2
Realistic
 70
     8
 71
     2
 72
     2
 73
     0
 90
        2
 40
-0.6
 41
30.0
 62
     5
 63
     7
 74
     0
 91
        0
 64
     7
 65
   257
 75
     1
175
     1
 42
1.0
 92
        8
 66
   257
 43
1.0
 76
     1
 77
     6
 78
     2
 67
     7
 79
     3
170
     0
171
     0
290
     0
174
     0
 93
       13
 44
0.0
173
     0
291
     0
 45
0.0
1001
ACAD
1000
AcDbSavedByObjectVersion
1070
     0
  0
VISUALSTYLE
  5
1F3
102
{ACAD_XDICTIONARY
360
C7D7
102
}
102
{ACAD_REACTORS
330
EF
102
}
330
EF
100
AcDbVisualStyle
  2
Shaded
 70
    27
 71
     2
 72
     2
 73
     1
 90
        2
 40
-0.6
 41
30.0
 62
     5
 63
     7
 74
     0
 91
        4
 64
     7
 65
   257
 75
     1
175
     1
 42
1.0
 92
        8
 66
   257
 43
1.0
 76
     1
 77
     6
 78
     2
 67
     8
 79
     3
170
     0
171
     0
290
     0
174
     0
 93
        5
 44
0.0
173
     0
291
     0
 45
0.0
1001
ACAD
1000
AcDbSavedByObjectVersion
1070
     0
  0
VISUALSTYLE
  5
1F2
102
{ACAD_XDICTIONARY
360
C7D5
102
}
102
{ACAD_REACTORS
330
EF
102
}
330
EF
100
AcDbVisualStyle
  2
Shaded with edges
 70
    26
 71
     2
 72
     2
 73
     1
 90
        2
 40
-0.6
 41
30.0
 62
     5
 63
     7
 74
     1
 91
        2
 64
     7
 65
   257
 75
     2
175
     1
 42
1.0
 92
        8
 66
   257
 43
1.0
 76
     1
 77
     6
 78
     2
 67
     7
 79
     3
170
     0
171
     0
290
     0
174
     0
 93
        5
 44
0.0
173
     0
291
     0
 45
0.0
1001
ACAD
1000
AcDbSavedByObjectVersion
1070
     0
  0
VISUALSTYLE
  5
1EF
102
{ACAD_XDICTIONARY
360
C7CF
102
}
102
{ACAD_REACTORS
330
EF
102
}
330
EF
100
AcDbVisualStyle
  2
Shades of Gray
 70
    23
 71
     2
 72
     2
 73
     3
 90
        0
 40
-0.6
 41
-30.0
 62
     5
 63
     7
 74
     2
 91
        2
 64
     7
 65
     7
 75
     1
175
     1
 42
40.0
 92
        8
 66
     7
 43
1.0
 76
     1
 77
     6
 78
     2
 67
     7
 79
     3
170
     0
171
     0
290
     0
174
     0
 93
        1
 44
0.0
173
     0
291
     0
 45
0.0
1001
ACAD
1000
AcDbSavedByObjectVersion
1070
     0
  0
VISUALSTYLE
  5
1F0
102
{ACAD_XDICTIONARY
360
C7D1
102
}
102
{ACAD_REACTORS
330
EF
102
}
330
EF
100
AcDbVisualStyle
  2
Sketchy
 70
    24
 71
     1
 72
     2
 73
     2
 90
        0
 40
-0.6
 41
-30.0
 62
     5
 63
     7
 74
     2
 91
        2
 64
     7
 65
     7
 75
     1
175
     1
 42
40.0
 92
       11
 66
     7
 43
1.0
 76
     1
 77
     6
 78
     2
 67
     7
 79
     6
170
     0
171
     0
290
     0
174
     0
 93
        1
 44
0.0
173
     0
291
     0
 45
0.0
1001
ACAD
1000
AcDbSavedByObjectVersion
1070
     0
  0
VISUALSTYLE
  5
FC
102
{ACAD_XDICTIONARY
360
C7BF
102
}
102
{ACAD_REACTORS
330
EF
102
}
330
EF
100
AcDbVisualStyle
  2
Thicken
 70
    13
 71
     2
 72
     2
 73
     1
 90
        0
 40
-0.6
 41
-30.0
 62
     5
 63
     7
 74
     1
 91
        4
 64
     7
 65
   257
 75
     1
175
     1
 42
1.0
 92
       12
 66
     7
 43
1.0
 76
     1
 77
     6
 78
     2
 67
     7
 79
     5
170
     0
171
     0
290
     0
174
     0
 93
        1
 44
0.0
173
     0
291
     1
 45
0.0
1001
ACAD
1000
AcDbSavedByObjectVersion
1070
     0
  0
VISUALSTYLE
  5
F6
102
{ACAD_XDICTIONARY
360
C7B3
102
}
102
{ACAD_REACTORS
330
EF
102
}
330
EF
100
AcDbVisualStyle
  2
Wireframe
 70
     5
 71
     0
 72
     2
 73
     0
 90
        0
 40
-0.6
 41
-30.0
 62
     5
 63
     7
 74
     1
 91
        4
 64
     7
 65
   257
 75
     1
175
     1
 42
1.0
 92
        0
 66
   257
 43
1.0
 76
     1
 77
     6
 78
     2
 67
     7
 79
     3
170
     0
171
     0
290
     0
174
     0
 93
        1
 44
0.0
173
     0
291
     0
 45
0.0
1001
ACAD
1000
AcDbSavedByObjectVersion
1070
     0
  0
VISUALSTYLE
  5
1F1
102
{ACAD_XDICTIONARY
360
C7D3
102
}
102
{ACAD_REACTORS
330
EF
102
}
330
EF
100
AcDbVisualStyle
  2
X-Ray
 70
    25
 71
     2
 72
     2
 73
     1
 90
        1
 40
0.5
 41
-30.0
 62
     5
 63
     7
 74
     1
 91
        0
 64
     7
 65
   257
 75
     1
175
     1
 42
1.0
 92
        8
 66
     7
 43
1.0
 76
     1
 77
     6
 78
     2
 67
     7
 79
     3
170
     0
171
     0
290
     0
174
     0
 93
       13
 44
0.0
173
     0
291
     0
 45
0.0
1001
ACAD
1000
AcDbSavedByObjectVersion
1070
     0
  0
DICTIONARYVAR
  5
146
102
{ACAD_REACTORS
330
5E
102
}
330
5E
100
DictionaryVariables
280
     0
  1
1:1
  0
DICTIONARYVAR
  5
259
102
{ACAD_REACTORS
330
5E
102
}
330
5E
100
DictionaryVariables
280
     0
  1
3.500000
  0
DICTIONARYVAR
  5
25A
102
{ACAD_REACTORS
330
5E
102
}
330
5E
100
DictionaryVariables
280
     0
  1
acadiso.lin
  0
DICTIONARYVAR
  5
145
102
{ACAD_REACTORS
330
5E
102
}
330
5E
100
DictionaryVariables
280
     0
  1
STANDARD
  0
DICTIONARYVAR
  5
84
102
{ACAD_REACTORS
330
5E
102
}
330
5E
100
DictionaryVariables
280
     0
  1
STANDARD
  0
DICTIONARYVAR
  5
227
102
{ACAD_REACTORS
330
5E
102
}
330
5E
100
DictionaryVariables
280
     0
  1
Metric50
  0
DICTIONARYVAR
  5
228
102
{ACAD_REACTORS
330
5E
102
}
330
5E
100
DictionaryVariables
280
     0
  1
Metric50
  0
DICTIONARYVAR
  5
5F
102
{ACAD_REACTORS
330
5E
102
}
330
5E
100
DictionaryVariables
280
     0
  1
2
  0
DICTIONARYVAR
  5
63
102
{ACAD_REACTORS
330
5E
102
}
330
5E
100
DictionaryVariables
280
     0
  1
1
  0
DICTIONARYVAR
  5
C748
102
{ACAD_REACTORS
330
5E
102
}
330
5E
100
DictionaryVariables
280
     0
  1
0
  0
DICTIONARYVAR
  5
1AE
102
{ACAD_REACTORS
330
5E
102
}
330
5E
100
DictionaryVariables
280
     0
  1
0
  0
DICTIONARYVAR
  5
1AF
102
{ACAD_REACTORS
330
5E
102
}
330
5E
100
DictionaryVariables
280
     0
  1
0
  0
DICTIONARYVAR
  5
C746
102
{ACAD_REACTORS
330
5E
102
}
330
5E
100
DictionaryVariables
280
     0
  1
2
  0
DICTIONARYVAR
  5
C745
102
{ACAD_REACTORS
330
5E
102
}
330
5E
100
DictionaryVariables
280
     0
  1
1
  0
DICTIONARYVAR
  5
C798
102
{ACAD_REACTORS
330
5E
102
}
330
5E
100
DictionaryVariables
280
     0
  1
80.000000
  0
DICTIONARYVAR
  5
C797
102
{ACAD_REACTORS
330
5E
102
}
330
5E
100
DictionaryVariables
280
     0
  1
5.000000
  0
DICTIONARYVAR
  5
C747
102
{ACAD_REACTORS
330
5E
102
}
330
5E
100
DictionaryVariables
280
     0
  1
127
  0
DICTIONARYVAR
  5
C799
102
{ACAD_REACTORS
330
5E
102
}
330
5E
100
DictionaryVariables
280
     0
  1
2
  0
DICTIONARY
  5
C7DB
330
21C
100
AcDbDictionary
280
     1
281
     1
  3
ACAD_XREC_ROUNDTRIP
360
C7DC
  0
DICTIONARY
  5
C7A0
330
D3
100
AcDbDictionary
280
     1
281
     1
  3
ACAD_XREC_ROUNDTRIP
360
C7A1
  0
DICTIONARY
  5
C7A2
330
D7
100
AcDbDictionary
280
     1
281
     1
  3
ACAD_XREC_ROUNDTRIP
360
C7A3
  0
DICTIONARY
  5
C79D
330
22
100
AcDbDictionary
280
     1
281
     1
  3
ACAD_XREC_ROUNDTRIP
360
C79E
  0
DICTIONARY
  5
1F9
330
ED
100
AcDbDictionary
280
     1
281
     1
  3
ACAD_XREC_ROUNDTRIP
360
C7A5
  3
FBXASSET
360
1FA
  0
DICTIONARY
  5
1F7
330
EC
100
AcDbDictionary
280
     1
281
     1
  3
ACAD_XREC_ROUNDTRIP
360
C7A4
  3
FBXASSET
360
1F8
  0
DICTIONARY
  5
173
330
EE
100
AcDbDictionary
280
     1
281
     1
  3
ACAD_XREC_ROUNDTRIP
360
C7A6
  3
BUMPTILE
360
175
  3
DIFFUSETILE
360
174
  3
FBXASSET
360
1FB
  3
OPACITYTILE
360
176
  3
REFLECTIONTILE
360
177
  0
DICTIONARY
  5
C7C7
330
12E
100
AcDbDictionary
280
     1
281
     1
  3
ACAD_XREC_ROUNDTRIP
360
C7C8
  0
DICTIONARY
  5
C7D9
330
21A
100
AcDbDictionary
280
     1
281
     1
  3
ACAD_XREC_ROUNDTRIP
360
C7DA
  0
DICTIONARY
  5
162
330
7F
100
AcDbDictionary
280
     1
281
     1
  3
ACAD_ROUNDTRIP_2008_TABLESTYLE_CELLSTYLEMAP
360
C79A
  3
ACAD_XREC_ROUNDTRIP
360
C79F
  0
DICTIONARY
  5
C7B1
330
F5
100
AcDbDictionary
280
     1
281
     1
  3
ACAD_XREC_ROUNDTRIP
360
C7B2
  0
DICTIONARY
  5
C7AF
330
F4
100
AcDbDictionary
280
     1
281
     1
  3
ACAD_XREC_ROUNDTRIP
360
C7B0
  0
DICTIONARY
  5
C7BD
330
FB
100
AcDbDictionary
280
     1
281
     1
  3
ACAD_XREC_ROUNDTRIP
360
C7BE
  0
DICTIONARY
  5
C7C5
330
FF
100
AcDbDictionary
280
     1
281
     1
  3
ACAD_XREC_ROUNDTRIP
360
C7C6
  0
DICTIONARY
  5
C7B7
330
F8
100
AcDbDictionary
280
     1
281
     1
  3
ACAD_XREC_ROUNDTRIP
360
C7B8
  0
DICTIONARY
  5
C7BB
330
FA
100
AcDbDictionary
280
     1
281
     1
  3
ACAD_XREC_ROUNDTRIP
360
C7BC
  0
DICTIONARY
  5
C7CD
330
1E6
100
AcDbDictionary
280
     1
281
     1
  3
ACAD_XREC_ROUNDTRIP
360
C7CE
  0
DICTIONARY
  5
C7C3
330
FE
100
AcDbDictionary
280
     1
281
     1
  3
ACAD_XREC_ROUNDTRIP
360
C7C4
  0
DICTIONARY
  5
C7A7
330
F0
100
AcDbDictionary
280
     1
281
     1
  3
ACAD_XREC_ROUNDTRIP
360
C7A8
  0
DICTIONARY
  5
C7A9
330
F1
100
AcDbDictionary
280
     1
281
     1
  3
ACAD_XREC_ROUNDTRIP
360
C7AA
  0
DICTIONARY
  5
C7AB
330
F2
100
AcDbDictionary
280
     1
281
     1
  3
ACAD_XREC_ROUNDTRIP
360
C7AC
  0
DICTIONARY
  5
C7AD
330
F3
100
AcDbDictionary
280
     1
281
     1
  3
ACAD_XREC_ROUNDTRIP
360
C7AE
  0
DICTIONARY
  5
C7B5
330
F7
100
AcDbDictionary
280
     1
281
     1
  3
ACAD_XREC_ROUNDTRIP
360
C7B6
  0
DICTIONARY
  5
C7C9
330
1E4
100
AcDbDictionary
280
     1
281
     1
  3
ACAD_XREC_ROUNDTRIP
360
C7CA
  0
DICTIONARY
  5
C7C1
330
FD
100
AcDbDictionary
280
     1
281
     1
  3
ACAD_XREC_ROUNDTRIP
360
C7C2
  0
DICTIONARY
  5
C7CB
330
1E5
100
AcDbDictionary
280
     1
281
     1
  3
ACAD_XREC_ROUNDTRIP
360
C7CC
  0
DICTIONARY
  5
C7B9
330
F9
100
AcDbDictionary
280
     1
281
     1
  3
ACAD_XREC_ROUNDTRIP
360
C7BA
  0
DICTIONARY
  5
C7D7
330
1F3
100
AcDbDictionary
280
     1
281
     1
  3
ACAD_XREC_ROUNDTRIP
360
C7D8
  0
DICTIONARY
  5
C7D5
330
1F2
100
AcDbDictionary
280
     1
281
     1
  3
ACAD_XREC_ROUNDTRIP
360
C7D6
  0
DICTIONARY
  5
C7CF
330
1EF
100
AcDbDictionary
280
     1
281
     1
  3
ACAD_XREC_ROUNDTRIP
360
C7D0
  0
DICTIONARY
  5
C7D1
330
1F0
100
AcDbDictionary
280
     1
281
     1
  3
ACAD_XREC_ROUNDTRIP
360
C7D2
  0
DICTIONARY
  5
C7BF
330
FC
100
AcDbDictionary
280
     1
281
     1
  3
ACAD_XREC_ROUNDTRIP
360
C7C0
  0
DICTIONARY
  5
C7B3
330
F6
100
AcDbDictionary
280
     1
281
     1
  3
ACAD_XREC_ROUNDTRIP
360
C7B4
  0
DICTIONARY
  5
C7D3
330
1F1
100
AcDbDictionary
280
     1
281
     1
  3
ACAD_XREC_ROUNDTRIP
360
C7D4
  0
XRECORD
  5
C7DC
102
{ACAD_REACTORS
330
C7DB
102
}
330
C7DB
100
AcDbXrecord
280
     1
102
DISPLAYNAME
  1
Metric50
102
FLAGS
 90
        0
  0
XRECORD
  5
C7A1
102
{ACAD_REACTORS
330
C7A0
102
}
330
C7A0
100
AcDbXrecord
280
     1
102
SHADEPLOT
 70
     0
102
SHADEPLOTRESLEVEL
 70
     2
102
SHADEPLOTCUSTOMDPI
 70
   300
  0
XRECORD
  5
C7A3
102
{ACAD_REACTORS
330
C7A2
102
}
330
C7A2
100
AcDbXrecord
280
     1
102
SHADEPLOT
 70
     0
102
SHADEPLOTRESLEVEL
 70
     2
102
SHADEPLOTCUSTOMDPI
 70
   300
  0
XRECORD
  5
C79E
102
{ACAD_REACTORS
330
C79D
102
}
330
C79D
100
AcDbXrecord
280
     1
102
SHADEPLOT
 70
     0
102
SHADEPLOTRESLEVEL
 70
     2
102
SHADEPLOTCUSTOMDPI
 70
   300
  0
XRECORD
  5
C7A5
102
{ACAD_REACTORS
330
1F9
102
}
330
1F9
100
AcDbXrecord
280
     1
102
MATERIAL
148
0.0
149
0.0
149
0.0
 93
        0
 94
       63
282
     0
 72
     1
 77
     1
171
     1
175
     1
179
     1
273
     0
  0
XRECORD
  5
1FA
102
{ACAD_REACTORS
330
1F9
102
}
330
1F9
100
AcDbXrecord
280
     1
 70
     1
 90
429727718
  1
D62C5603-E3A1-4AEA-B7FB-FE5D8D0755AF
310
504B03040A0000080000CC70623B3DEE336E79000000790000001B0000006175746F6465736B2D64657369676E2D7061636B6167652E786D6C3C3F786D6C2076657273696F6E3D22312E302220656E636F64696E673D227574662D3822203F3E3C666F726D6174733E3C666F726D61743E687474703A2F2F736368656D612E
310
6175746F6465736B2E636F6D2F64657369676E2D7061636B6167652F323030393C2F666F726D61743E3C2F666F726D6174733E504B0304140006080800CC70623BD486FD9CA0000000F4000000130000005B436F6E74656E745F54797065735D2E786D6C7D8EC10E82300C865F65E91D8A1E8C310C0EEA1BF002731658846E
310
D98AC1B77784ABF1D8FE5FBFBF75BBCE937A534CCEB38643598122B6FEE978D0B0485F9C41B54DDD7D022595594E1A469170414C76A4D9A4D207E29CF43ECE46F218070CC6BECC4078ACAA135ACF422C856C0E68EA1BF5669944DDD7BCDE7B1F8E415D77AECB980613C2E4AC91FC167A2B244592486606FC29C8FD7F045B9A
310
EF7053A7E60B504B0304140006080800CC70623B853B8169EB0000007C01000008000000636F72652E786D6C8D90416EC3201045AF62CDB6C206821CC7C244919D9CA01740401C94182C03558F5F9C3852BBEB6A467FFE9B197D7EFC9E1EC5975982F5AE035262288C535E5B377690E21535501C055FBC8FBF6C503839990E
310
5619041F179FE64D52DE45E362569DD7661365082642A11EB9E920A89B99642953CC8E702F67A9EE7234257977194EC9EAE275C4EABCCF5EAD5940D4AC6F0E35A568B8F43562CD7046CD199FD07E60174276A7BE677B5EADB0E0D14EEFFB6A31321A0D82627C4084204C3F096B71DD52F6819B16635EADF63F509AF53FA164
310
5DDCD1EDDD17164090FCC8732078B56691CB33A85CD7DCC40F504B0304140006080800CC70623B55019EA25F0000007C00000007000000636E782E786D6C4DCB3B0E80201045D1AD90E915ED2CF8AC45050C11660C8261F98AB1B07AC9C97D42D718D865D3E909258CFD00CCE24AC6E326A164D74DC0B4128928FF32603847
310
2BA13128B1252AC747C6BAB984FC68F0B87FE8960A5C09FE86CFB69FBA01504B0304140006080800CC70623BDBABAAF470010000D40300000C0000006662782F636F72652E786D6CC553D16E823014FD95A6AF4B694182CC941A83FA05FB810A9511A125A5257EFE2E82712ECEB8A7F100CD39F7F69E734AF9FADC366850B6
310
AF8DCE7018308C942E4C59EB2AC3DE1D498AD15A706B8CFB56869196ADCAF00863C12B6B7C374385D14E6907A836A59A41D9F7CA615434B0C8705F7CAA5606D23BA8E84F41278B93AC54100640439DE0BDB320004D43C63716C7C399D30917DCFBBA9CD9BA8469F5B156168B24CED3F7248AC8769F27244EB73B92EED8862C
310
B7F13E0C179B3C8F979C8ECD82BBBABDAA2BAC924E9558448CBD9330242CFA08E3154B5651FCC6D215639C8EE5774DBE2B5F6CF2B5768B68963BB5F5588420E442FC700B1139D4CB01F450C1E918227C2E09DF070D8140C84E1E9AAB8F1340832A9CB13130A5F1376A908D57309505ECF2A0DF179C4E9D30F5B239B87E3823
310
7A79C6F31DE1A8A5AEC08474B03C7837EAE4938639B44E5932B833D2C6B6B279CDC613877FA26EE21F4A2A4C63EC7F29A2F301D1F9F7A0E37D145F504B0304140006080800CC70623B9C113CC27E0000009D0000000B0000006662782F636E782E786D6C4DCCDF0A83201C86E15B91DFB94BFB330DD428C8FB886521330DA7
310
6397BF1A1DECE883878F57749FCDA1B7892F1BBC047A23808C7F84D9FA55424E0BE6803A256208E9EF06C84F9B91703228B1C690F78B66B34CD9A5439DF5CF0BFBF65E35BCA1B8D6A5C6F540381E886698B5741C695F9503EBA150A2F8958E3DC3EA0B504B0304140006080800CC70623B7DF2F77C2A010000120200003100
310
00006662782F41393633353835312D344632462D344230382D423046372D3739314545314133324237412F636F72652E786D6C8D51DB8EC22014FC15C2939B0D2DB4B45643319AE817EC0F6041255A68B86CFCFC856D4D76DF7CE190393373060EDB3DC707F856CE6B6B7A480A0C81328395DA5C7B18C3057510EC3873D686
310
3F34088C18550F330C39BB3A1BA7051AAC09CA84841A2BD5020AEF55806078A44B0FFD7053A328440C89E1EFC52486BBB8AA8214A99D789CF9E05200300FC927E4FB4D5B375D43103D5527440FB843077C5AA3F5861C8F645F5787F59E95B390B318B55CE45AA638FAA2957BD7248B390B7A7CC51F9C124149C82B8C378810
310
84AB2F42B7B8DD56F413775B8C5999E9FF4471926F8AA236A1AE96B8B3CC434E5839373893369E1FAF30EA395917409EB7F26AF8801C171837A4A6AC9C89E9F9C9B1A58BA30FD6A5EF5DDDCF894B9AD9B6A59C957943A9FCAE2FD5BC4DFE03504B0304140006080800CC70623BAD7543B64E01000033030000300000006662
310
782F41393633353835312D344632462D344230382D423046372D3739314545314133324237412F636E782E786D6CD593CD6EC32010845F0571AD6CE3D48AD20813A9873E410FBD12D82434182C7EAAE6EDBB2424CD25871E7B41D6EC30B3FA84F9E67BB2E40B4234DE8DB46F1925E094D7C6ED479AD3AE5951B2113C789FEE
310
6C943839C1488B4C05DF079FE72A69D8C96C13AAD6B8631503449F83828872B949AC57D26200B826A308D316B4064D6E46FCDA41C05550DC9E483A00797BFD207EFB092A45DE9514C1BBD22178396BD39D891265658C238DEA00936C654E5E433CB65A26D9F6EDB5EBC14EBF49A45CB856E66048291F6939A9A81BB5C89177
310
38143CA680F4AA299D66A042CEB3354A2684DC9D8D178FE0D9B8B41CAAD720F880EE7EF93C0C18769E099ECC04D5A102C8049A8A05632F4DDF376CF1DE0F6BB65C2F8627B65A33C6BB62177CEBBDAD973006829F89F22E814B54F4BC2BE347F8AA8F681390B50FA73F804400B5F542E796F19FF974E7F78DB802FE05E20750
310
4B0304140006080800CC70623BE75B7789680500003C100000340000006662782F41393633353835312D344632462D344230382D423046372D3739314545314133324237412F6F626A656374732E786D6CAD575B8F9B3818FD2B887D06C22499CB8AA1CA655245D5B455A356FB305264C061D8018C6C3393D95FBFC7600890
310
A4CD5EF210B0B1BFEBF98E3F7B1FF6596ABC522E1296DF9BAE3D320D9A872C4AF2F8DE2CE5CEBA358D0FBEC719939D65A691938CDE9B6ADAF4BD98B3B2D05311DD91329583D9D5FC0F438434A7A611A644887B5384CF34233629258BA878B12322891DEFF6B66BD70BFB62634E8AE781D082709A4B588AF91C528CDA28B73F
310
1C998EEF39EABBEFA97FBD6A7C7E9553F9D3D79FE442923C3C523610337627CB87ABE99D359D4CC6D6E4FACAB5E6ABF9D2726FC6A3C5F56271377BB88362213924694B38DD99FE47C48627A1E7D49F5A8BB5E1A74C0A599ED3B0F21F1E56366B89112D681E218F0915D0D6F17AD41FBA2A369DCF6335D62ABBD39779D5DDD1
310
11D4D8DE3CBB96B2E04FB8202E41051754A1AA8E8F76B4C6DFE810B580B1547F4B84911149794252234D024EF8BBE963A95AE27B3D310A9D5C215C7960FAEE415ED75694C6AFB17BCACA5D99A60A9AA65F217B0BFC53292ACB92BF283FAD0D3621576592CB5BED907C2FA8E9DF794E35E97BEA31BED21FEB401ABB94C44839
310
DCACBF0E1C5DA8DA5B2F4DFFD32AD86F543D9E565E7056502E157C00AD2671CD534549AB752FCA9CDA00677A313F04E51B22FF19E57B300579E3C97EB29F682D92935CEC18CF901B7B54FD8C51F362B56FC72FE0B3C1EAE335EDCCBF5AEC39ADB17DC238973F804BA5E6F6BFE7AF1FB32E523BE9F3BD571418E3631DCA4D48
310
5250CF639223210A9446CA30052EDF057BD35F8329C1ECD84552BF0DC8D18BE7BCE23BFE6BD960AB4A7DE79923A103BEBD80F911CBAA2C60DB19B01CF164A5583B772EE6D3FFA56666CBCDA74DC97724A48F9A58967497E489C4D979006FD7A05E227A1EBDD0F737C623387A9C844D3709995625106D157315F8B8392CD4E0
310
A0B9A720C4BE9829CEF37EA1E13111214D53925356365ADA634861B52519DD27A00AEB808EAF0628E6F435519D446F45CF2C9CF5214F0A15B2F6D06B79DA3EE3CBF7F56780D2F4E7EF73A0F5E5B02A38D07DC852C6B7C1FBB6664213E0C39E3EBA7FF4E1AD23EA2829407C85E586727488B751B2DB9502BC7B228A3FD68B6E
310
A65A22397E690AA8D158D7E404EC8CDA235CC3B7D1898680131CEC2CDF2638C65196279577750F15884AEE19F94199155B92B13297978469D4F8D358DF0AEF7631E28DC8F0D9F437D5D39A83B2231A1D52D543813A824EF8D44BCFF2FA6A31BD1E8DAD87F1CCB526B3879935BF59CDADD5C37479BB1CDD4CA7B3556B516589
310
EF352754B706114D9C885EC9131DE6EFEB43D99AFE2391C2F958179413D7CFEF6B1B6DB1E7600F00DE6E5C67454A339A4BA2E0FBA85ED26F045D454F463DBFCE484C2F90F2E5E3666003662ED8F755951A7D1BECD5B30B550B2785C8E7320B7292A4838DDA71BBC863ED7613CAF659337A3354231D4FF4A182A54904C2898C
310
98B28C4AD0CE056CCF332A80986E571EE9DBC305BB5FEB7E509220A58D25CF042D712A806AC0AD0C657FDEF80D2D9CEAA2EE4D1C76F60BFE74219A06527D6F82DF6412526107381E55E353090704D085B52408A8913C4ED159D79BDA71BB4BC506F4831350EB6F975CD22D69BF7AC49B91A2C0A9DDA3D5CA36AD20FC478E37
310
E61844E2352865EBCB61A275A65283CAAA9DD27703B4102F5AF51EF5F573B75CBB5AD38BC845F7A49F82A0966A49C2E3EA5EA0ECD326CD965F1DB402C6FA8B51A4658C5C5E2EC9E214602E55810345408596591009A82E7E7FFACA19EEA299B14A0081A705CB3296EBC14CDF658DCD336EA6D1136881AAEB87B81AB9EE53D5
310
F5EB8BC8362082DA24122F98680A4E7930C01A0079749CEA14382A0783E5EBA5A10F8C098456A03D6A4AEB6BB881E2513747552A5DB22C7EDAF83BD5528081A365F7FF06504B0304140006080000CC70623B000000000000000000000000350000006662782F41393633353835312D344632462D344230382D423046372D37
310
39314545314133324237412F76657274696365732E62696E504B0304140006080800CC70623BF270F1330600000004000000360000006662782F41393633353835312D344632462D344230382D423046372D3739314545314133324237412F747269616E676C65732E62696E636660600000504B0304140006080000CC7062
310
3B000000000000000000000000370000006662782F41393633353835312D344632462D344230382D423046372D3739314545314133324237412F617474726962757465732E62696E504B0304140006080800CC70623B08DA0BD19000000041010000360000006662782F41393633353835312D344632462D344230382D4230
310
46372D3739314545314133324237412F6469726563746F72792E786D6C858F410AC3201045AF22B36F53E9A60B35CBEEBAE80D244E44489C6234F4F835464A48035D0DF398FF9F8AF63D0E6CC63039F212F8F9020C7D47C6792B21C5FE7403D62A1188E2E60C98D7234A5830286103A55745067B9D86B8A3CF9C7F90C11DE6
310
07FB144396D7B6A82D282E9A152AD114D5EF2CB866EEE831B8EEA07A7BB5A8D7D61A2BAAEB7FD5F70921FF497D00504B0304140006080800CC70623BEDD1DC58FD000000A00100003B0000006662782F41393633353835312D344632462D344230382D423046372D3739314545314133324237412F7265736F75726365732F
310
636F72652E786D6C8D504B6E833010BD0A9A6D65B00922041947112427E8052C33A156828DFCA97AFC9A40A576D7CDCCE87D344F8F9FBFE667F689CE6B6B3A6039850C8DB2A336530731DC4903D95970676DF82583CCC8193B5861107C72362E3BA4AC096842428D1D7107A5F7182053CF7474E0D507CE32973124857FE48B
310
540F3961CEF244279DE03EB81420DB9EAC1384436FA353E879B1B182C7A8C75DA3C7F453DF353A1075D537A7BA6464B8F535A99AE14A9A2BBD90E350DD183B5CFABE3AF262350B1EF4FC9351399401471025A527C218A1E53BAB5A5AB765F5469B96525EACF23FA6B88CFF34456DC2A1DCE36E360F82A5202F42F062ED2BAD
310
579969AFDD8A6F504B010214000A0000080000CC70623B3DEE336E79000000790000001B00000000000000000000000000000000006175746F6465736B2D64657369676E2D7061636B6167652E786D6C504B01021400140006080800CC70623BD486FD9CA0000000F40000001300000000000000000000000000B20000005B
310
436F6E74656E745F54797065735D2E786D6C504B01021400140006080800CC70623B853B8169EB0000007C010000080000000000000000000000000083010000636F72652E786D6C504B01021400140006080800CC70623B55019EA25F0000007C000000070000000000000000000000000094020000636E782E786D6C504B
310
01021400140006080800CC70623BDBABAAF470010000D40300000C00000000000000000000000000180300006662782F636F72652E786D6C504B01021400140006080800CC70623B9C113CC27E0000009D0000000B00000000000000000000000000B20400006662782F636E782E786D6C504B01021400140006080800CC70
310
623B7DF2F77C2A010000120200003100000000000000000000000000590500006662782F41393633353835312D344632462D344230382D423046372D3739314545314133324237412F636F72652E786D6C504B01021400140006080800CC70623BAD7543B64E010000330300003000000000000000000000000000D2060000
310
6662782F41393633353835312D344632462D344230382D423046372D3739314545314133324237412F636E782E786D6C504B01021400140006080800CC70623BE75B7789680500003C10000034000000000000000000000000006E0800006662782F41393633353835312D344632462D344230382D423046372D3739314545
310
314133324237412F6F626A656374732E786D6C504B01021400140006080000CC70623B0000000000000000000000003500000000000000000000000000280E00006662782F41393633353835312D344632462D344230382D423046372D3739314545314133324237412F76657274696365732E62696E504B01021400140006
310
080800CC70623BF270F133060000000400000036000000000000000000000000007B0E00006662782F41393633353835312D344632462D344230382D423046372D3739314545314133324237412F747269616E676C65732E62696E504B01021400140006080000CC70623B0000000000000000000000003700000000000000
310
000000000000D50E00006662782F41393633353835312D344632462D344230382D423046372D3739314545314133324237412F617474726962757465732E62696E504B01021400140006080800CC70623B08DA0BD1900000004101000036000000000000000000000000002A0F00006662782F41393633353835312D344632
310
462D344230382D423046372D3739314545314133324237412F6469726563746F72792E786D6C504B01021400140006080800CC70623BEDD1DC58FD000000A00100003B000000000000000000000000000E1000006662782F41393633353835312D344632462D344230382D423046372D3739314545314133324237412F7265
310
736F75726365732F636F72652E786D6C504B0506000000000E000E0080040000641100000000
  0
XRECORD
  5
C7A4
102
{ACAD_REACTORS
330
1F7
102
}
330
1F7
100
AcDbXrecord
280
     1
102
MATERIAL
148
0.0
149
0.0
149
0.0
 93
        0
 94
       63
282
     0
 72
     1
 77
     1
171
     1
175
     1
179
     1
273
     0
  0
XRECORD
  5
1F8
102
{ACAD_REACTORS
330
1F7
102
}
330
1F7
100
AcDbXrecord
280
     1
 70
     1
 90
429727718
  1
30362254-06B7-45E0-A893-8CFA70E3D6BC
310
504B03040A0000080000CC70623B3DEE336E79000000790000001B0000006175746F6465736B2D64657369676E2D7061636B6167652E786D6C3C3F786D6C2076657273696F6E3D22312E302220656E636F64696E673D227574662D3822203F3E3C666F726D6174733E3C666F726D61743E687474703A2F2F736368656D612E
310
6175746F6465736B2E636F6D2F64657369676E2D7061636B6167652F323030393C2F666F726D61743E3C2F666F726D6174733E504B0304140006080800CC70623BD486FD9CA0000000F4000000130000005B436F6E74656E745F54797065735D2E786D6C7D8EC10E82300C865F65E91D8A1E8C310C0EEA1BF002731658846E
310
D98AC1B77784ABF1D8FE5FBFBF75BBCE937A534CCEB38643598122B6FEE978D0B0485F9C41B54DDD7D022595594E1A469170414C76A4D9A4D207E29CF43ECE46F218070CC6BECC4078ACAA135ACF422C856C0E68EA1BF5669944DDD7BCDE7B1F8E415D77AECB980613C2E4AC91FC167A2B244592486606FC29C8FD7F045B9A
310
EF7053A7E60B504B0304140006080800CC70623B1EC5D7A3EB0000007C01000008000000636F72652E786D6C8D90416EC3201045AF82665B6103C6756C6122AB4D4ED00B204C5C94182C03558F5F9C3852BBEB6A467FFE9B197D71FC9E6FE8CBACC17AD7032D0820E3B41FAD9B7A48F1820F808E52ACDEC75F36404ECDA687
310
4D0629A6D5A76597B477D1B89855E747B38B2A041301E95B6E7A08FAD3CCAA50296647B8168BD2573599823EBB0CA76447F43862C7BCCF5EAC59410E4DDD9C7973C2755553CCCFA4C603E3040F1565ED3B1FDE4E432BCA0D9622DAF9795FAF464533826484B498524CD807E51D79ED187F21878E10516EF63F505AC67F42C9
310
BA58B1FDDD071640D2FCC87D2045B96591CB3DA85CB7DCE40F504B0304140006080800CC70623B55019EA25F0000007C00000007000000636E782E786D6C4DCB3B0E80201045D1AD90E915ED2CF8AC45050C11660C8261F98AB1B07AC9C97D42D718D865D3E909258CFD00CCE24AC6E326A164D74DC0B4128928FF32603847
310
2BA13128B1252AC747C6BAB984FC68F0B87FE8960A5C09FE86CFB69FBA01504B0304140006080800CC70623B8C9102E971010000D40300000C0000006662782F636F72652E786D6CC5535B6E833010BC8AE5DF0A6C08340F1947A84D4ED00B38C6A128602363A31CBFCB234A53A551FA553EC09AD9F5CE8C31DB9E9B1AF5CA
310
7695D1198E428A91D2D214952E33ECDD315861B4E5CC1AE3BE9561A445A3323CC098B3D21ADFCE9034DA29ED00D5A6503328BA4E398C640D8B0C77F253352214DE4145770A5B214FA2546114020D759C75CE8200340D19DE981F0F6746269C33EFAB6266AB02A655C74A59CCF365BADC27CB5D902ED22848F6340DF238A141
310
BE88E2F57B92BFEDF23523433367AE6A2EEAA455C2A902F398D2751045018D3FA264435F3771F242571B4A1919CA6F9A7C5B3CD9E42BED16F12C776AEB308F40C848FC700B1139D4891EF410CEC810227CC6846F8386402064270EF5C5C709A05E49676C024C61FC95EA45ED154CA5211D1FF4FB8291A913A68E9B83EBBB33
310
E2A7673CDE118E5AE8124C0807CB8377834E366998436B950D7A7746DAD846D4CFD978E0F04FD455FC5D49D2D4C6FE9722321F10997F0F32DC47FE05504B0304140006080800CC70623BFFEA85907E0000009D0000000B0000006662782F636E782E786D6C4DCCD10A83201886E15B91FFDC95D95A811AB6F23E625948A6C3
310
E9D8E5AF46073BFAE0E1E365ED67B3E8ADC3CB78C7815C7240DA3DFC64DCC221C519D7805AC182F7F1EF06C88D9BE6703008B6049F9E274D7A1E938DBB5AE3D6131B2589BA0D3D965551E0B2EA732C9B9A624AAEB41E3A557677029960D9AFB4EF11165F504B0304140006080800CC70623B4FEEA4082C0100001202000031
310
0000006662782F39464131463745442D413632322D343644302D413938332D3331353338454246344243312F636F72652E786D6C8D515B6EC32010BC0AE2AB55850DD871ED0813254D72825EC00192A2C460F1A872FC42ED48ED5F7E00CDCECCCEB26C731F6FE05B39AFADE921293004CA082BB5B9F43086336A21D870E6AC
310
0D7F68109861543DCC30E4ECE26C9C164858139409093556AA051CBC570102714B8F1E7AF1A5C6A11862480C7F2DA6415C878B2A4891CA89C7990F2E050073937C42DE1DB7E4F87ED8A36D4329AA9B3D46DBAEAD504556557BD81DEBDD0761E52CE42C462D17B996298E3E6BE59E35C962CE821E1FF18553435012728A7187
310
0841987E927A8D9B35ADDF70BBC6989599FE4F1427F9A4286A132ABAC49D651EF234CD5CE04CDA78BA3DC2A8FB645D00B9DF8B57E215725C60BCA2A463E54C4CE327C7A65E1C7DB02E7DEFCBF594B864C5CA6CDBD49C957943E9FA5D5FBAF336F90F504B0304140006080800CC70623BAD7543B64E01000033030000300000
310
006662782F39464131463745442D413632322D343644302D413938332D3331353338454246344243312F636E782E786D6CD593CD6EC32010845F0571AD6CE3D48AD20813A9873E410FBD12D82434182C7EAAE6EDBB2424CD25871E7B41D6EC30B3FA84F9E67BB2E40B4234DE8DB46F1925E094D7C6ED479AD3AE5951B2113C
310
789FEE6C943839C1488B4C05DF079FE72A69D8C96C13AAD6B8631503449F83828872B949AC57D26200B826A308D316B4064D6E46FCDA41C05550DC9E483A00797BFD207EFB092A45DE9514C1BBD22178396BD39D891265658C238DEA00936C654E5E433CB65A26D9F6EDB5EBC14EBF49A45CB856E66048291F6939A9A81BB5
310
C8917738143CA680F4AA299D66A042CEB3354A2684DC9D8D178FE0D9B8B41CAAD720F880EE7EF93C0C18769E099ECC04D5A102C8049A8A05632F4DDF376CF1DE0F6BB65C2F8627B65A33C6BB62177CEBBDAD973006829F89F22E814B54F4BC2BE347F8AA8F681390B50FA73F804400B5F542E796F19FF974E7F78DB802FE05
310
E207504B0304140006080800CC70623B16AB87BA640500003C100000340000006662782F39464131463745442D413632322D343644302D413938332D3331353338454246344243312F6F626A656374732E786D6CAD575B6FA33818FD2B887DE6924B3BED8A326A92B68A663B534DD4D13E548A0C38942D60649B369D5FBFC7
310
600890A493BDE42160637FD7F31D7FF63E6FB3D478A55C242CBF3247B66B1A340F5994E4F19559CA8D75611A9F7D8F33263BCB4C232719BD32D5B4E97B316765A1A722BA21652A07B3B7B33F0D11D29C9A46981221AE4C113ED38CD8A4942CA2E2C58E882476BCD9DA23BB5ED8171B73523C0F841684D35CC252CCE79062D4
310
468DFA43D7747CCF51DF7D4FFDEB5593E3AB9CCA9FBEFE241792E4E19EB28198C968BAB8199F5D5A67D3E9C49A9E8F47D6EC76B6B0469F26EEFC7C3EBFBCBEB98462213924694B38DD98FE1D62C393D073EA4FADC5DAF04326852CCF6958F90F0F2B9BB5C48816348F90C7840A68EB78EDF68723159BCEE7891A6B95DDE9D3
310
BCEAEEE8086A6C6F9E5D4B59F0175C10A7A0820BAA5055C7473B5AE3CFDD452D602CD5DF12616444529E90D448938013FE6EFA58AA96F85E4F8C42275708571E98FE6827AF6B2B4AE3D7D83D64E5A64C53054DD3AF90BD06FEA9149565C94FCA0F6B834DC85599E4F2423B24DF0B6AFA979E534DFA9E7A4CC6FA631D486393
310
921829879BF5D781A373557BCB85E97FB90DB62B558F8795179C15944B051F40AB495CF35451D26A4727654E6D8033BD98EF82F21D91FF8AF2DD9982BCF1643BDD4EB516C9492E368C67C88DED563FC36D5EACF66DFF057C3658BDBFA69DF9578B3DA735B64F18C7F20770A9D45CFCF7FCF563D6456A277DBEF78A02637CA2
310
43B90A490AEAB94F72244481D24819A6C0E59B606BFA4B3025981DBB48EAB701D97BF19C577CC77F2D1B6C55A9EF3C732474C0B727303F625995056C3B02963D9EAC146BE78EC5FCEC7FA999EBC5EACBAAE41B12D27B4D2C0BBA49F244E2ECDC81B76B502F113D8F5EE8FB1BE3111CDD4FC2AA9B844CAB1288B68AB90A7CDC
310
1C166AB0D3DC5310625FCC14E779BFD0709F8890A629C9292B1B2DED31A4B0DA928CEE135085754027E3018A397D4D5427D15BD1330B677DC8934285AC3DF45A9EB68FF8F2B8FC0A509AFEECFD0FF2DE25CC6047F7214B195F07EFEB9A094D800F7BFAE8FED187B78EA8A3A400F115961BCAD1215E47C966530AF0EE8128FE
310
58CEBB996A8964FFA529A046635D9353B0336A8F700DDF46271A024E70B0B37C9DE01847591E54DED53D54202AB947E4076556AC49C6CA5C9E1226B7F1A7B1BE15DEED62C41B91E1B3E9AFAAA735036547343A925075041DF0A9979E893B391F8FCFA6967B3EFB644DCF6E5CEBFAE272625DCC6FAF3FB93793C5F90CE1EF57
310
407342756B10D1C489E8953CD1617E5CEECAD6F4EF8914CE5D5D504E5C3F1F9736DA62CFC11E00BCDDB8CC8A9466349744C1F75EBDA4DF09BA8A9E8C7A7E9991989E20E5DBDD6A6003664ED8F7A04A8DBE0DF6EAD9B9AA858342E47399053949D2C146EDB85DE4B176BB0965FBAC19BD19AA918E27FA50C1D22402E144464C
310
59462568E704B6E71915404CB72B8FF4EDE184DDAF753F284990D2C6926782963815403548A70C657FDEF80D2D9CEAA2AE4C1C76F60BFE74219A06527D6582DF6412526107381E55E353090704D085B52408D0933C4ED159D79BDA71BB4BC506F4831350EB6F979CD22D69BF7AC49B91A2C0A9DDA3D5CA36AD20FC478E37E6
310
1844E2352865EBCB6EA275A652E3836BE04EFB400BF1A2556F515F1FBB35B2AB35BD889C744FFA1004B5544B121E57F70215746DD2F5E2C1412B602CBF19455AC6C8E5E9922C4E01E65215385004546899059180EAFCF7A707CE7017CD8CDB0410789AB32C63B91E5CEBBBACB17AC6CD347A022D5075FD106377347AAABA7E
310
7D11590744509B44E205134DC1290F06580320F78E537D3D73540E06CB970B431F185308AD40BBD794D6D77003C5A36E8EAA54BA64597CD8F83BD552A080A365F7FF06504B0304140006080000CC70623B000000000000000000000000350000006662782F39464131463745442D413632322D343644302D413938332D3331
310
353338454246344243312F76657274696365732E62696E504B0304140006080800CC70623BF270F1330600000004000000360000006662782F39464131463745442D413632322D343644302D413938332D3331353338454246344243312F747269616E676C65732E62696E636660600000504B0304140006080000CC70623B
310
000000000000000000000000370000006662782F39464131463745442D413632322D343644302D413938332D3331353338454246344243312F617474726962757465732E62696E504B0304140006080800CC70623B08DA0BD19000000041010000360000006662782F39464131463745442D413632322D343644302D413938
310
332D3331353338454246344243312F6469726563746F72792E786D6C858F410AC3201045AF22B36F53E9A60B35CBEEBAE80D244E44489C6234F4F835464A48035D0DF398FF9F8AF63D0E6CC63039F212F8F9020C7D47C6792B21C5FE7403D62A1188E2E60C98D7234A5830286103A55745067B9D86B8A3CF9C7F90C11DE607
310
FB144396D7B6A82D282E9A152AD114D5EF2CB866EEE831B8EEA07A7BB5A8D7D61A2BAAEB7FD5F70921FF497D00504B0304140006080800CC70623B0D6EF93BFE000000A00100003B0000006662782F39464131463745442D413632322D343644302D413938332D3331353338454246344243312F7265736F75726365732F63
310
6F72652E786D6C8D50596E833010BD0A9ADFCA60B334011947A8694ED00B586642AC041B79A97AFC9A40A5F6AF3F33A3B7689E1E3F7DCD8FEC139DD7D6F4C0720A191A65476DA61E62B892236427C19DB5E1970C322367EC618541F0C9D9B8EC90B226A009093576C41D94DE63804C3DD2D18357379C652E63480A7FCF17A9
310
EE72C29CE5894E3AC17D702940B63D59270887DE46A7D0F36263058F518FBB468FE9A7BE6A7420864373B8D4873369AA8691FA421B3294352543C5CAF65C0F6FEF43CB8BD52C78D0F34F46E550061C419494B6843142CB0F5677F4B52BEB177AEC28E5C52AFF638ACBF84F53D42654E51E77B379102C05791282176B5F693D
310
CB4C7BED567C03504B010214000A0000080000CC70623B3DEE336E79000000790000001B00000000000000000000000000000000006175746F6465736B2D64657369676E2D7061636B6167652E786D6C504B01021400140006080800CC70623BD486FD9CA0000000F40000001300000000000000000000000000B20000005B
310
436F6E74656E745F54797065735D2E786D6C504B01021400140006080800CC70623B1EC5D7A3EB0000007C010000080000000000000000000000000083010000636F72652E786D6C504B01021400140006080800CC70623B55019EA25F0000007C000000070000000000000000000000000094020000636E782E786D6C504B
310
01021400140006080800CC70623B8C9102E971010000D40300000C00000000000000000000000000180300006662782F636F72652E786D6C504B01021400140006080800CC70623BFFEA85907E0000009D0000000B00000000000000000000000000B30400006662782F636E782E786D6C504B01021400140006080800CC70
310
623B4FEEA4082C0100001202000031000000000000000000000000005A0500006662782F39464131463745442D413632322D343644302D413938332D3331353338454246344243312F636F72652E786D6C504B01021400140006080800CC70623BAD7543B64E010000330300003000000000000000000000000000D5060000
310
6662782F39464131463745442D413632322D343644302D413938332D3331353338454246344243312F636E782E786D6C504B01021400140006080800CC70623B16AB87BA640500003C1000003400000000000000000000000000710800006662782F39464131463745442D413632322D343644302D413938332D3331353338
310
454246344243312F6F626A656374732E786D6C504B01021400140006080000CC70623B0000000000000000000000003500000000000000000000000000270E00006662782F39464131463745442D413632322D343644302D413938332D3331353338454246344243312F76657274696365732E62696E504B01021400140006
310
080800CC70623BF270F133060000000400000036000000000000000000000000007A0E00006662782F39464131463745442D413632322D343644302D413938332D3331353338454246344243312F747269616E676C65732E62696E504B01021400140006080000CC70623B0000000000000000000000003700000000000000
310
000000000000D40E00006662782F39464131463745442D413632322D343644302D413938332D3331353338454246344243312F617474726962757465732E62696E504B01021400140006080800CC70623B08DA0BD190000000410100003600000000000000000000000000290F00006662782F39464131463745442D413632
310
322D343644302D413938332D3331353338454246344243312F6469726563746F72792E786D6C504B01021400140006080800CC70623B0D6EF93BFE000000A00100003B000000000000000000000000000D1000006662782F39464131463745442D413632322D343644302D413938332D3331353338454246344243312F7265
310
736F75726365732F636F72652E786D6C504B0506000000000E000E0080040000641100000000
  0
XRECORD
  5
C7A6
102
{ACAD_REACTORS
330
173
102
}
330
173
100
AcDbXrecord
280
     1
102
MATERIAL
148
0.0
149
0.0
149
0.0
 93
        0
 94
       63
282
     0
 72
     1
 77
     1
171
     1
175
     1
179
     1
273
     0
  0
XRECORD
  5
175
102
{ACAD_REACTORS
330
173
102
}
330
173
100
AcDbXrecord
280
     1
270
     1
271
     1
  0
XRECORD
  5
174
102
{ACAD_REACTORS
330
173
102
}
330
173
100
AcDbXrecord
280
     1
270
     1
271
     1
  0
XRECORD
  5
1FB
102
{ACAD_REACTORS
330
173
102
}
330
173
100
AcDbXrecord
280
     1
 70
     0
 90
1673772943
  1
ECE7A1D2-D628-4531-984C-D00F80459256
310
504B03040A0000080000CC70623B3DEE336E79000000790000001B0000006175746F6465736B2D64657369676E2D7061636B6167652E786D6C3C3F786D6C2076657273696F6E3D22312E302220656E636F64696E673D227574662D3822203F3E3C666F726D6174733E3C666F726D61743E687474703A2F2F736368656D612E
310
6175746F6465736B2E636F6D2F64657369676E2D7061636B6167652F323030393C2F666F726D61743E3C2F666F726D6174733E504B0304140006080800CC70623BD486FD9CA0000000F4000000130000005B436F6E74656E745F54797065735D2E786D6C7D8EC10E82300C865F65E91D8A1E8C310C0EEA1BF002731658846E
310
D98AC1B77784ABF1D8FE5FBFBF75BBCE937A534CCEB38643598122B6FEE978D0B0485F9C41B54DDD7D022595594E1A469170414C76A4D9A4D207E29CF43ECE46F218070CC6BECC4078ACAA135ACF422C856C0E68EA1BF5669944DDD7BCDE7B1F8E415D77AECB980613C2E4AC91FC167A2B244592486606FC29C8FD7F045B9A
310
EF7053A7E60B504B0304140006080800CC70623BD9DDAED0EC0000007C01000008000000636F72652E786D6C8D90416EC3201045AF82665B61836D9CD8C2444DD39CA01740405C94182C03558F5F9C3852BBEB6A467FFE9B197D7EF89E6EE8CB2CC17A37002D0820E394D7D68D03A478C17B4007C117EFE32F1B20272733C0
310
2A83E0E3E2D3BC49CABB685CCCAAF3DA6CA20CC14440EA969B0182FA34932C648AD911AEC52CD5558EA6A0CF2EC329598D1E47ACCEFBECC59A050463A7EA5833865FEBDD0E37353BE3EE8DBDE3F6786A48D375FBF6CC78B9C282473B3DEFABC5C86834888A900E538A49F5419B9EB47DD5BC907D4F082F57FB1F28CDFA9F50
310
B22ED6D5F6EE030B20687EE43E10BC5CB3C8E51E54AE6B6EE207504B0304140006080800CC70623B55019EA25F0000007C00000007000000636E782E786D6C4DCB3B0E80201045D1AD90E915ED2CF8AC45050C11660C8261F98AB1B07AC9C97D42D718D865D3E909258CFD00CCE24AC6E326A164D74DC0B4128928FF326038
310
472BA13128B1252AC747C6BAB984FC68F0B87FE8960A5C09FE86CFB69FBA01504B0304140006080800CC70623BA24EB22D72010000D40300000C0000006662782F636F72652E786D6CC5535B6E833010BC8AE5DF0A6C5E49888CA3A6694ED00B38E05014B091B1518EDFE511A5A9D228FD2A1F60CDEC7A67C6986DCE4D8D7A
310
69BA4AAB0C073EC548AA5C17952A33ECECD15B61B4E1CC686DBF9561A44423333CC098B3D268D7CE50AE9595CA02AA74216750749DB418E5352C32DCE59FB211BE70162ABA93DF8AFC244AE9073ED050C759670D0840D390E18DF9F1706664C23973AE2A66B62A605A75ACA4C13C4976E1364A12EF355A2EBD384AF65EFA96
310
BC7B8BED2EA6719AAE16FB8491A199335B351775B991C2CA02F390D2D40B028F861F41BCA68B7518BFD0D59A524686F29B26D7164F36B94AD9289CE54E6D1DE6010819891F6E21228B3AD1831EC219194284CF98F06DD01008846CC5A1BEF83801D4CBDC6A1303536877A57A513B0953A94FC707FDBE6064EA84A9E3E6E0FA
310
EE8CF0E9198F7784A316AA0413C2C2F2E0ECA0934D1AE6D05A69BCDE9E91D2A611F573361E38FC1375157F5752AE6B6DFE4B11990F88CCBF0719EE23FF02504B0304140006080800CC70623B408A7D3B7C0000009D0000000B0000006662782F636E782E786D6C4DCCD10A83201886E15B91FFDC552A92A0064DBC8F581632
310
D3703A76F9ABD1C18E3E78F878E5F0D9027ABBFCF2292AE86E2D20171F69F6715550CB827B40839639A5F2770314A7CD293819B45C73AAFB45B35BA61ACAA1C1C7E7855C58C15BC331339661262CC762340413D68D77DA5B42298546CBE6573AF60CEB2F504B0304140006080800CC70623B449FB9BD290100001202000031
310
0000006662782F36394639363044362D344446342D343946362D394244322D3234314243333846323333332F636F72652E786D6C8D515B6EC32010BC0AE22B55850D98B871848994463E412FE002495162B07854397EA176A4F62F3F2C9A9D991D587EB84F37F0AD7D30CEF6905418026DA553C65E7A98E219ED203808EE9D
310
8B7F6810D871D23D2C3014FCE25D9A57483A1BB58D19B54EE9151C43D0110279CB971E06F9A5A7B11A53CC8C70ADE6515EC78BAE4895DB992778883E0700CB907242D17643D7E2538BD869608875438BBAE38922CAC8F1BDD90DB4691A5E2F42C153326A951B95E398B3D1FE599322163C9AE9115F7A3D46ADA0A018778810
310
84E907617BDCEE297BC5BB3DC6BC2EF47FA234AB2745C9D8D8D035EE220B50105E2F0DC1954B9FB747187D9F9D8FA0CCDB042D5FA0C015C65B42DF78BD10F3F3B363CB56C7109DCFDFBBB97E662ED92EB62D13BC2E1BCAE5777DB9966D8A1F504B0304140006080800CC70623BAD7543B64E01000033030000300000006662
310
782F36394639363044362D344446342D343946362D394244322D3234314243333846323333332F636E782E786D6CD593CD6EC32010845F0571AD6CE3D48AD20813A9873E410FBD12D82434182C7EAAE6EDBB2424CD25871E7B41D6EC30B3FA84F9E67BB2E40B4234DE8DB46F1925E094D7C6ED479AD3AE5951B2113C789FEE
310
6C943839C1488B4C05DF079FE72A69D8C96C13AAD6B8631503449F83828872B949AC57D26200B826A308D316B4064D6E46FCDA41C05550DC9E483A00797BFD207EFB092A45DE9514C1BBD22178396BD39D891265658C238DEA00936C654E5E433CB65A26D9F6EDB5EBC14EBF49A45CB856E66048291F6939A9A81BB5C89177
310
38143CA680F4AA299D66A042CEB3354A2684DC9D8D178FE0D9B8B41CAAD720F880EE7EF93C0C18769E099ECC04D5A102C8049A8A05632F4DDF376CF1DE0F6BB65C2F8627B65A33C6BB62177CEBBDAD973006829F89F22E814B54F4BC2BE347F8AA8F681390B50FA73F804400B5F542E796F19FF974E7F78DB802FE05E20750
310
4B0304140006080800CC70623B8D05915C650500003B100000340000006662782F36394639363044362D344446342D343946362D394244322D3234314243333846323333332F6F626A656374732E786D6CAD575B6FA33814FE2B887D06429276DA1565D4266D158D3A339A6846FB502932E050B66023DB74D2FDF5FB190C01
310
9276B2973C046C8ECFF53B17071F77456EBD502133CEAE6CDF9DD81665314F32965ED995DA3A17B6F5310C04E7AA47665B8C14F4CAD6DB7618A48257A5D94AE89654B91AEDDEDDFC61C998326A5B714EA4BCB265FC440BE2924AF184CA6737218AB8E976E7FA6E4338649B0A523E8D98964450A6A029F619B8588D52FE7039
310
B1BD30F0F4F730D0FF866AF6369557DB33949F31A9088B0F848DD8CCFCF9F2767A76E99CCDE733677E3EF59D9BBB9BA5E37F984D16E78BC5E5F5ED25044B25C0C96822E8D60EEFE11B91C581D77CEA34368A1F5329E68CD1B8B61F16D63A1B8E092D294B10C78C4A48EB593D192E7DED9BDEE7995E1B91FDEDD3ACEA9FE831
310
6A756F9F7D4D79F4274C90A7A04248AA51D5F8C718DAE06FB2F75AC4796EBE65D22A88A22223B995679120E2D50E41AA49C260C046A35368846B0BECD0DFF3EBEB8AD4F835768F69B9ADF25C43D30E6B646F807FAA64AD59F61715C7A54127C4AACA98BA3006A9D792DAE165E0D59B61A01FB3A9F9D838D2DAE62445C86166
310
F37564E842E7DE6A69879FEEA2DD5AE7E371E1A5E025154AC307D06A03D73EB5978C58FFA4C8E9033066E0F3BD53BEC1F39F91BE7B55103791EDE6BBB991A2046172CB4581D8B893FA674DDA17A77B3B7C413D1B511FD2743BFF8A38F03A658705E3ADF8015C3A3417FF3D7E439FF591DA0B5F18BC20C1B8981957AE6392A3
310
F43C640C01D1A0B4728E2DD4F26DB4B3C3152A252A3B4E913CEC1C72F012782FF88EFF8637AA552DBEF76408E8A8DE9E50F9E1CB3A2DA0DB1B6039A893B56063DC5B3E3FFB5F72E67AB9FEB4AEC496C4F4C1149625DD662C53E89D7BF0F6151A046260D1337DFDC94502430F83B0EE07A130A224BCAD7DAE1D9FB6CD422FF6
310
920702629C4BB9AE79C12F243C6432A6794E18E5552BA56B431AAB5D91317302B2B071E86C3A42B1A02F999E24061403B5D0EB639195DA655DD3EBEAB4FB862DDF579F014AD0E73C22F99E28DA57FB98E75C6CA2D74D53086D600F4786E0FE3144B771A8A7B900F03594DB8A633CBC49B2EDB69228BB479CF863B5E807AAAB
310
23872F6DFEB4129B949CA33823F58830E86D65621E10047D9DB34D862E8EAC3C2ABC2F7B2C40D67CDFE01F5545B92105AF983AC54D93D69E56FB8E797F88913F898A9FEC705D3F9D1B54EC8426FB500D40A03BD0119B06E1B95DDC7EB8F6975367793EBD70E66733DFB9BC982F9CE564727731999F5D4ECFCE3B8D6A4DC2A0
310
6D50FD148437D110834A64C6CDDF57FBACB5C307A2A477DFE4939736CFEF2B175371E0E10CF0DD1D5C15654E0BCA14D1E87DD02FF93782A162C0A3D95F1524A52770F972BF1EE9809D13CE7DD599467F8ECE9ADD85CE85A34CD45355448C64F9E8A031DC2D596ACC6E5DD93D9B82DE2EF5CAF81363A8E47996A0DE24564A79
310
4115AACE09C55E14540231FDA13C319787134EBF34E3A022514E5B4D9E0826E25C02D5805B15ABE1BEF51B26383D445DD9E875EE33FE4C22DA16427D65A3BCA92CA6D28DD01DF5DC53330704308475351050232CCD31583787BA75774AFB06E5070DD0C8EF484E19968C5D83BA5B90B244D31E54D55A372320FE4786B7EA58
310
44E135AA5467CB7EA333A61683CC6A8C3257034C10CF46F40EF9F5BE59BE5BD30C3C72D235E95D10345C1D45445A5F0BB47E46A5EBE5570F9380B5FA629579952296A773720405982B9DE04011506178964401AA8BDF1FBF0A8EAB6861DD6580C0E38217056766716DAEB2D6FA0917D3E4116581EADB879C4E7CFFB11EFACD
310
3D641311495D92C8676CB409A72D18610D803CE8A626049E8EC1887CB5B44CC39883690DDA8399B4B9855B481E7D71D4A9D22F96E5BB73BF5793020C02137BF837504B0304140006080000CC70623B000000000000000000000000350000006662782F36394639363044362D344446342D343946362D394244322D32343142
310
43333846323333332F76657274696365732E62696E504B0304140006080800CC70623BF270F1330600000004000000360000006662782F36394639363044362D344446342D343946362D394244322D3234314243333846323333332F747269616E676C65732E62696E636660600000504B0304140006080000CC70623B0000
310
00000000000000000000370000006662782F36394639363044362D344446342D343946362D394244322D3234314243333846323333332F617474726962757465732E62696E504B0304140006080800CC70623B08DA0BD19000000041010000360000006662782F36394639363044362D344446342D343946362D394244322D
310
3234314243333846323333332F6469726563746F72792E786D6C858F410AC3201045AF22B36F53E9A60B35CBEEBAE80D244E44489C6234F4F835464A48035D0DF398FF9F8AF63D0E6CC63039F212F8F9020C7D47C6792B21C5FE7403D62A1188E2E60C98D7234A5830286103A55745067B9D86B8A3CF9C7F90C11DE607FB14
310
4396D7B6A82D282E9A152AD114D5EF2CB866EEE831B8EEA07A7BB5A8D7D61A2BAAEB7FD5F70921FF497D00504B0304140006080800CC70623BCA768048FE000000A00100003B0000006662782F36394639363044362D344446342D343946362D394244322D3234314243333846323333332F7265736F75726365732F636F72
310
652E786D6C8D50596E833010BD0A9ADFCA60D600328E9AA639412F609909B1126CE4A5EAF16B0295DABFFECC8CDEA2797AECF8353F924FB44E193D409E5248504B332A3D0D10FC95B4901C39B3C6F85F3248B49871801506CE266BC2B243D2688FDA47549B11775038871E12F988C7004EDE7016A9083E2ADC3D5D84BC8B09
310
D33C8D74D471E6BC8D0192EDC93A815B742658898E651BCB59086ADC356A8C3FD555A1055ED7E7E254D615792D0F075295F585746FF53B694EE78A565DD736979A65AB9933AFE69F8CD2A2F038022F28ED489E135A7CE4554F9BBEA85E68DB53CAB255FEC71496F19FA6A0B42F8B3DEE6673C0F318E4497096AD7DC5F52C33
310
EEB55BFE0D504B010214000A0000080000CC70623B3DEE336E79000000790000001B00000000000000000000000000000000006175746F6465736B2D64657369676E2D7061636B6167652E786D6C504B01021400140006080800CC70623BD486FD9CA0000000F40000001300000000000000000000000000B20000005B436F
310
6E74656E745F54797065735D2E786D6C504B01021400140006080800CC70623BD9DDAED0EC0000007C010000080000000000000000000000000083010000636F72652E786D6C504B01021400140006080800CC70623B55019EA25F0000007C000000070000000000000000000000000095020000636E782E786D6C504B0102
310
1400140006080800CC70623BA24EB22D72010000D40300000C00000000000000000000000000190300006662782F636F72652E786D6C504B01021400140006080800CC70623B408A7D3B7C0000009D0000000B00000000000000000000000000B50400006662782F636E782E786D6C504B01021400140006080800CC70623B
310
449FB9BD290100001202000031000000000000000000000000005A0500006662782F36394639363044362D344446342D343946362D394244322D3234314243333846323333332F636F72652E786D6C504B01021400140006080800CC70623BAD7543B64E010000330300003000000000000000000000000000D20600006662
310
782F36394639363044362D344446342D343946362D394244322D3234314243333846323333332F636E782E786D6C504B01021400140006080800CC70623B8D05915C650500003B10000034000000000000000000000000006E0800006662782F36394639363044362D344446342D343946362D394244322D32343142433338
310
46323333332F6F626A656374732E786D6C504B01021400140006080000CC70623B0000000000000000000000003500000000000000000000000000250E00006662782F36394639363044362D344446342D343946362D394244322D3234314243333846323333332F76657274696365732E62696E504B010214001400060808
310
00CC70623BF270F13306000000040000003600000000000000000000000000780E00006662782F36394639363044362D344446342D343946362D394244322D3234314243333846323333332F747269616E676C65732E62696E504B01021400140006080000CC70623B00000000000000000000000037000000000000000000
310
00000000D20E00006662782F36394639363044362D344446342D343946362D394244322D3234314243333846323333332F617474726962757465732E62696E504B01021400140006080800CC70623B08DA0BD190000000410100003600000000000000000000000000270F00006662782F36394639363044362D344446342D
310
343946362D394244322D3234314243333846323333332F6469726563746F72792E786D6C504B01021400140006080800CC70623BCA768048FE000000A00100003B000000000000000000000000000B1000006662782F36394639363044362D344446342D343946362D394244322D3234314243333846323333332F7265736F
310
75726365732F636F72652E786D6C504B0506000000000E000E0080040000621100000000
  0
XRECORD
  5
176
102
{ACAD_REACTORS
330
173
102
}
330
173
100
AcDbXrecord
280
     1
270
     1
271
     1
  0
XRECORD
  5
177
102
{ACAD_REACTORS
330
173
102
}
330
173
100
AcDbXrecord
280
     1
270
     1
271
     1
  0
XRECORD
  5
C7C8
102
{ACAD_REACTORS
330
C7C7
102
}
330
C7C7
100
AcDbXrecord
280
     1
102
ACAD_ROUNDTRIP_2012_MLEADER_STYLE
298
     1
  0
XRECORD
  5
C7DA
102
{ACAD_REACTORS
330
C7D9
102
}
330
C7D9
100
AcDbXrecord
280
     1
102
DISPLAYNAME
  1
Metric50
102
FLAGS
 90
        0
  0
CELLSTYLEMAP
  5
C79A
102
{ACAD_REACTORS
330
162
102
}
330
162
100
AcDbCellStyleMap
 90
        3
300
CELLSTYLE
  1
TABLEFORMAT_BEGIN
 90
        5
170
     1
 91
        0
 92
    32768
 62
   257
 93
        1
300
CONTENTFORMAT
  1
CONTENTFORMAT_BEGIN
 90
        0
 91
        0
 92
      512
 93
        0
300

 40
0.0
140
1.0
 94
        5
 62
     0
340
11
144
6.0
309
CONTENTFORMAT_END
171
     1
301
MARGIN
  1
CELLMARGIN_BEGIN
 40
1.5
 40
1.5
 40
1.5
 40
1.5
 40
4.5
 40
4.5
309
CELLMARGIN_END
 94
        6
 95
        1
302
GRIDFORMAT
  1
GRIDFORMAT_BEGIN
 90
        0
 91
        1
 62
     0
 92
       -2
340
14
 93
        0
 40
1.125
309
GRIDFORMAT_END
 95
        2
302
GRIDFORMAT
  1
GRIDFORMAT_BEGIN
 90
        0
 91
        1
 62
     0
 92
       -2
340
14
 93
        0
 40
1.125
309
GRIDFORMAT_END
 95
        4
302
GRIDFORMAT
  1
GRIDFORMAT_BEGIN
 90
        0
 91
        1
 62
     0
 92
       -2
340
14
 93
        0
 40
1.125
309
GRIDFORMAT_END
 95
        8
302
GRIDFORMAT
  1
GRIDFORMAT_BEGIN
 90
        0
 91
        1
 62
     0
 92
       -2
340
14
 93
        0
 40
1.125
309
GRIDFORMAT_END
 95
       16
302
GRIDFORMAT
  1
GRIDFORMAT_BEGIN
 90
        0
 91
        1
 62
     0
 92
       -2
340
14
 93
        0
 40
1.125
309
GRIDFORMAT_END
 95
       32
302
GRIDFORMAT
  1
GRIDFORMAT_BEGIN
 90
        0
 91
        1
 62
     0
 92
       -2
340
14
 93
        0
 40
1.125
309
GRIDFORMAT_END
309
TABLEFORMAT_END
  1
CELLSTYLE_BEGIN
 90
        1
 91
        1
300
_TITLE
309
CELLSTYLE_END
300
CELLSTYLE
  1
TABLEFORMAT_BEGIN
 90
        5
170
     1
 91
        0
 92
        0
 62
   257
 93
        1
300
CONTENTFORMAT
  1
CONTENTFORMAT_BEGIN
 90
        0
 91
        0
 92
      512
 93
        0
300

 40
0.0
140
1.0
 94
        5
 62
     0
340
11
144
4.5
309
CONTENTFORMAT_END
171
     1
301
MARGIN
  1
CELLMARGIN_BEGIN
 40
1.5
 40
1.5
 40
1.5
 40
1.5
 40
4.5
 40
4.5
309
CELLMARGIN_END
 94
        6
 95
        1
302
GRIDFORMAT
  1
GRIDFORMAT_BEGIN
 90
        0
 91
        1
 62
     0
 92
       -2
340
14
 93
        0
 40
1.125
309
GRIDFORMAT_END
 95
        2
302
GRIDFORMAT
  1
GRIDFORMAT_BEGIN
 90
        0
 91
        1
 62
     0
 92
       -2
340
14
 93
        0
 40
1.125
309
GRIDFORMAT_END
 95
        4
302
GRIDFORMAT
  1
GRIDFORMAT_BEGIN
 90
        0
 91
        1
 62
     0
 92
       -2
340
14
 93
        0
 40
1.125
309
GRIDFORMAT_END
 95
        8
302
GRIDFORMAT
  1
GRIDFORMAT_BEGIN
 90
        0
 91
        1
 62
     0
 92
       -2
340
14
 93
        0
 40
1.125
309
GRIDFORMAT_END
 95
       16
302
GRIDFORMAT
  1
GRIDFORMAT_BEGIN
 90
        0
 91
        1
 62
     0
 92
       -2
340
14
 93
        0
 40
1.125
309
GRIDFORMAT_END
 95
       32
302
GRIDFORMAT
  1
GRIDFORMAT_BEGIN
 90
        0
 91
        1
 62
     0
 92
       -2
340
14
 93
        0
 40
1.125
309
GRIDFORMAT_END
309
TABLEFORMAT_END
  1
CELLSTYLE_BEGIN
 90
        2
 91
        1
300
_HEADER
309
CELLSTYLE_END
300
CELLSTYLE
  1
TABLEFORMAT_BEGIN
 90
        5
170
     1
 91
        0
 92
        0
 62
   257
 93
        1
300
CONTENTFORMAT
  1
CONTENTFORMAT_BEGIN
 90
        0
 91
        0
 92
      512
 93
        0
300

 40
0.0
140
1.0
 94
        2
 62
     0
340
11
144
4.5
309
CONTENTFORMAT_END
171
     1
301
MARGIN
  1
CELLMARGIN_BEGIN
 40
1.5
 40
1.5
 40
1.5
 40
1.5
 40
4.5
 40
4.5
309
CELLMARGIN_END
 94
        6
 95
        1
302
GRIDFORMAT
  1
GRIDFORMAT_BEGIN
 90
        0
 91
        1
 62
     0
 92
       -2
340
14
 93
        0
 40
1.125
309
GRIDFORMAT_END
 95
        2
302
GRIDFORMAT
  1
GRIDFORMAT_BEGIN
 90
        0
 91
        1
 62
     0
 92
       -2
340
14
 93
        0
 40
1.125
309
GRIDFORMAT_END
 95
        4
302
GRIDFORMAT
  1
GRIDFORMAT_BEGIN
 90
        0
 91
        1
 62
     0
 92
       -2
340
14
 93
        0
 40
1.125
309
GRIDFORMAT_END
 95
        8
302
GRIDFORMAT
  1
GRIDFORMAT_BEGIN
 90
        0
 91
        1
 62
     0
 92
       -2
340
14
 93
        0
 40
1.125
309
GRIDFORMAT_END
 95
       16
302
GRIDFORMAT
  1
GRIDFORMAT_BEGIN
 90
        0
 91
        1
 62
     0
 92
       -2
340
14
 93
        0
 40
1.125
309
GRIDFORMAT_END
 95
       32
302
GRIDFORMAT
  1
GRIDFORMAT_BEGIN
 90
        0
 91
        1
 62
     0
 92
       -2
340
14
 93
        0
 40
1.125
309
GRIDFORMAT_END
309
TABLEFORMAT_END
  1
CELLSTYLE_BEGIN
 90
        3
 91
        2
300
_DATA
309
CELLSTYLE_END
  0
XRECORD
  5
C79F
102
{ACAD_REACTORS
330
162
102
}
330
162
100
AcDbXrecord
280
     1
102
ACAD_ROUNDTRIP_PRE2007_TABLESTYLE
 90
      512
 91
        0
  1

 92
      512
 93
        0
  2

 94
      512
 95
        0
  3

  0
XRECORD
  5
C7B2
102
{ACAD_REACTORS
330
C7B1
102
}
330
C7B1
100
AcDbXrecord
280
     1
102
RTVSPost2010Prop28
280
     1
102
RTVSPost2010PropOp28
 70
     1
102
RTVSPost2010Prop29
280
     1
102
RTVSPost2010PropOp29
 70
     1
102
RTVSPost2010Prop30
280
     0
102
RTVSPost2010PropOp30
 70
     1
102
RTVSPost2010Prop31
280
     0
102
RTVSPost2010PropOp31
 70
     1
102
RTVSPost2010Prop32
280
     0
102
RTVSPost2010PropOp32
 70
     1
102
RTVSPost2010Prop33
280
     0
102
RTVSPost2010PropOp33
 70
     1
102
RTVSPost2010Prop34
280
     0
102
RTVSPost2010PropOp34
 70
     1
102
RTVSPost2010Prop35
280
     0
102
RTVSPost2010PropOp35
 70
     1
102
RTVSPost2010Prop36
280
     0
102
RTVSPost2010PropOp36
 70
     1
102
RTVSPost2010Prop37
 90
       50
102
RTVSPost2010PropOp37
 70
     1
102
RTVSPost2010Prop38
140
0.0
102
RTVSPost2010PropOp38
 70
     1
102
RTVSPost2010Prop39
140
1.0
102
RTVSPost2010PropOp39
 70
     1
102
RTVSPost2010Prop40
 90
        0
102
RTVSPost2010PropOp40
 70
     1
102
RTVSPost2010Prop41ColorIndex
 90
       18
102
RTVSPost2010Prop41ColorRGB
 90
        0
102
RTVSPost2010PropOp41
 70
     1
102
RTVSPost2010Prop42
 90
       50
102
RTVSPost2010PropOp42
 70
     1
102
RTVSPost2010Prop43
 90
        3
102
RTVSPost2010PropOp43
 70
     1
102
RTVSPost2010Prop44ColorIndex
 90
        5
102
RTVSPost2010Prop44ColorRGB
 90
      255
102
RTVSPost2010PropOp44
 70
     1
102
RTVSPost2010Prop45
280
     0
102
RTVSPost2010PropOp45
 70
     1
102
RTVSPost2010Prop46
 90
       50
102
RTVSPost2010PropOp46
 70
     1
102
RTVSPost2010Prop47
 90
       50
102
RTVSPost2010PropOp47
 70
     1
102
RTVSPost2010Prop48
 90
       50
102
RTVSPost2010PropOp48
 70
     1
102
RTVSPost2010Prop49
280
     0
102
RTVSPost2010PropOp49
 70
     1
102
RTVSPost2010Prop50
 90
       50
102
RTVSPost2010PropOp50
 70
     1
102
RTVSPost2010Prop51ColorIndex
 90
      256
102
RTVSPost2010Prop51ColorRGB
 90
-16777216
102
RTVSPost2010PropOp51
 70
     0
102
RTVSPost2010Prop52
140
1.0
102
RTVSPost2010PropOp52
 70
     0
102
RTVSPost2010Prop53
 90
        2
102
RTVSPost2010PropOp53
 70
     1
102
RTVSPost2010Prop54
  1
strokes_ogs.tif
102
RTVSPost2010PropOp54
 70
     1
102
RTVSPost2010Prop55
280
     0
102
RTVSPost2010PropOp55
 70
     1
102
RTVSPost2010Prop56
140
1.0
102
RTVSPost2010PropOp56
 70
     1
102
RTVSPost2010Prop57
140
1.0
102
RTVSPost2010PropOp57
 70
     1
102
RTVSPropertyOp0
 70
     1
102
RTVSPropertyOp1
 70
     1
102
RTVSPropertyOp2
 70
     1
102
RTVSPropertyOp3
 70
     1
102
RTVSPropertyOp4
 70
     1
102
RTVSPropertyOp5
 70
     1
102
RTVSPropertyOp6
 70
     1
102
RTVSPropertyOp7
 70
     1
102
RTVSPropertyOp8
 70
     1
102
RTVSPropertyOp9
 70
     1
102
RTVSPropertyOp10
 70
     1
102
RTVSPropertyOp11
 70
     1
102
RTVSPropertyOp12
 70
     1
102
RTVSPropertyOp13
 70
     1
102
RTVSPropertyOp14
 70
     1
102
RTVSPropertyOp15
 70
     1
102
RTVSPropertyOp16
 70
     1
102
RTVSPropertyOp17
 70
     1
102
RTVSPropertyOp18
 70
     1
102
RTVSPropertyOp19
 70
     1
102
RTVSPropertyOp20
 70
     1
102
RTVSPropertyOp21
 70
     1
102
RTVSPropertyOp22
 70
     1
102
RTVSPropertyOp23
 70
     1
102
RTVSPropertyOp24
 70
     1
102
RTVSPropertyOp25
 70
     1
102
RTVSPropertyOp26
 70
     1
102
RTVSPropertyOp27
 70
     1
102
RTVSPropertyOp28
 70
     1
102
RTVSPropertyOp29
 70
     1
102
RTVSPropertyOp30
 70
     1
102
RTVSPropertyOp31
 70
     1
102
RTVSPropertyOp32
 70
     1
102
RTVSPropertyOp33
 70
     1
102
RTVSPropertyOp34
 70
     1
102
RTVSPropertyOp35
 70
     1
102
RTVSPropertyOp36
 70
     1
102
RTVSPropertyOp37
 70
     1
102
RTVSPropertyOp38
 70
     1
102
RTVSPropertyOp39
 70
     1
102
RTVSPropertyOp40
 70
     1
102
RTVSPropertyOp41
 70
     1
102
RTVSPropertyOp42
 70
     1
102
RTVSPropertyOp43
 70
     1
102
RTVSPropertyOp44
 70
     1
102
RTVSPropertyOp45
 70
     1
102
RTVSPropertyOp46
 70
     1
102
RTVSPropertyOp47
 70
     1
102
RTVSPropertyOp48
 70
     1
102
RTVSPropertyOp49
 70
     1
102
RTVSPropertyOp50
 70
     1
102
RTVSPropertyOp51
 70
     0
102
RTVSPropertyOp52
 70
     0
102
RTVSPropertyOp53
 70
     1
102
RTVSPropertyOp54
 70
     1
102
RTVSPropertyOp55
 70
     1
102
RTVSPropertyOp56
 70
     1
102
RTVSPropertyOp57
 70
     1
102
RTVSPropertyOp58
 70
     1
102
RTVSPropertyOp59
 70
     1
102
RTVSPropertyOp60
 70
     1
102
RTVSPropertyOp61
 70
     1
102
RTVSPropertyOp62
 70
     1
  0
XRECORD
  5
C7B0
102
{ACAD_REACTORS
330
C7AF
102
}
330
C7AF
100
AcDbXrecord
280
     1
102
RTVSPost2010Prop28
280
     0
102
RTVSPost2010PropOp28
 70
     1
102
RTVSPost2010Prop29
280
     1
102
RTVSPost2010PropOp29
 70
     1
102
RTVSPost2010Prop30
280
     1
102
RTVSPost2010PropOp30
 70
     1
102
RTVSPost2010Prop31
280
     0
102
RTVSPost2010PropOp31
 70
     1
102
RTVSPost2010Prop32
280
     0
102
RTVSPost2010PropOp32
 70
     1
102
RTVSPost2010Prop33
280
     0
102
RTVSPost2010PropOp33
 70
     1
102
RTVSPost2010Prop34
280
     0
102
RTVSPost2010PropOp34
 70
     1
102
RTVSPost2010Prop35
280
     0
102
RTVSPost2010PropOp35
 70
     1
102
RTVSPost2010Prop36
280
     0
102
RTVSPost2010PropOp36
 70
     1
102
RTVSPost2010Prop37
 90
       50
102
RTVSPost2010PropOp37
 70
     1
102
RTVSPost2010Prop38
140
0.0
102
RTVSPost2010PropOp38
 70
     1
102
RTVSPost2010Prop39
140
1.0
102
RTVSPost2010PropOp39
 70
     1
102
RTVSPost2010Prop40
 90
        0
102
RTVSPost2010PropOp40
 70
     1
102
RTVSPost2010Prop41ColorIndex
 90
       18
102
RTVSPost2010Prop41ColorRGB
 90
        0
102
RTVSPost2010PropOp41
 70
     1
102
RTVSPost2010Prop42
 90
       50
102
RTVSPost2010PropOp42
 70
     1
102
RTVSPost2010Prop43
 90
        3
102
RTVSPost2010PropOp43
 70
     1
102
RTVSPost2010Prop44ColorIndex
 90
        5
102
RTVSPost2010Prop44ColorRGB
 90
      255
102
RTVSPost2010PropOp44
 70
     1
102
RTVSPost2010Prop45
280
     0
102
RTVSPost2010PropOp45
 70
     1
102
RTVSPost2010Prop46
 90
       50
102
RTVSPost2010PropOp46
 70
     1
102
RTVSPost2010Prop47
 90
       50
102
RTVSPost2010PropOp47
 70
     1
102
RTVSPost2010Prop48
 90
       50
102
RTVSPost2010PropOp48
 70
     1
102
RTVSPost2010Prop49
280
     0
102
RTVSPost2010PropOp49
 70
     1
102
RTVSPost2010Prop50
 90
       50
102
RTVSPost2010PropOp50
 70
     1
102
RTVSPost2010Prop51ColorIndex
 90
      256
102
RTVSPost2010Prop51ColorRGB
 90
-16777216
102
RTVSPost2010PropOp51
 70
     0
102
RTVSPost2010Prop52
140
1.0
102
RTVSPost2010PropOp52
 70
     0
102
RTVSPost2010Prop53
 90
        2
102
RTVSPost2010PropOp53
 70
     1
102
RTVSPost2010Prop54
  1
strokes_ogs.tif
102
RTVSPost2010PropOp54
 70
     1
102
RTVSPost2010Prop55
280
     0
102
RTVSPost2010PropOp55
 70
     1
102
RTVSPost2010Prop56
140
1.0
102
RTVSPost2010PropOp56
 70
     1
102
RTVSPost2010Prop57
140
1.0
102
RTVSPost2010PropOp57
 70
     1
102
RTVSPropertyOp0
 70
     1
102
RTVSPropertyOp1
 70
     1
102
RTVSPropertyOp2
 70
     1
102
RTVSPropertyOp3
 70
     1
102
RTVSPropertyOp4
 70
     1
102
RTVSPropertyOp5
 70
     1
102
RTVSPropertyOp6
 70
     1
102
RTVSPropertyOp7
 70
     1
102
RTVSPropertyOp8
 70
     1
102
RTVSPropertyOp9
 70
     1
102
RTVSPropertyOp10
 70
     1
102
RTVSPropertyOp11
 70
     1
102
RTVSPropertyOp12
 70
     1
102
RTVSPropertyOp13
 70
     1
102
RTVSPropertyOp14
 70
     1
102
RTVSPropertyOp15
 70
     1
102
RTVSPropertyOp16
 70
     1
102
RTVSPropertyOp17
 70
     1
102
RTVSPropertyOp18
 70
     1
102
RTVSPropertyOp19
 70
     1
102
RTVSPropertyOp20
 70
     1
102
RTVSPropertyOp21
 70
     1
102
RTVSPropertyOp22
 70
     1
102
RTVSPropertyOp23
 70
     1
102
RTVSPropertyOp24
 70
     1
102
RTVSPropertyOp25
 70
     1
102
RTVSPropertyOp26
 70
     1
102
RTVSPropertyOp27
 70
     1
102
RTVSPropertyOp28
 70
     1
102
RTVSPropertyOp29
 70
     1
102
RTVSPropertyOp30
 70
     1
102
RTVSPropertyOp31
 70
     1
102
RTVSPropertyOp32
 70
     1
102
RTVSPropertyOp33
 70
     1
102
RTVSPropertyOp34
 70
     1
102
RTVSPropertyOp35
 70
     1
102
RTVSPropertyOp36
 70
     1
102
RTVSPropertyOp37
 70
     1
102
RTVSPropertyOp38
 70
     1
102
RTVSPropertyOp39
 70
     1
102
RTVSPropertyOp40
 70
     1
102
RTVSPropertyOp41
 70
     1
102
RTVSPropertyOp42
 70
     1
102
RTVSPropertyOp43
 70
     1
102
RTVSPropertyOp44
 70
     1
102
RTVSPropertyOp45
 70
     1
102
RTVSPropertyOp46
 70
     1
102
RTVSPropertyOp47
 70
     1
102
RTVSPropertyOp48
 70
     1
102
RTVSPropertyOp49
 70
     1
102
RTVSPropertyOp50
 70
     1
102
RTVSPropertyOp51
 70
     0
102
RTVSPropertyOp52
 70
     0
102
RTVSPropertyOp53
 70
     1
102
RTVSPropertyOp54
 70
     1
102
RTVSPropertyOp55
 70
     1
102
RTVSPropertyOp56
 70
     1
102
RTVSPropertyOp57
 70
     1
102
RTVSPropertyOp58
 70
     1
102
RTVSPropertyOp59
 70
     1
102
RTVSPropertyOp60
 70
     1
102
RTVSPropertyOp61
 70
     1
102
RTVSPropertyOp62
 70
     1
  0
XRECORD
  5
C7BE
102
{ACAD_REACTORS
330
C7BD
102
}
330
C7BD
100
AcDbXrecord
280
     1
102
RTVSPost2010Prop28
280
     0
102
RTVSPost2010PropOp28
 70
     1
102
RTVSPost2010Prop29
280
     1
102
RTVSPost2010PropOp29
 70
     1
102
RTVSPost2010Prop30
280
     1
102
RTVSPost2010PropOp30
 70
     1
102
RTVSPost2010Prop31
280
     0
102
RTVSPost2010PropOp31
 70
     1
102
RTVSPost2010Prop32
280
     0
102
RTVSPost2010PropOp32
 70
     1
102
RTVSPost2010Prop33
280
     0
102
RTVSPost2010PropOp33
 70
     1
102
RTVSPost2010Prop34
280
     0
102
RTVSPost2010PropOp34
 70
     1
102
RTVSPost2010Prop35
280
     0
102
RTVSPost2010PropOp35
 70
     1
102
RTVSPost2010Prop36
280
     0
102
RTVSPost2010PropOp36
 70
     1
102
RTVSPost2010Prop37
 90
       50
102
RTVSPost2010PropOp37
 70
     1
102
RTVSPost2010Prop38
140
0.0
102
RTVSPost2010PropOp38
 70
     1
102
RTVSPost2010Prop39
140
1.0
102
RTVSPost2010PropOp39
 70
     1
102
RTVSPost2010Prop40
 90
        0
102
RTVSPost2010PropOp40
 70
     1
102
RTVSPost2010Prop41ColorIndex
 90
       18
102
RTVSPost2010Prop41ColorRGB
 90
        0
102
RTVSPost2010PropOp41
 70
     1
102
RTVSPost2010Prop42
 90
       50
102
RTVSPost2010PropOp42
 70
     1
102
RTVSPost2010Prop43
 90
        3
102
RTVSPost2010PropOp43
 70
     1
102
RTVSPost2010Prop44ColorIndex
 90
        5
102
RTVSPost2010Prop44ColorRGB
 90
      255
102
RTVSPost2010PropOp44
 70
     1
102
RTVSPost2010Prop45
280
     0
102
RTVSPost2010PropOp45
 70
     1
102
RTVSPost2010Prop46
 90
       50
102
RTVSPost2010PropOp46
 70
     1
102
RTVSPost2010Prop47
 90
       50
102
RTVSPost2010PropOp47
 70
     1
102
RTVSPost2010Prop48
 90
       50
102
RTVSPost2010PropOp48
 70
     1
102
RTVSPost2010Prop49
280
     0
102
RTVSPost2010PropOp49
 70
     1
102
RTVSPost2010Prop50
 90
       50
102
RTVSPost2010PropOp50
 70
     1
102
RTVSPost2010Prop51ColorIndex
 90
      256
102
RTVSPost2010Prop51ColorRGB
 90
-16777216
102
RTVSPost2010PropOp51
 70
     0
102
RTVSPost2010Prop52
140
1.0
102
RTVSPost2010PropOp52
 70
     0
102
RTVSPost2010Prop53
 90
        2
102
RTVSPost2010PropOp53
 70
     1
102
RTVSPost2010Prop54
  1
strokes_ogs.tif
102
RTVSPost2010PropOp54
 70
     1
102
RTVSPost2010Prop55
280
     0
102
RTVSPost2010PropOp55
 70
     1
102
RTVSPost2010Prop56
140
1.0
102
RTVSPost2010PropOp56
 70
     1
102
RTVSPost2010Prop57
140
1.0
102
RTVSPost2010PropOp57
 70
     1
102
RTVSPropertyOp0
 70
     1
102
RTVSPropertyOp1
 70
     1
102
RTVSPropertyOp2
 70
     1
102
RTVSPropertyOp3
 70
     1
102
RTVSPropertyOp4
 70
     1
102
RTVSPropertyOp5
 70
     1
102
RTVSPropertyOp6
 70
     1
102
RTVSPropertyOp7
 70
     1
102
RTVSPropertyOp8
 70
     1
102
RTVSPropertyOp9
 70
     1
102
RTVSPropertyOp10
 70
     1
102
RTVSPropertyOp11
 70
     1
102
RTVSPropertyOp12
 70
     1
102
RTVSPropertyOp13
 70
     1
102
RTVSPropertyOp14
 70
     1
102
RTVSPropertyOp15
 70
     1
102
RTVSPropertyOp16
 70
     1
102
RTVSPropertyOp17
 70
     1
102
RTVSPropertyOp18
 70
     1
102
RTVSPropertyOp19
 70
     1
102
RTVSPropertyOp20
 70
     1
102
RTVSPropertyOp21
 70
     1
102
RTVSPropertyOp22
 70
     1
102
RTVSPropertyOp23
 70
     1
102
RTVSPropertyOp24
 70
     1
102
RTVSPropertyOp25
 70
     1
102
RTVSPropertyOp26
 70
     1
102
RTVSPropertyOp27
 70
     1
102
RTVSPropertyOp28
 70
     1
102
RTVSPropertyOp29
 70
     1
102
RTVSPropertyOp30
 70
     1
102
RTVSPropertyOp31
 70
     1
102
RTVSPropertyOp32
 70
     1
102
RTVSPropertyOp33
 70
     1
102
RTVSPropertyOp34
 70
     1
102
RTVSPropertyOp35
 70
     1
102
RTVSPropertyOp36
 70
     1
102
RTVSPropertyOp37
 70
     1
102
RTVSPropertyOp38
 70
     1
102
RTVSPropertyOp39
 70
     1
102
RTVSPropertyOp40
 70
     1
102
RTVSPropertyOp41
 70
     1
102
RTVSPropertyOp42
 70
     1
102
RTVSPropertyOp43
 70
     1
102
RTVSPropertyOp44
 70
     1
102
RTVSPropertyOp45
 70
     1
102
RTVSPropertyOp46
 70
     1
102
RTVSPropertyOp47
 70
     1
102
RTVSPropertyOp48
 70
     1
102
RTVSPropertyOp49
 70
     1
102
RTVSPropertyOp50
 70
     1
102
RTVSPropertyOp51
 70
     0
102
RTVSPropertyOp52
 70
     0
102
RTVSPropertyOp53
 70
     1
102
RTVSPropertyOp54
 70
     1
102
RTVSPropertyOp55
 70
     1
102
RTVSPropertyOp56
 70
     1
102
RTVSPropertyOp57
 70
     1
102
RTVSPropertyOp58
 70
     1
102
RTVSPropertyOp59
 70
     1
102
RTVSPropertyOp60
 70
     1
102
RTVSPropertyOp61
 70
     1
102
RTVSPropertyOp62
 70
     1
  0
XRECORD
  5
C7C6
102
{ACAD_REACTORS
330
C7C5
102
}
330
C7C5
100
AcDbXrecord
280
     1
102
RTVSPost2010Prop28
280
     0
102
RTVSPost2010PropOp28
 70
     1
102
RTVSPost2010Prop29
280
     1
102
RTVSPost2010PropOp29
 70
     1
102
RTVSPost2010Prop30
280
     1
102
RTVSPost2010PropOp30
 70
     1
102
RTVSPost2010Prop31
280
     0
102
RTVSPost2010PropOp31
 70
     1
102
RTVSPost2010Prop32
280
     0
102
RTVSPost2010PropOp32
 70
     1
102
RTVSPost2010Prop33
280
     0
102
RTVSPost2010PropOp33
 70
     1
102
RTVSPost2010Prop34
280
     0
102
RTVSPost2010PropOp34
 70
     1
102
RTVSPost2010Prop35
280
     0
102
RTVSPost2010PropOp35
 70
     1
102
RTVSPost2010Prop36
280
     0
102
RTVSPost2010PropOp36
 70
     1
102
RTVSPost2010Prop37
 90
       50
102
RTVSPost2010PropOp37
 70
     1
102
RTVSPost2010Prop38
140
0.0
102
RTVSPost2010PropOp38
 70
     1
102
RTVSPost2010Prop39
140
1.0
102
RTVSPost2010PropOp39
 70
     1
102
RTVSPost2010Prop40
 90
        0
102
RTVSPost2010PropOp40
 70
     1
102
RTVSPost2010Prop41ColorIndex
 90
       18
102
RTVSPost2010Prop41ColorRGB
 90
        0
102
RTVSPost2010PropOp41
 70
     1
102
RTVSPost2010Prop42
 90
       50
102
RTVSPost2010PropOp42
 70
     1
102
RTVSPost2010Prop43
 90
        3
102
RTVSPost2010PropOp43
 70
     1
102
RTVSPost2010Prop44ColorIndex
 90
        5
102
RTVSPost2010Prop44ColorRGB
 90
      255
102
RTVSPost2010PropOp44
 70
     1
102
RTVSPost2010Prop45
280
     0
102
RTVSPost2010PropOp45
 70
     1
102
RTVSPost2010Prop46
 90
       50
102
RTVSPost2010PropOp46
 70
     1
102
RTVSPost2010Prop47
 90
       50
102
RTVSPost2010PropOp47
 70
     1
102
RTVSPost2010Prop48
 90
       50
102
RTVSPost2010PropOp48
 70
     1
102
RTVSPost2010Prop49
280
     0
102
RTVSPost2010PropOp49
 70
     1
102
RTVSPost2010Prop50
 90
       50
102
RTVSPost2010PropOp50
 70
     1
102
RTVSPost2010Prop51ColorIndex
 90
      256
102
RTVSPost2010Prop51ColorRGB
 90
-16777216
102
RTVSPost2010PropOp51
 70
     0
102
RTVSPost2010Prop52
140
1.0
102
RTVSPost2010PropOp52
 70
     0
102
RTVSPost2010Prop53
 90
        2
102
RTVSPost2010PropOp53
 70
     1
102
RTVSPost2010Prop54
  1
strokes_ogs.tif
102
RTVSPost2010PropOp54
 70
     1
102
RTVSPost2010Prop55
280
     0
102
RTVSPost2010PropOp55
 70
     1
102
RTVSPost2010Prop56
140
1.0
102
RTVSPost2010PropOp56
 70
     1
102
RTVSPost2010Prop57
140
1.0
102
RTVSPost2010PropOp57
 70
     1
102
RTVSPropertyOp0
 70
     1
102
RTVSPropertyOp1
 70
     1
102
RTVSPropertyOp2
 70
     1
102
RTVSPropertyOp3
 70
     1
102
RTVSPropertyOp4
 70
     1
102
RTVSPropertyOp5
 70
     1
102
RTVSPropertyOp6
 70
     1
102
RTVSPropertyOp7
 70
     1
102
RTVSPropertyOp8
 70
     1
102
RTVSPropertyOp9
 70
     1
102
RTVSPropertyOp10
 70
     1
102
RTVSPropertyOp11
 70
     1
102
RTVSPropertyOp12
 70
     1
102
RTVSPropertyOp13
 70
     1
102
RTVSPropertyOp14
 70
     1
102
RTVSPropertyOp15
 70
     1
102
RTVSPropertyOp16
 70
     1
102
RTVSPropertyOp17
 70
     1
102
RTVSPropertyOp18
 70
     1
102
RTVSPropertyOp19
 70
     1
102
RTVSPropertyOp20
 70
     1
102
RTVSPropertyOp21
 70
     1
102
RTVSPropertyOp22
 70
     1
102
RTVSPropertyOp23
 70
     1
102
RTVSPropertyOp24
 70
     1
102
RTVSPropertyOp25
 70
     1
102
RTVSPropertyOp26
 70
     1
102
RTVSPropertyOp27
 70
     1
102
RTVSPropertyOp28
 70
     1
102
RTVSPropertyOp29
 70
     1
102
RTVSPropertyOp30
 70
     1
102
RTVSPropertyOp31
 70
     1
102
RTVSPropertyOp32
 70
     1
102
RTVSPropertyOp33
 70
     1
102
RTVSPropertyOp34
 70
     1
102
RTVSPropertyOp35
 70
     1
102
RTVSPropertyOp36
 70
     1
102
RTVSPropertyOp37
 70
     1
102
RTVSPropertyOp38
 70
     1
102
RTVSPropertyOp39
 70
     1
102
RTVSPropertyOp40
 70
     1
102
RTVSPropertyOp41
 70
     1
102
RTVSPropertyOp42
 70
     1
102
RTVSPropertyOp43
 70
     1
102
RTVSPropertyOp44
 70
     1
102
RTVSPropertyOp45
 70
     1
102
RTVSPropertyOp46
 70
     1
102
RTVSPropertyOp47
 70
     1
102
RTVSPropertyOp48
 70
     1
102
RTVSPropertyOp49
 70
     1
102
RTVSPropertyOp50
 70
     1
102
RTVSPropertyOp51
 70
     0
102
RTVSPropertyOp52
 70
     0
102
RTVSPropertyOp53
 70
     1
102
RTVSPropertyOp54
 70
     1
102
RTVSPropertyOp55
 70
     1
102
RTVSPropertyOp56
 70
     1
102
RTVSPropertyOp57
 70
     1
102
RTVSPropertyOp58
 70
     1
102
RTVSPropertyOp59
 70
     1
102
RTVSPropertyOp60
 70
     1
102
RTVSPropertyOp61
 70
     1
102
RTVSPropertyOp62
 70
     1
  0
XRECORD
  5
C7B8
102
{ACAD_REACTORS
330
C7B7
102
}
330
C7B7
100
AcDbXrecord
280
     1
102
RTVSPost2010Prop28
280
     0
102
RTVSPost2010PropOp28
 70
     1
102
RTVSPost2010Prop29
280
     1
102
RTVSPost2010PropOp29
 70
     1
102
RTVSPost2010Prop30
280
     1
102
RTVSPost2010PropOp30
 70
     1
102
RTVSPost2010Prop31
280
     0
102
RTVSPost2010PropOp31
 70
     1
102
RTVSPost2010Prop32
280
     0
102
RTVSPost2010PropOp32
 70
     1
102
RTVSPost2010Prop33
280
     0
102
RTVSPost2010PropOp33
 70
     1
102
RTVSPost2010Prop34
280
     0
102
RTVSPost2010PropOp34
 70
     1
102
RTVSPost2010Prop35
280
     0
102
RTVSPost2010PropOp35
 70
     1
102
RTVSPost2010Prop36
280
     0
102
RTVSPost2010PropOp36
 70
     1
102
RTVSPost2010Prop37
 90
       50
102
RTVSPost2010PropOp37
 70
     1
102
RTVSPost2010Prop38
140
0.0
102
RTVSPost2010PropOp38
 70
     1
102
RTVSPost2010Prop39
140
1.0
102
RTVSPost2010PropOp39
 70
     1
102
RTVSPost2010Prop40
 90
        0
102
RTVSPost2010PropOp40
 70
     1
102
RTVSPost2010Prop41ColorIndex
 90
       18
102
RTVSPost2010Prop41ColorRGB
 90
        0
102
RTVSPost2010PropOp41
 70
     1
102
RTVSPost2010Prop42
 90
       50
102
RTVSPost2010PropOp42
 70
     1
102
RTVSPost2010Prop43
 90
        3
102
RTVSPost2010PropOp43
 70
     1
102
RTVSPost2010Prop44ColorIndex
 90
        5
102
RTVSPost2010Prop44ColorRGB
 90
      255
102
RTVSPost2010PropOp44
 70
     1
102
RTVSPost2010Prop45
280
     0
102
RTVSPost2010PropOp45
 70
     1
102
RTVSPost2010Prop46
 90
       50
102
RTVSPost2010PropOp46
 70
     1
102
RTVSPost2010Prop47
 90
       50
102
RTVSPost2010PropOp47
 70
     1
102
RTVSPost2010Prop48
 90
       50
102
RTVSPost2010PropOp48
 70
     1
102
RTVSPost2010Prop49
280
     0
102
RTVSPost2010PropOp49
 70
     1
102
RTVSPost2010Prop50
 90
       50
102
RTVSPost2010PropOp50
 70
     1
102
RTVSPost2010Prop51ColorIndex
 90
      256
102
RTVSPost2010Prop51ColorRGB
 90
-16777216
102
RTVSPost2010PropOp51
 70
     0
102
RTVSPost2010Prop52
140
1.0
102
RTVSPost2010PropOp52
 70
     0
102
RTVSPost2010Prop53
 90
        2
102
RTVSPost2010PropOp53
 70
     1
102
RTVSPost2010Prop54
  1
strokes_ogs.tif
102
RTVSPost2010PropOp54
 70
     1
102
RTVSPost2010Prop55
280
     0
102
RTVSPost2010PropOp55
 70
     1
102
RTVSPost2010Prop56
140
1.0
102
RTVSPost2010PropOp56
 70
     1
102
RTVSPost2010Prop57
140
1.0
102
RTVSPost2010PropOp57
 70
     1
102
RTVSPropertyOp0
 70
     1
102
RTVSPropertyOp1
 70
     1
102
RTVSPropertyOp2
 70
     1
102
RTVSPropertyOp3
 70
     1
102
RTVSPropertyOp4
 70
     1
102
RTVSPropertyOp5
 70
     1
102
RTVSPropertyOp6
 70
     1
102
RTVSPropertyOp7
 70
     1
102
RTVSPropertyOp8
 70
     1
102
RTVSPropertyOp9
 70
     1
102
RTVSPropertyOp10
 70
     1
102
RTVSPropertyOp11
 70
     1
102
RTVSPropertyOp12
 70
     1
102
RTVSPropertyOp13
 70
     1
102
RTVSPropertyOp14
 70
     1
102
RTVSPropertyOp15
 70
     1
102
RTVSPropertyOp16
 70
     1
102
RTVSPropertyOp17
 70
     1
102
RTVSPropertyOp18
 70
     1
102
RTVSPropertyOp19
 70
     1
102
RTVSPropertyOp20
 70
     1
102
RTVSPropertyOp21
 70
     1
102
RTVSPropertyOp22
 70
     1
102
RTVSPropertyOp23
 70
     1
102
RTVSPropertyOp24
 70
     1
102
RTVSPropertyOp25
 70
     1
102
RTVSPropertyOp26
 70
     1
102
RTVSPropertyOp27
 70
     1
102
RTVSPropertyOp28
 70
     1
102
RTVSPropertyOp29
 70
     1
102
RTVSPropertyOp30
 70
     1
102
RTVSPropertyOp31
 70
     1
102
RTVSPropertyOp32
 70
     1
102
RTVSPropertyOp33
 70
     1
102
RTVSPropertyOp34
 70
     1
102
RTVSPropertyOp35
 70
     1
102
RTVSPropertyOp36
 70
     1
102
RTVSPropertyOp37
 70
     1
102
RTVSPropertyOp38
 70
     1
102
RTVSPropertyOp39
 70
     1
102
RTVSPropertyOp40
 70
     1
102
RTVSPropertyOp41
 70
     1
102
RTVSPropertyOp42
 70
     1
102
RTVSPropertyOp43
 70
     1
102
RTVSPropertyOp44
 70
     1
102
RTVSPropertyOp45
 70
     1
102
RTVSPropertyOp46
 70
     1
102
RTVSPropertyOp47
 70
     1
102
RTVSPropertyOp48
 70
     1
102
RTVSPropertyOp49
 70
     1
102
RTVSPropertyOp50
 70
     1
102
RTVSPropertyOp51
 70
     0
102
RTVSPropertyOp52
 70
     0
102
RTVSPropertyOp53
 70
     1
102
RTVSPropertyOp54
 70
     1
102
RTVSPropertyOp55
 70
     1
102
RTVSPropertyOp56
 70
     1
102
RTVSPropertyOp57
 70
     1
102
RTVSPropertyOp58
 70
     1
102
RTVSPropertyOp59
 70
     1
102
RTVSPropertyOp60
 70
     1
102
RTVSPropertyOp61
 70
     1
102
RTVSPropertyOp62
 70
     1
  0
XRECORD
  5
C7BC
102
{ACAD_REACTORS
330
C7BB
102
}
330
C7BB
100
AcDbXrecord
280
     1
102
RTVSPost2010Prop28
280
     0
102
RTVSPost2010PropOp28
 70
     1
102
RTVSPost2010Prop29
280
     1
102
RTVSPost2010PropOp29
 70
     1
102
RTVSPost2010Prop30
280
     1
102
RTVSPost2010PropOp30
 70
     1
102
RTVSPost2010Prop31
280
     0
102
RTVSPost2010PropOp31
 70
     1
102
RTVSPost2010Prop32
280
     0
102
RTVSPost2010PropOp32
 70
     1
102
RTVSPost2010Prop33
280
     0
102
RTVSPost2010PropOp33
 70
     1
102
RTVSPost2010Prop34
280
     0
102
RTVSPost2010PropOp34
 70
     1
102
RTVSPost2010Prop35
280
     0
102
RTVSPost2010PropOp35
 70
     1
102
RTVSPost2010Prop36
280
     0
102
RTVSPost2010PropOp36
 70
     1
102
RTVSPost2010Prop37
 90
       50
102
RTVSPost2010PropOp37
 70
     1
102
RTVSPost2010Prop38
140
0.0
102
RTVSPost2010PropOp38
 70
     1
102
RTVSPost2010Prop39
140
1.0
102
RTVSPost2010PropOp39
 70
     1
102
RTVSPost2010Prop40
 90
        0
102
RTVSPost2010PropOp40
 70
     1
102
RTVSPost2010Prop41ColorIndex
 90
       18
102
RTVSPost2010Prop41ColorRGB
 90
        0
102
RTVSPost2010PropOp41
 70
     1
102
RTVSPost2010Prop42
 90
       50
102
RTVSPost2010PropOp42
 70
     1
102
RTVSPost2010Prop43
 90
        3
102
RTVSPost2010PropOp43
 70
     1
102
RTVSPost2010Prop44ColorIndex
 90
        5
102
RTVSPost2010Prop44ColorRGB
 90
      255
102
RTVSPost2010PropOp44
 70
     1
102
RTVSPost2010Prop45
280
     0
102
RTVSPost2010PropOp45
 70
     1
102
RTVSPost2010Prop46
 90
       50
102
RTVSPost2010PropOp46
 70
     1
102
RTVSPost2010Prop47
 90
       50
102
RTVSPost2010PropOp47
 70
     1
102
RTVSPost2010Prop48
 90
       50
102
RTVSPost2010PropOp48
 70
     1
102
RTVSPost2010Prop49
280
     0
102
RTVSPost2010PropOp49
 70
     1
102
RTVSPost2010Prop50
 90
       50
102
RTVSPost2010PropOp50
 70
     1
102
RTVSPost2010Prop51ColorIndex
 90
      256
102
RTVSPost2010Prop51ColorRGB
 90
-16777216
102
RTVSPost2010PropOp51
 70
     0
102
RTVSPost2010Prop52
140
1.0
102
RTVSPost2010PropOp52
 70
     0
102
RTVSPost2010Prop53
 90
        2
102
RTVSPost2010PropOp53
 70
     1
102
RTVSPost2010Prop54
  1
strokes_ogs.tif
102
RTVSPost2010PropOp54
 70
     1
102
RTVSPost2010Prop55
280
     0
102
RTVSPost2010PropOp55
 70
     1
102
RTVSPost2010Prop56
140
1.0
102
RTVSPost2010PropOp56
 70
     1
102
RTVSPost2010Prop57
140
1.0
102
RTVSPost2010PropOp57
 70
     1
102
RTVSPropertyOp0
 70
     1
102
RTVSPropertyOp1
 70
     1
102
RTVSPropertyOp2
 70
     1
102
RTVSPropertyOp3
 70
     1
102
RTVSPropertyOp4
 70
     1
102
RTVSPropertyOp5
 70
     1
102
RTVSPropertyOp6
 70
     1
102
RTVSPropertyOp7
 70
     1
102
RTVSPropertyOp8
 70
     1
102
RTVSPropertyOp9
 70
     1
102
RTVSPropertyOp10
 70
     1
102
RTVSPropertyOp11
 70
     1
102
RTVSPropertyOp12
 70
     1
102
RTVSPropertyOp13
 70
     1
102
RTVSPropertyOp14
 70
     1
102
RTVSPropertyOp15
 70
     1
102
RTVSPropertyOp16
 70
     1
102
RTVSPropertyOp17
 70
     1
102
RTVSPropertyOp18
 70
     1
102
RTVSPropertyOp19
 70
     1
102
RTVSPropertyOp20
 70
     1
102
RTVSPropertyOp21
 70
     1
102
RTVSPropertyOp22
 70
     1
102
RTVSPropertyOp23
 70
     1
102
RTVSPropertyOp24
 70
     1
102
RTVSPropertyOp25
 70
     1
102
RTVSPropertyOp26
 70
     1
102
RTVSPropertyOp27
 70
     1
102
RTVSPropertyOp28
 70
     1
102
RTVSPropertyOp29
 70
     1
102
RTVSPropertyOp30
 70
     1
102
RTVSPropertyOp31
 70
     1
102
RTVSPropertyOp32
 70
     1
102
RTVSPropertyOp33
 70
     1
102
RTVSPropertyOp34
 70
     1
102
RTVSPropertyOp35
 70
     1
102
RTVSPropertyOp36
 70
     1
102
RTVSPropertyOp37
 70
     1
102
RTVSPropertyOp38
 70
     1
102
RTVSPropertyOp39
 70
     1
102
RTVSPropertyOp40
 70
     1
102
RTVSPropertyOp41
 70
     1
102
RTVSPropertyOp42
 70
     1
102
RTVSPropertyOp43
 70
     1
102
RTVSPropertyOp44
 70
     1
102
RTVSPropertyOp45
 70
     1
102
RTVSPropertyOp46
 70
     1
102
RTVSPropertyOp47
 70
     1
102
RTVSPropertyOp48
 70
     1
102
RTVSPropertyOp49
 70
     1
102
RTVSPropertyOp50
 70
     1
102
RTVSPropertyOp51
 70
     0
102
RTVSPropertyOp52
 70
     0
102
RTVSPropertyOp53
 70
     1
102
RTVSPropertyOp54
 70
     1
102
RTVSPropertyOp55
 70
     1
102
RTVSPropertyOp56
 70
     1
102
RTVSPropertyOp57
 70
     1
102
RTVSPropertyOp58
 70
     1
102
RTVSPropertyOp59
 70
     1
102
RTVSPropertyOp60
 70
     1
102
RTVSPropertyOp61
 70
     1
102
RTVSPropertyOp62
 70
     1
  0
XRECORD
  5
C7CE
102
{ACAD_REACTORS
330
C7CD
102
}
330
C7CD
100
AcDbXrecord
280
     1
102
RTVSPost2010Prop28
280
     0
102
RTVSPost2010PropOp28
 70
     1
102
RTVSPost2010Prop29
280
     1
102
RTVSPost2010PropOp29
 70
     1
102
RTVSPost2010Prop30
280
     1
102
RTVSPost2010PropOp30
 70
     1
102
RTVSPost2010Prop31
280
     0
102
RTVSPost2010PropOp31
 70
     1
102
RTVSPost2010Prop32
280
     0
102
RTVSPost2010PropOp32
 70
     1
102
RTVSPost2010Prop33
280
     0
102
RTVSPost2010PropOp33
 70
     1
102
RTVSPost2010Prop34
280
     0
102
RTVSPost2010PropOp34
 70
     1
102
RTVSPost2010Prop35
280
     0
102
RTVSPost2010PropOp35
 70
     1
102
RTVSPost2010Prop36
280
     0
102
RTVSPost2010PropOp36
 70
     1
102
RTVSPost2010Prop37
 90
       50
102
RTVSPost2010PropOp37
 70
     1
102
RTVSPost2010Prop38
140
0.0
102
RTVSPost2010PropOp38
 70
     1
102
RTVSPost2010Prop39
140
1.0
102
RTVSPost2010PropOp39
 70
     1
102
RTVSPost2010Prop40
 90
        0
102
RTVSPost2010PropOp40
 70
     1
102
RTVSPost2010Prop41ColorIndex
 90
       18
102
RTVSPost2010Prop41ColorRGB
 90
        0
102
RTVSPost2010PropOp41
 70
     1
102
RTVSPost2010Prop42
 90
       50
102
RTVSPost2010PropOp42
 70
     1
102
RTVSPost2010Prop43
 90
        3
102
RTVSPost2010PropOp43
 70
     1
102
RTVSPost2010Prop44ColorIndex
 90
        5
102
RTVSPost2010Prop44ColorRGB
 90
      255
102
RTVSPost2010PropOp44
 70
     1
102
RTVSPost2010Prop45
280
     0
102
RTVSPost2010PropOp45
 70
     1
102
RTVSPost2010Prop46
 90
       50
102
RTVSPost2010PropOp46
 70
     1
102
RTVSPost2010Prop47
 90
       50
102
RTVSPost2010PropOp47
 70
     1
102
RTVSPost2010Prop48
 90
       50
102
RTVSPost2010PropOp48
 70
     1
102
RTVSPost2010Prop49
280
     0
102
RTVSPost2010PropOp49
 70
     1
102
RTVSPost2010Prop50
 90
       50
102
RTVSPost2010PropOp50
 70
     1
102
RTVSPost2010Prop51ColorIndex
 90
      256
102
RTVSPost2010Prop51ColorRGB
 90
-16777216
102
RTVSPost2010PropOp51
 70
     0
102
RTVSPost2010Prop52
140
1.0
102
RTVSPost2010PropOp52
 70
     0
102
RTVSPost2010Prop53
 90
        2
102
RTVSPost2010PropOp53
 70
     1
102
RTVSPost2010Prop54
  1
strokes_ogs.tif
102
RTVSPost2010PropOp54
 70
     1
102
RTVSPost2010Prop55
280
     0
102
RTVSPost2010PropOp55
 70
     1
102
RTVSPost2010Prop56
140
1.0
102
RTVSPost2010PropOp56
 70
     1
102
RTVSPost2010Prop57
140
1.0
102
RTVSPost2010PropOp57
 70
     1
102
RTVSPropertyOp0
 70
     0
102
RTVSPropertyOp1
 70
     0
102
RTVSPropertyOp2
 70
     0
102
RTVSPropertyOp3
 70
     0
102
RTVSPropertyOp4
 70
     0
102
RTVSPropertyOp5
 70
     0
102
RTVSPropertyOp6
 70
     0
102
RTVSPropertyOp7
 70
     0
102
RTVSPropertyOp8
 70
     0
102
RTVSPropertyOp9
 70
     0
102
RTVSPropertyOp10
 70
     0
102
RTVSPropertyOp11
 70
     0
102
RTVSPropertyOp12
 70
     0
102
RTVSPropertyOp13
 70
     0
102
RTVSPropertyOp14
 70
     2
102
RTVSPropertyOp15
 70
     0
102
RTVSPropertyOp16
 70
     0
102
RTVSPropertyOp17
 70
     0
102
RTVSPropertyOp18
 70
     0
102
RTVSPropertyOp19
 70
     0
102
RTVSPropertyOp20
 70
     0
102
RTVSPropertyOp21
 70
     0
102
RTVSPropertyOp22
 70
     0
102
RTVSPropertyOp23
 70
     0
102
RTVSPropertyOp24
 70
     0
102
RTVSPropertyOp25
 70
     0
102
RTVSPropertyOp26
 70
     0
102
RTVSPropertyOp27
 70
     0
102
RTVSPropertyOp28
 70
     1
102
RTVSPropertyOp29
 70
     1
102
RTVSPropertyOp30
 70
     1
102
RTVSPropertyOp31
 70
     1
102
RTVSPropertyOp32
 70
     1
102
RTVSPropertyOp33
 70
     1
102
RTVSPropertyOp34
 70
     1
102
RTVSPropertyOp35
 70
     1
102
RTVSPropertyOp36
 70
     1
102
RTVSPropertyOp37
 70
     1
102
RTVSPropertyOp38
 70
     1
102
RTVSPropertyOp39
 70
     1
102
RTVSPropertyOp40
 70
     1
102
RTVSPropertyOp41
 70
     1
102
RTVSPropertyOp42
 70
     1
102
RTVSPropertyOp43
 70
     1
102
RTVSPropertyOp44
 70
     1
102
RTVSPropertyOp45
 70
     1
102
RTVSPropertyOp46
 70
     1
102
RTVSPropertyOp47
 70
     1
102
RTVSPropertyOp48
 70
     1
102
RTVSPropertyOp49
 70
     1
102
RTVSPropertyOp50
 70
     1
102
RTVSPropertyOp51
 70
     0
102
RTVSPropertyOp52
 70
     0
102
RTVSPropertyOp53
 70
     1
102
RTVSPropertyOp54
 70
     1
102
RTVSPropertyOp55
 70
     1
102
RTVSPropertyOp56
 70
     1
102
RTVSPropertyOp57
 70
     1
102
RTVSPropertyOp58
 70
     1
102
RTVSPropertyOp59
 70
     1
102
RTVSPropertyOp60
 70
     1
102
RTVSPropertyOp61
 70
     1
102
RTVSPropertyOp62
 70
     1
  0
XRECORD
  5
C7C4
102
{ACAD_REACTORS
330
C7C3
102
}
330
C7C3
100
AcDbXrecord
280
     1
102
RTVSPost2010Prop28
280
     0
102
RTVSPost2010PropOp28
 70
     1
102
RTVSPost2010Prop29
280
     1
102
RTVSPost2010PropOp29
 70
     1
102
RTVSPost2010Prop30
280
     1
102
RTVSPost2010PropOp30
 70
     1
102
RTVSPost2010Prop31
280
     0
102
RTVSPost2010PropOp31
 70
     1
102
RTVSPost2010Prop32
280
     0
102
RTVSPost2010PropOp32
 70
     1
102
RTVSPost2010Prop33
280
     0
102
RTVSPost2010PropOp33
 70
     1
102
RTVSPost2010Prop34
280
     0
102
RTVSPost2010PropOp34
 70
     1
102
RTVSPost2010Prop35
280
     0
102
RTVSPost2010PropOp35
 70
     1
102
RTVSPost2010Prop36
280
     0
102
RTVSPost2010PropOp36
 70
     1
102
RTVSPost2010Prop37
 90
       50
102
RTVSPost2010PropOp37
 70
     1
102
RTVSPost2010Prop38
140
0.0
102
RTVSPost2010PropOp38
 70
     1
102
RTVSPost2010Prop39
140
1.0
102
RTVSPost2010PropOp39
 70
     1
102
RTVSPost2010Prop40
 90
        0
102
RTVSPost2010PropOp40
 70
     1
102
RTVSPost2010Prop41ColorIndex
 90
       18
102
RTVSPost2010Prop41ColorRGB
 90
        0
102
RTVSPost2010PropOp41
 70
     1
102
RTVSPost2010Prop42
 90
       50
102
RTVSPost2010PropOp42
 70
     1
102
RTVSPost2010Prop43
 90
        3
102
RTVSPost2010PropOp43
 70
     1
102
RTVSPost2010Prop44ColorIndex
 90
        5
102
RTVSPost2010Prop44ColorRGB
 90
      255
102
RTVSPost2010PropOp44
 70
     1
102
RTVSPost2010Prop45
280
     0
102
RTVSPost2010PropOp45
 70
     1
102
RTVSPost2010Prop46
 90
       50
102
RTVSPost2010PropOp46
 70
     1
102
RTVSPost2010Prop47
 90
       50
102
RTVSPost2010PropOp47
 70
     1
102
RTVSPost2010Prop48
 90
       50
102
RTVSPost2010PropOp48
 70
     1
102
RTVSPost2010Prop49
280
     0
102
RTVSPost2010PropOp49
 70
     1
102
RTVSPost2010Prop50
 90
       50
102
RTVSPost2010PropOp50
 70
     1
102
RTVSPost2010Prop51ColorIndex
 90
      256
102
RTVSPost2010Prop51ColorRGB
 90
-16777216
102
RTVSPost2010PropOp51
 70
     0
102
RTVSPost2010Prop52
140
1.0
102
RTVSPost2010PropOp52
 70
     0
102
RTVSPost2010Prop53
 90
        2
102
RTVSPost2010PropOp53
 70
     1
102
RTVSPost2010Prop54
  1
strokes_ogs.tif
102
RTVSPost2010PropOp54
 70
     1
102
RTVSPost2010Prop55
280
     0
102
RTVSPost2010PropOp55
 70
     1
102
RTVSPost2010Prop56
140
1.0
102
RTVSPost2010PropOp56
 70
     1
102
RTVSPost2010Prop57
140
1.0
102
RTVSPost2010PropOp57
 70
     1
102
RTVSPropertyOp0
 70
     1
102
RTVSPropertyOp1
 70
     1
102
RTVSPropertyOp2
 70
     1
102
RTVSPropertyOp3
 70
     1
102
RTVSPropertyOp4
 70
     1
102
RTVSPropertyOp5
 70
     1
102
RTVSPropertyOp6
 70
     1
102
RTVSPropertyOp7
 70
     1
102
RTVSPropertyOp8
 70
     1
102
RTVSPropertyOp9
 70
     1
102
RTVSPropertyOp10
 70
     1
102
RTVSPropertyOp11
 70
     1
102
RTVSPropertyOp12
 70
     1
102
RTVSPropertyOp13
 70
     1
102
RTVSPropertyOp14
 70
     1
102
RTVSPropertyOp15
 70
     1
102
RTVSPropertyOp16
 70
     1
102
RTVSPropertyOp17
 70
     1
102
RTVSPropertyOp18
 70
     1
102
RTVSPropertyOp19
 70
     1
102
RTVSPropertyOp20
 70
     1
102
RTVSPropertyOp21
 70
     1
102
RTVSPropertyOp22
 70
     1
102
RTVSPropertyOp23
 70
     1
102
RTVSPropertyOp24
 70
     1
102
RTVSPropertyOp25
 70
     1
102
RTVSPropertyOp26
 70
     1
102
RTVSPropertyOp27
 70
     1
102
RTVSPropertyOp28
 70
     1
102
RTVSPropertyOp29
 70
     1
102
RTVSPropertyOp30
 70
     1
102
RTVSPropertyOp31
 70
     1
102
RTVSPropertyOp32
 70
     1
102
RTVSPropertyOp33
 70
     1
102
RTVSPropertyOp34
 70
     1
102
RTVSPropertyOp35
 70
     1
102
RTVSPropertyOp36
 70
     1
102
RTVSPropertyOp37
 70
     1
102
RTVSPropertyOp38
 70
     1
102
RTVSPropertyOp39
 70
     1
102
RTVSPropertyOp40
 70
     1
102
RTVSPropertyOp41
 70
     1
102
RTVSPropertyOp42
 70
     1
102
RTVSPropertyOp43
 70
     1
102
RTVSPropertyOp44
 70
     1
102
RTVSPropertyOp45
 70
     1
102
RTVSPropertyOp46
 70
     1
102
RTVSPropertyOp47
 70
     1
102
RTVSPropertyOp48
 70
     1
102
RTVSPropertyOp49
 70
     1
102
RTVSPropertyOp50
 70
     1
102
RTVSPropertyOp51
 70
     0
102
RTVSPropertyOp52
 70
     0
102
RTVSPropertyOp53
 70
     1
102
RTVSPropertyOp54
 70
     1
102
RTVSPropertyOp55
 70
     1
102
RTVSPropertyOp56
 70
     1
102
RTVSPropertyOp57
 70
     1
102
RTVSPropertyOp58
 70
     1
102
RTVSPropertyOp59
 70
     1
102
RTVSPropertyOp60
 70
     1
102
RTVSPropertyOp61
 70
     1
102
RTVSPropertyOp62
 70
     1
  0
XRECORD
  5
C7A8
102
{ACAD_REACTORS
330
C7A7
102
}
330
C7A7
100
AcDbXrecord
280
     1
102
RTVSPost2010Prop28
280
     0
102
RTVSPost2010PropOp28
 70
     1
102
RTVSPost2010Prop29
280
     1
102
RTVSPost2010PropOp29
 70
     1
102
RTVSPost2010Prop30
280
     1
102
RTVSPost2010PropOp30
 70
     1
102
RTVSPost2010Prop31
280
     0
102
RTVSPost2010PropOp31
 70
     1
102
RTVSPost2010Prop32
280
     0
102
RTVSPost2010PropOp32
 70
     1
102
RTVSPost2010Prop33
280
     0
102
RTVSPost2010PropOp33
 70
     1
102
RTVSPost2010Prop34
280
     0
102
RTVSPost2010PropOp34
 70
     1
102
RTVSPost2010Prop35
280
     0
102
RTVSPost2010PropOp35
 70
     1
102
RTVSPost2010Prop36
280
     0
102
RTVSPost2010PropOp36
 70
     1
102
RTVSPost2010Prop37
 90
       50
102
RTVSPost2010PropOp37
 70
     1
102
RTVSPost2010Prop38
140
0.0
102
RTVSPost2010PropOp38
 70
     1
102
RTVSPost2010Prop39
140
1.0
102
RTVSPost2010PropOp39
 70
     1
102
RTVSPost2010Prop40
 90
        0
102
RTVSPost2010PropOp40
 70
     1
102
RTVSPost2010Prop41ColorIndex
 90
       18
102
RTVSPost2010Prop41ColorRGB
 90
        0
102
RTVSPost2010PropOp41
 70
     1
102
RTVSPost2010Prop42
 90
       50
102
RTVSPost2010PropOp42
 70
     1
102
RTVSPost2010Prop43
 90
        3
102
RTVSPost2010PropOp43
 70
     1
102
RTVSPost2010Prop44ColorIndex
 90
        5
102
RTVSPost2010Prop44ColorRGB
 90
      255
102
RTVSPost2010PropOp44
 70
     1
102
RTVSPost2010Prop45
280
     0
102
RTVSPost2010PropOp45
 70
     1
102
RTVSPost2010Prop46
 90
       50
102
RTVSPost2010PropOp46
 70
     1
102
RTVSPost2010Prop47
 90
       50
102
RTVSPost2010PropOp47
 70
     1
102
RTVSPost2010Prop48
 90
       50
102
RTVSPost2010PropOp48
 70
     1
102
RTVSPost2010Prop49
280
     0
102
RTVSPost2010PropOp49
 70
     1
102
RTVSPost2010Prop50
 90
       50
102
RTVSPost2010PropOp50
 70
     1
102
RTVSPost2010Prop51ColorIndex
 90
      256
102
RTVSPost2010Prop51ColorRGB
 90
-16777216
102
RTVSPost2010PropOp51
 70
     0
102
RTVSPost2010Prop52
140
1.0
102
RTVSPost2010PropOp52
 70
     0
102
RTVSPost2010Prop53
 90
        2
102
RTVSPost2010PropOp53
 70
     1
102
RTVSPost2010Prop54
  1
strokes_ogs.tif
102
RTVSPost2010PropOp54
 70
     1
102
RTVSPost2010Prop55
280
     0
102
RTVSPost2010PropOp55
 70
     1
102
RTVSPost2010Prop56
140
1.0
102
RTVSPost2010PropOp56
 70
     1
102
RTVSPost2010Prop57
140
1.0
102
RTVSPost2010PropOp57
 70
     1
102
RTVSPropertyOp0
 70
     1
102
RTVSPropertyOp1
 70
     1
102
RTVSPropertyOp2
 70
     1
102
RTVSPropertyOp3
 70
     1
102
RTVSPropertyOp4
 70
     1
102
RTVSPropertyOp5
 70
     1
102
RTVSPropertyOp6
 70
     1
102
RTVSPropertyOp7
 70
     1
102
RTVSPropertyOp8
 70
     1
102
RTVSPropertyOp9
 70
     1
102
RTVSPropertyOp10
 70
     1
102
RTVSPropertyOp11
 70
     1
102
RTVSPropertyOp12
 70
     1
102
RTVSPropertyOp13
 70
     1
102
RTVSPropertyOp14
 70
     1
102
RTVSPropertyOp15
 70
     1
102
RTVSPropertyOp16
 70
     1
102
RTVSPropertyOp17
 70
     1
102
RTVSPropertyOp18
 70
     1
102
RTVSPropertyOp19
 70
     1
102
RTVSPropertyOp20
 70
     1
102
RTVSPropertyOp21
 70
     1
102
RTVSPropertyOp22
 70
     1
102
RTVSPropertyOp23
 70
     1
102
RTVSPropertyOp24
 70
     1
102
RTVSPropertyOp25
 70
     1
102
RTVSPropertyOp26
 70
     1
102
RTVSPropertyOp27
 70
     1
102
RTVSPropertyOp28
 70
     1
102
RTVSPropertyOp29
 70
     1
102
RTVSPropertyOp30
 70
     1
102
RTVSPropertyOp31
 70
     1
102
RTVSPropertyOp32
 70
     1
102
RTVSPropertyOp33
 70
     1
102
RTVSPropertyOp34
 70
     1
102
RTVSPropertyOp35
 70
     1
102
RTVSPropertyOp36
 70
     1
102
RTVSPropertyOp37
 70
     1
102
RTVSPropertyOp38
 70
     1
102
RTVSPropertyOp39
 70
     1
102
RTVSPropertyOp40
 70
     1
102
RTVSPropertyOp41
 70
     1
102
RTVSPropertyOp42
 70
     1
102
RTVSPropertyOp43
 70
     1
102
RTVSPropertyOp44
 70
     1
102
RTVSPropertyOp45
 70
     1
102
RTVSPropertyOp46
 70
     1
102
RTVSPropertyOp47
 70
     1
102
RTVSPropertyOp48
 70
     1
102
RTVSPropertyOp49
 70
     1
102
RTVSPropertyOp50
 70
     1
102
RTVSPropertyOp51
 70
     0
102
RTVSPropertyOp52
 70
     0
102
RTVSPropertyOp53
 70
     1
102
RTVSPropertyOp54
 70
     1
102
RTVSPropertyOp55
 70
     1
102
RTVSPropertyOp56
 70
     1
102
RTVSPropertyOp57
 70
     1
102
RTVSPropertyOp58
 70
     1
102
RTVSPropertyOp59
 70
     1
102
RTVSPropertyOp60
 70
     1
102
RTVSPropertyOp61
 70
     1
102
RTVSPropertyOp62
 70
     1
  0
XRECORD
  5
C7AA
102
{ACAD_REACTORS
330
C7A9
102
}
330
C7A9
100
AcDbXrecord
280
     1
102
RTVSPost2010Prop28
280
     0
102
RTVSPost2010PropOp28
 70
     1
102
RTVSPost2010Prop29
280
     1
102
RTVSPost2010PropOp29
 70
     1
102
RTVSPost2010Prop30
280
     1
102
RTVSPost2010PropOp30
 70
     1
102
RTVSPost2010Prop31
280
     0
102
RTVSPost2010PropOp31
 70
     1
102
RTVSPost2010Prop32
280
     0
102
RTVSPost2010PropOp32
 70
     1
102
RTVSPost2010Prop33
280
     0
102
RTVSPost2010PropOp33
 70
     1
102
RTVSPost2010Prop34
280
     0
102
RTVSPost2010PropOp34
 70
     1
102
RTVSPost2010Prop35
280
     0
102
RTVSPost2010PropOp35
 70
     1
102
RTVSPost2010Prop36
280
     0
102
RTVSPost2010PropOp36
 70
     1
102
RTVSPost2010Prop37
 90
       50
102
RTVSPost2010PropOp37
 70
     1
102
RTVSPost2010Prop38
140
0.0
102
RTVSPost2010PropOp38
 70
     1
102
RTVSPost2010Prop39
140
1.0
102
RTVSPost2010PropOp39
 70
     1
102
RTVSPost2010Prop40
 90
        0
102
RTVSPost2010PropOp40
 70
     1
102
RTVSPost2010Prop41ColorIndex
 90
       18
102
RTVSPost2010Prop41ColorRGB
 90
        0
102
RTVSPost2010PropOp41
 70
     1
102
RTVSPost2010Prop42
 90
       50
102
RTVSPost2010PropOp42
 70
     1
102
RTVSPost2010Prop43
 90
        3
102
RTVSPost2010PropOp43
 70
     1
102
RTVSPost2010Prop44ColorIndex
 90
        5
102
RTVSPost2010Prop44ColorRGB
 90
      255
102
RTVSPost2010PropOp44
 70
     1
102
RTVSPost2010Prop45
280
     0
102
RTVSPost2010PropOp45
 70
     1
102
RTVSPost2010Prop46
 90
       50
102
RTVSPost2010PropOp46
 70
     1
102
RTVSPost2010Prop47
 90
       50
102
RTVSPost2010PropOp47
 70
     1
102
RTVSPost2010Prop48
 90
       50
102
RTVSPost2010PropOp48
 70
     1
102
RTVSPost2010Prop49
280
     0
102
RTVSPost2010PropOp49
 70
     1
102
RTVSPost2010Prop50
 90
       50
102
RTVSPost2010PropOp50
 70
     1
102
RTVSPost2010Prop51ColorIndex
 90
      256
102
RTVSPost2010Prop51ColorRGB
 90
-16777216
102
RTVSPost2010PropOp51
 70
     0
102
RTVSPost2010Prop52
140
1.0
102
RTVSPost2010PropOp52
 70
     0
102
RTVSPost2010Prop53
 90
        2
102
RTVSPost2010PropOp53
 70
     1
102
RTVSPost2010Prop54
  1
strokes_ogs.tif
102
RTVSPost2010PropOp54
 70
     1
102
RTVSPost2010Prop55
280
     0
102
RTVSPost2010PropOp55
 70
     1
102
RTVSPost2010Prop56
140
1.0
102
RTVSPost2010PropOp56
 70
     1
102
RTVSPost2010Prop57
140
1.0
102
RTVSPost2010PropOp57
 70
     1
102
RTVSPropertyOp0
 70
     1
102
RTVSPropertyOp1
 70
     1
102
RTVSPropertyOp2
 70
     1
102
RTVSPropertyOp3
 70
     1
102
RTVSPropertyOp4
 70
     1
102
RTVSPropertyOp5
 70
     1
102
RTVSPropertyOp6
 70
     1
102
RTVSPropertyOp7
 70
     1
102
RTVSPropertyOp8
 70
     1
102
RTVSPropertyOp9
 70
     1
102
RTVSPropertyOp10
 70
     1
102
RTVSPropertyOp11
 70
     1
102
RTVSPropertyOp12
 70
     1
102
RTVSPropertyOp13
 70
     1
102
RTVSPropertyOp14
 70
     1
102
RTVSPropertyOp15
 70
     1
102
RTVSPropertyOp16
 70
     1
102
RTVSPropertyOp17
 70
     1
102
RTVSPropertyOp18
 70
     1
102
RTVSPropertyOp19
 70
     1
102
RTVSPropertyOp20
 70
     1
102
RTVSPropertyOp21
 70
     1
102
RTVSPropertyOp22
 70
     1
102
RTVSPropertyOp23
 70
     1
102
RTVSPropertyOp24
 70
     1
102
RTVSPropertyOp25
 70
     1
102
RTVSPropertyOp26
 70
     1
102
RTVSPropertyOp27
 70
     1
102
RTVSPropertyOp28
 70
     1
102
RTVSPropertyOp29
 70
     1
102
RTVSPropertyOp30
 70
     1
102
RTVSPropertyOp31
 70
     1
102
RTVSPropertyOp32
 70
     1
102
RTVSPropertyOp33
 70
     1
102
RTVSPropertyOp34
 70
     1
102
RTVSPropertyOp35
 70
     1
102
RTVSPropertyOp36
 70
     1
102
RTVSPropertyOp37
 70
     1
102
RTVSPropertyOp38
 70
     1
102
RTVSPropertyOp39
 70
     1
102
RTVSPropertyOp40
 70
     1
102
RTVSPropertyOp41
 70
     1
102
RTVSPropertyOp42
 70
     1
102
RTVSPropertyOp43
 70
     1
102
RTVSPropertyOp44
 70
     1
102
RTVSPropertyOp45
 70
     1
102
RTVSPropertyOp46
 70
     1
102
RTVSPropertyOp47
 70
     1
102
RTVSPropertyOp48
 70
     1
102
RTVSPropertyOp49
 70
     1
102
RTVSPropertyOp50
 70
     1
102
RTVSPropertyOp51
 70
     0
102
RTVSPropertyOp52
 70
     0
102
RTVSPropertyOp53
 70
     1
102
RTVSPropertyOp54
 70
     1
102
RTVSPropertyOp55
 70
     1
102
RTVSPropertyOp56
 70
     1
102
RTVSPropertyOp57
 70
     1
102
RTVSPropertyOp58
 70
     1
102
RTVSPropertyOp59
 70
     1
102
RTVSPropertyOp60
 70
     1
102
RTVSPropertyOp61
 70
     1
102
RTVSPropertyOp62
 70
     1
  0
XRECORD
  5
C7AC
102
{ACAD_REACTORS
330
C7AB
102
}
330
C7AB
100
AcDbXrecord
280
     1
102
RTVSPost2010Prop28
280
     0
102
RTVSPost2010PropOp28
 70
     1
102
RTVSPost2010Prop29
280
     1
102
RTVSPost2010PropOp29
 70
     1
102
RTVSPost2010Prop30
280
     1
102
RTVSPost2010PropOp30
 70
     1
102
RTVSPost2010Prop31
280
     0
102
RTVSPost2010PropOp31
 70
     1
102
RTVSPost2010Prop32
280
     0
102
RTVSPost2010PropOp32
 70
     1
102
RTVSPost2010Prop33
280
     0
102
RTVSPost2010PropOp33
 70
     1
102
RTVSPost2010Prop34
280
     0
102
RTVSPost2010PropOp34
 70
     1
102
RTVSPost2010Prop35
280
     0
102
RTVSPost2010PropOp35
 70
     1
102
RTVSPost2010Prop36
280
     0
102
RTVSPost2010PropOp36
 70
     1
102
RTVSPost2010Prop37
 90
       50
102
RTVSPost2010PropOp37
 70
     1
102
RTVSPost2010Prop38
140
0.0
102
RTVSPost2010PropOp38
 70
     1
102
RTVSPost2010Prop39
140
1.0
102
RTVSPost2010PropOp39
 70
     1
102
RTVSPost2010Prop40
 90
        0
102
RTVSPost2010PropOp40
 70
     1
102
RTVSPost2010Prop41ColorIndex
 90
       18
102
RTVSPost2010Prop41ColorRGB
 90
        0
102
RTVSPost2010PropOp41
 70
     1
102
RTVSPost2010Prop42
 90
       50
102
RTVSPost2010PropOp42
 70
     1
102
RTVSPost2010Prop43
 90
        3
102
RTVSPost2010PropOp43
 70
     1
102
RTVSPost2010Prop44ColorIndex
 90
        5
102
RTVSPost2010Prop44ColorRGB
 90
      255
102
RTVSPost2010PropOp44
 70
     1
102
RTVSPost2010Prop45
280
     0
102
RTVSPost2010PropOp45
 70
     1
102
RTVSPost2010Prop46
 90
       50
102
RTVSPost2010PropOp46
 70
     1
102
RTVSPost2010Prop47
 90
       50
102
RTVSPost2010PropOp47
 70
     1
102
RTVSPost2010Prop48
 90
       50
102
RTVSPost2010PropOp48
 70
     1
102
RTVSPost2010Prop49
280
     0
102
RTVSPost2010PropOp49
 70
     1
102
RTVSPost2010Prop50
 90
       50
102
RTVSPost2010PropOp50
 70
     1
102
RTVSPost2010Prop51ColorIndex
 90
      256
102
RTVSPost2010Prop51ColorRGB
 90
-16777216
102
RTVSPost2010PropOp51
 70
     0
102
RTVSPost2010Prop52
140
1.0
102
RTVSPost2010PropOp52
 70
     0
102
RTVSPost2010Prop53
 90
        2
102
RTVSPost2010PropOp53
 70
     1
102
RTVSPost2010Prop54
  1
strokes_ogs.tif
102
RTVSPost2010PropOp54
 70
     1
102
RTVSPost2010Prop55
280
     0
102
RTVSPost2010PropOp55
 70
     1
102
RTVSPost2010Prop56
140
1.0
102
RTVSPost2010PropOp56
 70
     1
102
RTVSPost2010Prop57
140
1.0
102
RTVSPost2010PropOp57
 70
     1
102
RTVSPropertyOp0
 70
     1
102
RTVSPropertyOp1
 70
     1
102
RTVSPropertyOp2
 70
     1
102
RTVSPropertyOp3
 70
     1
102
RTVSPropertyOp4
 70
     1
102
RTVSPropertyOp5
 70
     1
102
RTVSPropertyOp6
 70
     1
102
RTVSPropertyOp7
 70
     1
102
RTVSPropertyOp8
 70
     1
102
RTVSPropertyOp9
 70
     1
102
RTVSPropertyOp10
 70
     1
102
RTVSPropertyOp11
 70
     1
102
RTVSPropertyOp12
 70
     1
102
RTVSPropertyOp13
 70
     1
102
RTVSPropertyOp14
 70
     1
102
RTVSPropertyOp15
 70
     1
102
RTVSPropertyOp16
 70
     1
102
RTVSPropertyOp17
 70
     1
102
RTVSPropertyOp18
 70
     1
102
RTVSPropertyOp19
 70
     1
102
RTVSPropertyOp20
 70
     1
102
RTVSPropertyOp21
 70
     1
102
RTVSPropertyOp22
 70
     1
102
RTVSPropertyOp23
 70
     1
102
RTVSPropertyOp24
 70
     1
102
RTVSPropertyOp25
 70
     1
102
RTVSPropertyOp26
 70
     1
102
RTVSPropertyOp27
 70
     1
102
RTVSPropertyOp28
 70
     1
102
RTVSPropertyOp29
 70
     1
102
RTVSPropertyOp30
 70
     1
102
RTVSPropertyOp31
 70
     1
102
RTVSPropertyOp32
 70
     1
102
RTVSPropertyOp33
 70
     1
102
RTVSPropertyOp34
 70
     1
102
RTVSPropertyOp35
 70
     1
102
RTVSPropertyOp36
 70
     1
102
RTVSPropertyOp37
 70
     1
102
RTVSPropertyOp38
 70
     1
102
RTVSPropertyOp39
 70
     1
102
RTVSPropertyOp40
 70
     1
102
RTVSPropertyOp41
 70
     1
102
RTVSPropertyOp42
 70
     1
102
RTVSPropertyOp43
 70
     1
102
RTVSPropertyOp44
 70
     1
102
RTVSPropertyOp45
 70
     1
102
RTVSPropertyOp46
 70
     1
102
RTVSPropertyOp47
 70
     1
102
RTVSPropertyOp48
 70
     1
102
RTVSPropertyOp49
 70
     1
102
RTVSPropertyOp50
 70
     1
102
RTVSPropertyOp51
 70
     0
102
RTVSPropertyOp52
 70
     0
102
RTVSPropertyOp53
 70
     1
102
RTVSPropertyOp54
 70
     1
102
RTVSPropertyOp55
 70
     1
102
RTVSPropertyOp56
 70
     1
102
RTVSPropertyOp57
 70
     1
102
RTVSPropertyOp58
 70
     1
102
RTVSPropertyOp59
 70
     1
102
RTVSPropertyOp60
 70
     1
102
RTVSPropertyOp61
 70
     1
102
RTVSPropertyOp62
 70
     1
  0
XRECORD
  5
C7AE
102
{ACAD_REACTORS
330
C7AD
102
}
330
C7AD
100
AcDbXrecord
280
     1
102
RTVSPost2010Prop28
280
     0
102
RTVSPost2010PropOp28
 70
     1
102
RTVSPost2010Prop29
280
     1
102
RTVSPost2010PropOp29
 70
     1
102
RTVSPost2010Prop30
280
     1
102
RTVSPost2010PropOp30
 70
     1
102
RTVSPost2010Prop31
280
     0
102
RTVSPost2010PropOp31
 70
     1
102
RTVSPost2010Prop32
280
     0
102
RTVSPost2010PropOp32
 70
     1
102
RTVSPost2010Prop33
280
     0
102
RTVSPost2010PropOp33
 70
     1
102
RTVSPost2010Prop34
280
     0
102
RTVSPost2010PropOp34
 70
     1
102
RTVSPost2010Prop35
280
     0
102
RTVSPost2010PropOp35
 70
     1
102
RTVSPost2010Prop36
280
     0
102
RTVSPost2010PropOp36
 70
     1
102
RTVSPost2010Prop37
 90
       50
102
RTVSPost2010PropOp37
 70
     1
102
RTVSPost2010Prop38
140
0.0
102
RTVSPost2010PropOp38
 70
     1
102
RTVSPost2010Prop39
140
1.0
102
RTVSPost2010PropOp39
 70
     1
102
RTVSPost2010Prop40
 90
        0
102
RTVSPost2010PropOp40
 70
     1
102
RTVSPost2010Prop41ColorIndex
 90
       18
102
RTVSPost2010Prop41ColorRGB
 90
        0
102
RTVSPost2010PropOp41
 70
     1
102
RTVSPost2010Prop42
 90
       50
102
RTVSPost2010PropOp42
 70
     1
102
RTVSPost2010Prop43
 90
        3
102
RTVSPost2010PropOp43
 70
     1
102
RTVSPost2010Prop44ColorIndex
 90
        5
102
RTVSPost2010Prop44ColorRGB
 90
      255
102
RTVSPost2010PropOp44
 70
     1
102
RTVSPost2010Prop45
280
     0
102
RTVSPost2010PropOp45
 70
     1
102
RTVSPost2010Prop46
 90
       50
102
RTVSPost2010PropOp46
 70
     1
102
RTVSPost2010Prop47
 90
       50
102
RTVSPost2010PropOp47
 70
     1
102
RTVSPost2010Prop48
 90
       50
102
RTVSPost2010PropOp48
 70
     1
102
RTVSPost2010Prop49
280
     0
102
RTVSPost2010PropOp49
 70
     1
102
RTVSPost2010Prop50
 90
       50
102
RTVSPost2010PropOp50
 70
     1
102
RTVSPost2010Prop51ColorIndex
 90
      256
102
RTVSPost2010Prop51ColorRGB
 90
-16777216
102
RTVSPost2010PropOp51
 70
     0
102
RTVSPost2010Prop52
140
1.0
102
RTVSPost2010PropOp52
 70
     0
102
RTVSPost2010Prop53
 90
        2
102
RTVSPost2010PropOp53
 70
     1
102
RTVSPost2010Prop54
  1
strokes_ogs.tif
102
RTVSPost2010PropOp54
 70
     1
102
RTVSPost2010Prop55
280
     0
102
RTVSPost2010PropOp55
 70
     1
102
RTVSPost2010Prop56
140
1.0
102
RTVSPost2010PropOp56
 70
     1
102
RTVSPost2010Prop57
140
1.0
102
RTVSPost2010PropOp57
 70
     1
102
RTVSPropertyOp0
 70
     1
102
RTVSPropertyOp1
 70
     1
102
RTVSPropertyOp2
 70
     1
102
RTVSPropertyOp3
 70
     1
102
RTVSPropertyOp4
 70
     1
102
RTVSPropertyOp5
 70
     1
102
RTVSPropertyOp6
 70
     1
102
RTVSPropertyOp7
 70
     1
102
RTVSPropertyOp8
 70
     1
102
RTVSPropertyOp9
 70
     1
102
RTVSPropertyOp10
 70
     1
102
RTVSPropertyOp11
 70
     1
102
RTVSPropertyOp12
 70
     1
102
RTVSPropertyOp13
 70
     1
102
RTVSPropertyOp14
 70
     1
102
RTVSPropertyOp15
 70
     1
102
RTVSPropertyOp16
 70
     1
102
RTVSPropertyOp17
 70
     1
102
RTVSPropertyOp18
 70
     1
102
RTVSPropertyOp19
 70
     1
102
RTVSPropertyOp20
 70
     1
102
RTVSPropertyOp21
 70
     1
102
RTVSPropertyOp22
 70
     1
102
RTVSPropertyOp23
 70
     1
102
RTVSPropertyOp24
 70
     1
102
RTVSPropertyOp25
 70
     1
102
RTVSPropertyOp26
 70
     1
102
RTVSPropertyOp27
 70
     1
102
RTVSPropertyOp28
 70
     1
102
RTVSPropertyOp29
 70
     1
102
RTVSPropertyOp30
 70
     1
102
RTVSPropertyOp31
 70
     1
102
RTVSPropertyOp32
 70
     1
102
RTVSPropertyOp33
 70
     1
102
RTVSPropertyOp34
 70
     1
102
RTVSPropertyOp35
 70
     1
102
RTVSPropertyOp36
 70
     1
102
RTVSPropertyOp37
 70
     1
102
RTVSPropertyOp38
 70
     1
102
RTVSPropertyOp39
 70
     1
102
RTVSPropertyOp40
 70
     1
102
RTVSPropertyOp41
 70
     1
102
RTVSPropertyOp42
 70
     1
102
RTVSPropertyOp43
 70
     1
102
RTVSPropertyOp44
 70
     1
102
RTVSPropertyOp45
 70
     1
102
RTVSPropertyOp46
 70
     1
102
RTVSPropertyOp47
 70
     1
102
RTVSPropertyOp48
 70
     1
102
RTVSPropertyOp49
 70
     1
102
RTVSPropertyOp50
 70
     1
102
RTVSPropertyOp51
 70
     0
102
RTVSPropertyOp52
 70
     0
102
RTVSPropertyOp53
 70
     1
102
RTVSPropertyOp54
 70
     1
102
RTVSPropertyOp55
 70
     1
102
RTVSPropertyOp56
 70
     1
102
RTVSPropertyOp57
 70
     1
102
RTVSPropertyOp58
 70
     1
102
RTVSPropertyOp59
 70
     1
102
RTVSPropertyOp60
 70
     1
102
RTVSPropertyOp61
 70
     1
102
RTVSPropertyOp62
 70
     1
  0
XRECORD
  5
C7B6
102
{ACAD_REACTORS
330
C7B5
102
}
330
C7B5
100
AcDbXrecord
280
     1
102
RTVSPost2010Prop28
280
     0
102
RTVSPost2010PropOp28
 70
     1
102
RTVSPost2010Prop29
280
     1
102
RTVSPost2010PropOp29
 70
     1
102
RTVSPost2010Prop30
280
     1
102
RTVSPost2010PropOp30
 70
     1
102
RTVSPost2010Prop31
280
     0
102
RTVSPost2010PropOp31
 70
     1
102
RTVSPost2010Prop32
280
     0
102
RTVSPost2010PropOp32
 70
     1
102
RTVSPost2010Prop33
280
     0
102
RTVSPost2010PropOp33
 70
     1
102
RTVSPost2010Prop34
280
     0
102
RTVSPost2010PropOp34
 70
     1
102
RTVSPost2010Prop35
280
     0
102
RTVSPost2010PropOp35
 70
     1
102
RTVSPost2010Prop36
280
     0
102
RTVSPost2010PropOp36
 70
     1
102
RTVSPost2010Prop37
 90
       50
102
RTVSPost2010PropOp37
 70
     1
102
RTVSPost2010Prop38
140
0.0
102
RTVSPost2010PropOp38
 70
     1
102
RTVSPost2010Prop39
140
1.0
102
RTVSPost2010PropOp39
 70
     1
102
RTVSPost2010Prop40
 90
        0
102
RTVSPost2010PropOp40
 70
     1
102
RTVSPost2010Prop41ColorIndex
 90
       18
102
RTVSPost2010Prop41ColorRGB
 90
        0
102
RTVSPost2010PropOp41
 70
     1
102
RTVSPost2010Prop42
 90
       50
102
RTVSPost2010PropOp42
 70
     1
102
RTVSPost2010Prop43
 90
        3
102
RTVSPost2010PropOp43
 70
     1
102
RTVSPost2010Prop44ColorIndex
 90
        5
102
RTVSPost2010Prop44ColorRGB
 90
      255
102
RTVSPost2010PropOp44
 70
     1
102
RTVSPost2010Prop45
280
     0
102
RTVSPost2010PropOp45
 70
     1
102
RTVSPost2010Prop46
 90
       50
102
RTVSPost2010PropOp46
 70
     1
102
RTVSPost2010Prop47
 90
       50
102
RTVSPost2010PropOp47
 70
     1
102
RTVSPost2010Prop48
 90
       50
102
RTVSPost2010PropOp48
 70
     1
102
RTVSPost2010Prop49
280
     0
102
RTVSPost2010PropOp49
 70
     1
102
RTVSPost2010Prop50
 90
       50
102
RTVSPost2010PropOp50
 70
     1
102
RTVSPost2010Prop51ColorIndex
 90
      256
102
RTVSPost2010Prop51ColorRGB
 90
-16777216
102
RTVSPost2010PropOp51
 70
     0
102
RTVSPost2010Prop52
140
1.0
102
RTVSPost2010PropOp52
 70
     0
102
RTVSPost2010Prop53
 90
        2
102
RTVSPost2010PropOp53
 70
     1
102
RTVSPost2010Prop54
  1
strokes_ogs.tif
102
RTVSPost2010PropOp54
 70
     1
102
RTVSPost2010Prop55
280
     0
102
RTVSPost2010PropOp55
 70
     1
102
RTVSPost2010Prop56
140
1.0
102
RTVSPost2010PropOp56
 70
     1
102
RTVSPost2010Prop57
140
1.0
102
RTVSPost2010PropOp57
 70
     1
102
RTVSPropertyOp0
 70
     1
102
RTVSPropertyOp1
 70
     1
102
RTVSPropertyOp2
 70
     1
102
RTVSPropertyOp3
 70
     1
102
RTVSPropertyOp4
 70
     1
102
RTVSPropertyOp5
 70
     1
102
RTVSPropertyOp6
 70
     1
102
RTVSPropertyOp7
 70
     1
102
RTVSPropertyOp8
 70
     1
102
RTVSPropertyOp9
 70
     1
102
RTVSPropertyOp10
 70
     1
102
RTVSPropertyOp11
 70
     1
102
RTVSPropertyOp12
 70
     1
102
RTVSPropertyOp13
 70
     1
102
RTVSPropertyOp14
 70
     1
102
RTVSPropertyOp15
 70
     1
102
RTVSPropertyOp16
 70
     1
102
RTVSPropertyOp17
 70
     1
102
RTVSPropertyOp18
 70
     1
102
RTVSPropertyOp19
 70
     1
102
RTVSPropertyOp20
 70
     1
102
RTVSPropertyOp21
 70
     1
102
RTVSPropertyOp22
 70
     1
102
RTVSPropertyOp23
 70
     1
102
RTVSPropertyOp24
 70
     1
102
RTVSPropertyOp25
 70
     1
102
RTVSPropertyOp26
 70
     1
102
RTVSPropertyOp27
 70
     1
102
RTVSPropertyOp28
 70
     1
102
RTVSPropertyOp29
 70
     1
102
RTVSPropertyOp30
 70
     1
102
RTVSPropertyOp31
 70
     1
102
RTVSPropertyOp32
 70
     1
102
RTVSPropertyOp33
 70
     1
102
RTVSPropertyOp34
 70
     1
102
RTVSPropertyOp35
 70
     1
102
RTVSPropertyOp36
 70
     1
102
RTVSPropertyOp37
 70
     1
102
RTVSPropertyOp38
 70
     1
102
RTVSPropertyOp39
 70
     1
102
RTVSPropertyOp40
 70
     1
102
RTVSPropertyOp41
 70
     1
102
RTVSPropertyOp42
 70
     1
102
RTVSPropertyOp43
 70
     1
102
RTVSPropertyOp44
 70
     1
102
RTVSPropertyOp45
 70
     1
102
RTVSPropertyOp46
 70
     1
102
RTVSPropertyOp47
 70
     1
102
RTVSPropertyOp48
 70
     1
102
RTVSPropertyOp49
 70
     1
102
RTVSPropertyOp50
 70
     1
102
RTVSPropertyOp51
 70
     0
102
RTVSPropertyOp52
 70
     0
102
RTVSPropertyOp53
 70
     1
102
RTVSPropertyOp54
 70
     1
102
RTVSPropertyOp55
 70
     1
102
RTVSPropertyOp56
 70
     1
102
RTVSPropertyOp57
 70
     1
102
RTVSPropertyOp58
 70
     1
102
RTVSPropertyOp59
 70
     1
102
RTVSPropertyOp60
 70
     1
102
RTVSPropertyOp61
 70
     1
102
RTVSPropertyOp62
 70
     1
  0
XRECORD
  5
C7CA
102
{ACAD_REACTORS
330
C7C9
102
}
330
C7C9
100
AcDbXrecord
280
     1
102
RTVSPost2010Prop28
280
     0
102
RTVSPost2010PropOp28
 70
     1
102
RTVSPost2010Prop29
280
     1
102
RTVSPost2010PropOp29
 70
     1
102
RTVSPost2010Prop30
280
     1
102
RTVSPost2010PropOp30
 70
     1
102
RTVSPost2010Prop31
280
     0
102
RTVSPost2010PropOp31
 70
     1
102
RTVSPost2010Prop32
280
     0
102
RTVSPost2010PropOp32
 70
     1
102
RTVSPost2010Prop33
280
     0
102
RTVSPost2010PropOp33
 70
     1
102
RTVSPost2010Prop34
280
     0
102
RTVSPost2010PropOp34
 70
     1
102
RTVSPost2010Prop35
280
     0
102
RTVSPost2010PropOp35
 70
     1
102
RTVSPost2010Prop36
280
     0
102
RTVSPost2010PropOp36
 70
     1
102
RTVSPost2010Prop37
 90
       50
102
RTVSPost2010PropOp37
 70
     1
102
RTVSPost2010Prop38
140
0.0
102
RTVSPost2010PropOp38
 70
     1
102
RTVSPost2010Prop39
140
1.0
102
RTVSPost2010PropOp39
 70
     1
102
RTVSPost2010Prop40
 90
        0
102
RTVSPost2010PropOp40
 70
     1
102
RTVSPost2010Prop41ColorIndex
 90
       18
102
RTVSPost2010Prop41ColorRGB
 90
        0
102
RTVSPost2010PropOp41
 70
     1
102
RTVSPost2010Prop42
 90
       50
102
RTVSPost2010PropOp42
 70
     1
102
RTVSPost2010Prop43
 90
        3
102
RTVSPost2010PropOp43
 70
     1
102
RTVSPost2010Prop44ColorIndex
 90
        5
102
RTVSPost2010Prop44ColorRGB
 90
      255
102
RTVSPost2010PropOp44
 70
     1
102
RTVSPost2010Prop45
280
     0
102
RTVSPost2010PropOp45
 70
     1
102
RTVSPost2010Prop46
 90
       50
102
RTVSPost2010PropOp46
 70
     1
102
RTVSPost2010Prop47
 90
       50
102
RTVSPost2010PropOp47
 70
     1
102
RTVSPost2010Prop48
 90
       50
102
RTVSPost2010PropOp48
 70
     1
102
RTVSPost2010Prop49
280
     0
102
RTVSPost2010PropOp49
 70
     1
102
RTVSPost2010Prop50
 90
       50
102
RTVSPost2010PropOp50
 70
     1
102
RTVSPost2010Prop51ColorIndex
 90
      256
102
RTVSPost2010Prop51ColorRGB
 90
-16777216
102
RTVSPost2010PropOp51
 70
     0
102
RTVSPost2010Prop52
140
1.0
102
RTVSPost2010PropOp52
 70
     0
102
RTVSPost2010Prop53
 90
        2
102
RTVSPost2010PropOp53
 70
     1
102
RTVSPost2010Prop54
  1
strokes_ogs.tif
102
RTVSPost2010PropOp54
 70
     1
102
RTVSPost2010Prop55
280
     0
102
RTVSPost2010PropOp55
 70
     1
102
RTVSPost2010Prop56
140
1.0
102
RTVSPost2010PropOp56
 70
     1
102
RTVSPost2010Prop57
140
1.0
102
RTVSPost2010PropOp57
 70
     1
102
RTVSPropertyOp0
 70
     0
102
RTVSPropertyOp1
 70
     0
102
RTVSPropertyOp2
 70
     0
102
RTVSPropertyOp3
 70
     0
102
RTVSPropertyOp4
 70
     0
102
RTVSPropertyOp5
 70
     0
102
RTVSPropertyOp6
 70
     0
102
RTVSPropertyOp7
 70
     0
102
RTVSPropertyOp8
 70
     0
102
RTVSPropertyOp9
 70
     0
102
RTVSPropertyOp10
 70
     0
102
RTVSPropertyOp11
 70
     0
102
RTVSPropertyOp12
 70
     0
102
RTVSPropertyOp13
 70
     0
102
RTVSPropertyOp14
 70
     2
102
RTVSPropertyOp15
 70
     0
102
RTVSPropertyOp16
 70
     0
102
RTVSPropertyOp17
 70
     0
102
RTVSPropertyOp18
 70
     0
102
RTVSPropertyOp19
 70
     0
102
RTVSPropertyOp20
 70
     0
102
RTVSPropertyOp21
 70
     0
102
RTVSPropertyOp22
 70
     0
102
RTVSPropertyOp23
 70
     0
102
RTVSPropertyOp24
 70
     0
102
RTVSPropertyOp25
 70
     0
102
RTVSPropertyOp26
 70
     0
102
RTVSPropertyOp27
 70
     0
102
RTVSPropertyOp28
 70
     1
102
RTVSPropertyOp29
 70
     1
102
RTVSPropertyOp30
 70
     1
102
RTVSPropertyOp31
 70
     1
102
RTVSPropertyOp32
 70
     1
102
RTVSPropertyOp33
 70
     1
102
RTVSPropertyOp34
 70
     1
102
RTVSPropertyOp35
 70
     1
102
RTVSPropertyOp36
 70
     1
102
RTVSPropertyOp37
 70
     1
102
RTVSPropertyOp38
 70
     1
102
RTVSPropertyOp39
 70
     1
102
RTVSPropertyOp40
 70
     1
102
RTVSPropertyOp41
 70
     1
102
RTVSPropertyOp42
 70
     1
102
RTVSPropertyOp43
 70
     1
102
RTVSPropertyOp44
 70
     1
102
RTVSPropertyOp45
 70
     1
102
RTVSPropertyOp46
 70
     1
102
RTVSPropertyOp47
 70
     1
102
RTVSPropertyOp48
 70
     1
102
RTVSPropertyOp49
 70
     1
102
RTVSPropertyOp50
 70
     1
102
RTVSPropertyOp51
 70
     0
102
RTVSPropertyOp52
 70
     0
102
RTVSPropertyOp53
 70
     1
102
RTVSPropertyOp54
 70
     1
102
RTVSPropertyOp55
 70
     1
102
RTVSPropertyOp56
 70
     1
102
RTVSPropertyOp57
 70
     1
102
RTVSPropertyOp58
 70
     1
102
RTVSPropertyOp59
 70
     1
102
RTVSPropertyOp60
 70
     1
102
RTVSPropertyOp61
 70
     1
102
RTVSPropertyOp62
 70
     1
  0
XRECORD
  5
C7C2
102
{ACAD_REACTORS
330
C7C1
102
}
330
C7C1
100
AcDbXrecord
280
     1
102
RTVSPost2010Prop28
280
     0
102
RTVSPost2010PropOp28
 70
     1
102
RTVSPost2010Prop29
280
     1
102
RTVSPost2010PropOp29
 70
     1
102
RTVSPost2010Prop30
280
     1
102
RTVSPost2010PropOp30
 70
     1
102
RTVSPost2010Prop31
280
     0
102
RTVSPost2010PropOp31
 70
     1
102
RTVSPost2010Prop32
280
     0
102
RTVSPost2010PropOp32
 70
     1
102
RTVSPost2010Prop33
280
     0
102
RTVSPost2010PropOp33
 70
     1
102
RTVSPost2010Prop34
280
     0
102
RTVSPost2010PropOp34
 70
     1
102
RTVSPost2010Prop35
280
     0
102
RTVSPost2010PropOp35
 70
     1
102
RTVSPost2010Prop36
280
     0
102
RTVSPost2010PropOp36
 70
     1
102
RTVSPost2010Prop37
 90
       50
102
RTVSPost2010PropOp37
 70
     1
102
RTVSPost2010Prop38
140
0.0
102
RTVSPost2010PropOp38
 70
     1
102
RTVSPost2010Prop39
140
1.0
102
RTVSPost2010PropOp39
 70
     1
102
RTVSPost2010Prop40
 90
        0
102
RTVSPost2010PropOp40
 70
     1
102
RTVSPost2010Prop41ColorIndex
 90
       18
102
RTVSPost2010Prop41ColorRGB
 90
        0
102
RTVSPost2010PropOp41
 70
     1
102
RTVSPost2010Prop42
 90
       50
102
RTVSPost2010PropOp42
 70
     1
102
RTVSPost2010Prop43
 90
        3
102
RTVSPost2010PropOp43
 70
     1
102
RTVSPost2010Prop44ColorIndex
 90
        5
102
RTVSPost2010Prop44ColorRGB
 90
      255
102
RTVSPost2010PropOp44
 70
     1
102
RTVSPost2010Prop45
280
     0
102
RTVSPost2010PropOp45
 70
     1
102
RTVSPost2010Prop46
 90
       50
102
RTVSPost2010PropOp46
 70
     1
102
RTVSPost2010Prop47
 90
       50
102
RTVSPost2010PropOp47
 70
     1
102
RTVSPost2010Prop48
 90
       50
102
RTVSPost2010PropOp48
 70
     1
102
RTVSPost2010Prop49
280
     0
102
RTVSPost2010PropOp49
 70
     1
102
RTVSPost2010Prop50
 90
       50
102
RTVSPost2010PropOp50
 70
     1
102
RTVSPost2010Prop51ColorIndex
 90
      256
102
RTVSPost2010Prop51ColorRGB
 90
-16777216
102
RTVSPost2010PropOp51
 70
     0
102
RTVSPost2010Prop52
140
1.0
102
RTVSPost2010PropOp52
 70
     0
102
RTVSPost2010Prop53
 90
        2
102
RTVSPost2010PropOp53
 70
     1
102
RTVSPost2010Prop54
  1
strokes_ogs.tif
102
RTVSPost2010PropOp54
 70
     1
102
RTVSPost2010Prop55
280
     0
102
RTVSPost2010PropOp55
 70
     1
102
RTVSPost2010Prop56
140
1.0
102
RTVSPost2010PropOp56
 70
     1
102
RTVSPost2010Prop57
140
1.0
102
RTVSPost2010PropOp57
 70
     1
102
RTVSPropertyOp0
 70
     1
102
RTVSPropertyOp1
 70
     1
102
RTVSPropertyOp2
 70
     1
102
RTVSPropertyOp3
 70
     1
102
RTVSPropertyOp4
 70
     1
102
RTVSPropertyOp5
 70
     1
102
RTVSPropertyOp6
 70
     1
102
RTVSPropertyOp7
 70
     1
102
RTVSPropertyOp8
 70
     1
102
RTVSPropertyOp9
 70
     1
102
RTVSPropertyOp10
 70
     1
102
RTVSPropertyOp11
 70
     1
102
RTVSPropertyOp12
 70
     1
102
RTVSPropertyOp13
 70
     1
102
RTVSPropertyOp14
 70
     1
102
RTVSPropertyOp15
 70
     1
102
RTVSPropertyOp16
 70
     1
102
RTVSPropertyOp17
 70
     1
102
RTVSPropertyOp18
 70
     1
102
RTVSPropertyOp19
 70
     1
102
RTVSPropertyOp20
 70
     1
102
RTVSPropertyOp21
 70
     1
102
RTVSPropertyOp22
 70
     1
102
RTVSPropertyOp23
 70
     1
102
RTVSPropertyOp24
 70
     1
102
RTVSPropertyOp25
 70
     1
102
RTVSPropertyOp26
 70
     1
102
RTVSPropertyOp27
 70
     1
102
RTVSPropertyOp28
 70
     1
102
RTVSPropertyOp29
 70
     1
102
RTVSPropertyOp30
 70
     1
102
RTVSPropertyOp31
 70
     1
102
RTVSPropertyOp32
 70
     1
102
RTVSPropertyOp33
 70
     1
102
RTVSPropertyOp34
 70
     1
102
RTVSPropertyOp35
 70
     1
102
RTVSPropertyOp36
 70
     1
102
RTVSPropertyOp37
 70
     1
102
RTVSPropertyOp38
 70
     1
102
RTVSPropertyOp39
 70
     1
102
RTVSPropertyOp40
 70
     1
102
RTVSPropertyOp41
 70
     1
102
RTVSPropertyOp42
 70
     1
102
RTVSPropertyOp43
 70
     1
102
RTVSPropertyOp44
 70
     1
102
RTVSPropertyOp45
 70
     1
102
RTVSPropertyOp46
 70
     1
102
RTVSPropertyOp47
 70
     1
102
RTVSPropertyOp48
 70
     1
102
RTVSPropertyOp49
 70
     1
102
RTVSPropertyOp50
 70
     1
102
RTVSPropertyOp51
 70
     0
102
RTVSPropertyOp52
 70
     0
102
RTVSPropertyOp53
 70
     1
102
RTVSPropertyOp54
 70
     1
102
RTVSPropertyOp55
 70
     1
102
RTVSPropertyOp56
 70
     1
102
RTVSPropertyOp57
 70
     1
102
RTVSPropertyOp58
 70
     1
102
RTVSPropertyOp59
 70
     1
102
RTVSPropertyOp60
 70
     1
102
RTVSPropertyOp61
 70
     1
102
RTVSPropertyOp62
 70
     1
  0
XRECORD
  5
C7CC
102
{ACAD_REACTORS
330
C7CB
102
}
330
C7CB
100
AcDbXrecord
280
     1
102
RTVSPost2010Prop28
280
     0
102
RTVSPost2010PropOp28
 70
     1
102
RTVSPost2010Prop29
280
     1
102
RTVSPost2010PropOp29
 70
     1
102
RTVSPost2010Prop30
280
     1
102
RTVSPost2010PropOp30
 70
     1
102
RTVSPost2010Prop31
280
     0
102
RTVSPost2010PropOp31
 70
     1
102
RTVSPost2010Prop32
280
     0
102
RTVSPost2010PropOp32
 70
     1
102
RTVSPost2010Prop33
280
     0
102
RTVSPost2010PropOp33
 70
     1
102
RTVSPost2010Prop34
280
     0
102
RTVSPost2010PropOp34
 70
     1
102
RTVSPost2010Prop35
280
     0
102
RTVSPost2010PropOp35
 70
     1
102
RTVSPost2010Prop36
280
     0
102
RTVSPost2010PropOp36
 70
     1
102
RTVSPost2010Prop37
 90
       50
102
RTVSPost2010PropOp37
 70
     1
102
RTVSPost2010Prop38
140
0.0
102
RTVSPost2010PropOp38
 70
     1
102
RTVSPost2010Prop39
140
1.0
102
RTVSPost2010PropOp39
 70
     1
102
RTVSPost2010Prop40
 90
        0
102
RTVSPost2010PropOp40
 70
     1
102
RTVSPost2010Prop41ColorIndex
 90
       18
102
RTVSPost2010Prop41ColorRGB
 90
        0
102
RTVSPost2010PropOp41
 70
     1
102
RTVSPost2010Prop42
 90
       50
102
RTVSPost2010PropOp42
 70
     1
102
RTVSPost2010Prop43
 90
        3
102
RTVSPost2010PropOp43
 70
     1
102
RTVSPost2010Prop44ColorIndex
 90
        5
102
RTVSPost2010Prop44ColorRGB
 90
      255
102
RTVSPost2010PropOp44
 70
     1
102
RTVSPost2010Prop45
280
     0
102
RTVSPost2010PropOp45
 70
     1
102
RTVSPost2010Prop46
 90
       50
102
RTVSPost2010PropOp46
 70
     1
102
RTVSPost2010Prop47
 90
       50
102
RTVSPost2010PropOp47
 70
     1
102
RTVSPost2010Prop48
 90
       50
102
RTVSPost2010PropOp48
 70
     1
102
RTVSPost2010Prop49
280
     0
102
RTVSPost2010PropOp49
 70
     1
102
RTVSPost2010Prop50
 90
       50
102
RTVSPost2010PropOp50
 70
     1
102
RTVSPost2010Prop51ColorIndex
 90
      256
102
RTVSPost2010Prop51ColorRGB
 90
-16777216
102
RTVSPost2010PropOp51
 70
     0
102
RTVSPost2010Prop52
140
1.0
102
RTVSPost2010PropOp52
 70
     0
102
RTVSPost2010Prop53
 90
        2
102
RTVSPost2010PropOp53
 70
     1
102
RTVSPost2010Prop54
  1
strokes_ogs.tif
102
RTVSPost2010PropOp54
 70
     1
102
RTVSPost2010Prop55
280
     0
102
RTVSPost2010PropOp55
 70
     1
102
RTVSPost2010Prop56
140
1.0
102
RTVSPost2010PropOp56
 70
     1
102
RTVSPost2010Prop57
140
1.0
102
RTVSPost2010PropOp57
 70
     1
102
RTVSPropertyOp0
 70
     0
102
RTVSPropertyOp1
 70
     0
102
RTVSPropertyOp2
 70
     0
102
RTVSPropertyOp3
 70
     0
102
RTVSPropertyOp4
 70
     0
102
RTVSPropertyOp5
 70
     0
102
RTVSPropertyOp6
 70
     0
102
RTVSPropertyOp7
 70
     0
102
RTVSPropertyOp8
 70
     0
102
RTVSPropertyOp9
 70
     0
102
RTVSPropertyOp10
 70
     0
102
RTVSPropertyOp11
 70
     0
102
RTVSPropertyOp12
 70
     0
102
RTVSPropertyOp13
 70
     0
102
RTVSPropertyOp14
 70
     2
102
RTVSPropertyOp15
 70
     0
102
RTVSPropertyOp16
 70
     0
102
RTVSPropertyOp17
 70
     0
102
RTVSPropertyOp18
 70
     0
102
RTVSPropertyOp19
 70
     0
102
RTVSPropertyOp20
 70
     0
102
RTVSPropertyOp21
 70
     0
102
RTVSPropertyOp22
 70
     0
102
RTVSPropertyOp23
 70
     0
102
RTVSPropertyOp24
 70
     0
102
RTVSPropertyOp25
 70
     0
102
RTVSPropertyOp26
 70
     0
102
RTVSPropertyOp27
 70
     0
102
RTVSPropertyOp28
 70
     1
102
RTVSPropertyOp29
 70
     1
102
RTVSPropertyOp30
 70
     1
102
RTVSPropertyOp31
 70
     1
102
RTVSPropertyOp32
 70
     1
102
RTVSPropertyOp33
 70
     1
102
RTVSPropertyOp34
 70
     1
102
RTVSPropertyOp35
 70
     1
102
RTVSPropertyOp36
 70
     1
102
RTVSPropertyOp37
 70
     1
102
RTVSPropertyOp38
 70
     1
102
RTVSPropertyOp39
 70
     1
102
RTVSPropertyOp40
 70
     1
102
RTVSPropertyOp41
 70
     1
102
RTVSPropertyOp42
 70
     1
102
RTVSPropertyOp43
 70
     1
102
RTVSPropertyOp44
 70
     1
102
RTVSPropertyOp45
 70
     1
102
RTVSPropertyOp46
 70
     1
102
RTVSPropertyOp47
 70
     1
102
RTVSPropertyOp48
 70
     1
102
RTVSPropertyOp49
 70
     1
102
RTVSPropertyOp50
 70
     1
102
RTVSPropertyOp51
 70
     0
102
RTVSPropertyOp52
 70
     0
102
RTVSPropertyOp53
 70
     1
102
RTVSPropertyOp54
 70
     1
102
RTVSPropertyOp55
 70
     1
102
RTVSPropertyOp56
 70
     1
102
RTVSPropertyOp57
 70
     1
102
RTVSPropertyOp58
 70
     1
102
RTVSPropertyOp59
 70
     1
102
RTVSPropertyOp60
 70
     1
102
RTVSPropertyOp61
 70
     1
102
RTVSPropertyOp62
 70
     1
  0
XRECORD
  5
C7BA
102
{ACAD_REACTORS
330
C7B9
102
}
330
C7B9
100
AcDbXrecord
280
     1
102
RTVSPost2010Prop28
280
     0
102
RTVSPost2010PropOp28
 70
     1
102
RTVSPost2010Prop29
280
     1
102
RTVSPost2010PropOp29
 70
     1
102
RTVSPost2010Prop30
280
     1
102
RTVSPost2010PropOp30
 70
     1
102
RTVSPost2010Prop31
280
     0
102
RTVSPost2010PropOp31
 70
     1
102
RTVSPost2010Prop32
280
     0
102
RTVSPost2010PropOp32
 70
     1
102
RTVSPost2010Prop33
280
     0
102
RTVSPost2010PropOp33
 70
     1
102
RTVSPost2010Prop34
280
     0
102
RTVSPost2010PropOp34
 70
     1
102
RTVSPost2010Prop35
280
     0
102
RTVSPost2010PropOp35
 70
     1
102
RTVSPost2010Prop36
280
     0
102
RTVSPost2010PropOp36
 70
     1
102
RTVSPost2010Prop37
 90
       50
102
RTVSPost2010PropOp37
 70
     1
102
RTVSPost2010Prop38
140
0.0
102
RTVSPost2010PropOp38
 70
     1
102
RTVSPost2010Prop39
140
1.0
102
RTVSPost2010PropOp39
 70
     1
102
RTVSPost2010Prop40
 90
        0
102
RTVSPost2010PropOp40
 70
     1
102
RTVSPost2010Prop41ColorIndex
 90
       18
102
RTVSPost2010Prop41ColorRGB
 90
        0
102
RTVSPost2010PropOp41
 70
     1
102
RTVSPost2010Prop42
 90
       50
102
RTVSPost2010PropOp42
 70
     1
102
RTVSPost2010Prop43
 90
        3
102
RTVSPost2010PropOp43
 70
     1
102
RTVSPost2010Prop44ColorIndex
 90
        5
102
RTVSPost2010Prop44ColorRGB
 90
      255
102
RTVSPost2010PropOp44
 70
     1
102
RTVSPost2010Prop45
280
     0
102
RTVSPost2010PropOp45
 70
     1
102
RTVSPost2010Prop46
 90
       50
102
RTVSPost2010PropOp46
 70
     1
102
RTVSPost2010Prop47
 90
       50
102
RTVSPost2010PropOp47
 70
     1
102
RTVSPost2010Prop48
 90
       50
102
RTVSPost2010PropOp48
 70
     1
102
RTVSPost2010Prop49
280
     0
102
RTVSPost2010PropOp49
 70
     1
102
RTVSPost2010Prop50
 90
       50
102
RTVSPost2010PropOp50
 70
     1
102
RTVSPost2010Prop51ColorIndex
 90
      256
102
RTVSPost2010Prop51ColorRGB
 90
-16777216
102
RTVSPost2010PropOp51
 70
     0
102
RTVSPost2010Prop52
140
1.0
102
RTVSPost2010PropOp52
 70
     0
102
RTVSPost2010Prop53
 90
        2
102
RTVSPost2010PropOp53
 70
     1
102
RTVSPost2010Prop54
  1
strokes_ogs.tif
102
RTVSPost2010PropOp54
 70
     1
102
RTVSPost2010Prop55
280
     0
102
RTVSPost2010PropOp55
 70
     1
102
RTVSPost2010Prop56
140
1.0
102
RTVSPost2010PropOp56
 70
     1
102
RTVSPost2010Prop57
140
1.0
102
RTVSPost2010PropOp57
 70
     1
102
RTVSPropertyOp0
 70
     1
102
RTVSPropertyOp1
 70
     1
102
RTVSPropertyOp2
 70
     1
102
RTVSPropertyOp3
 70
     1
102
RTVSPropertyOp4
 70
     1
102
RTVSPropertyOp5
 70
     1
102
RTVSPropertyOp6
 70
     1
102
RTVSPropertyOp7
 70
     1
102
RTVSPropertyOp8
 70
     1
102
RTVSPropertyOp9
 70
     1
102
RTVSPropertyOp10
 70
     1
102
RTVSPropertyOp11
 70
     1
102
RTVSPropertyOp12
 70
     1
102
RTVSPropertyOp13
 70
     1
102
RTVSPropertyOp14
 70
     1
102
RTVSPropertyOp15
 70
     1
102
RTVSPropertyOp16
 70
     1
102
RTVSPropertyOp17
 70
     1
102
RTVSPropertyOp18
 70
     1
102
RTVSPropertyOp19
 70
     1
102
RTVSPropertyOp20
 70
     1
102
RTVSPropertyOp21
 70
     1
102
RTVSPropertyOp22
 70
     1
102
RTVSPropertyOp23
 70
     1
102
RTVSPropertyOp24
 70
     1
102
RTVSPropertyOp25
 70
     1
102
RTVSPropertyOp26
 70
     1
102
RTVSPropertyOp27
 70
     1
102
RTVSPropertyOp28
 70
     1
102
RTVSPropertyOp29
 70
     1
102
RTVSPropertyOp30
 70
     1
102
RTVSPropertyOp31
 70
     1
102
RTVSPropertyOp32
 70
     1
102
RTVSPropertyOp33
 70
     1
102
RTVSPropertyOp34
 70
     1
102
RTVSPropertyOp35
 70
     1
102
RTVSPropertyOp36
 70
     1
102
RTVSPropertyOp37
 70
     1
102
RTVSPropertyOp38
 70
     1
102
RTVSPropertyOp39
 70
     1
102
RTVSPropertyOp40
 70
     1
102
RTVSPropertyOp41
 70
     1
102
RTVSPropertyOp42
 70
     1
102
RTVSPropertyOp43
 70
     1
102
RTVSPropertyOp44
 70
     1
102
RTVSPropertyOp45
 70
     1
102
RTVSPropertyOp46
 70
     1
102
RTVSPropertyOp47
 70
     1
102
RTVSPropertyOp48
 70
     1
102
RTVSPropertyOp49
 70
     1
102
RTVSPropertyOp50
 70
     1
102
RTVSPropertyOp51
 70
     0
102
RTVSPropertyOp52
 70
     0
102
RTVSPropertyOp53
 70
     1
102
RTVSPropertyOp54
 70
     1
102
RTVSPropertyOp55
 70
     1
102
RTVSPropertyOp56
 70
     1
102
RTVSPropertyOp57
 70
     1
102
RTVSPropertyOp58
 70
     1
102
RTVSPropertyOp59
 70
     1
102
RTVSPropertyOp60
 70
     1
102
RTVSPropertyOp61
 70
     1
102
RTVSPropertyOp62
 70
     1
  0
XRECORD
  5
C7D8
102
{ACAD_REACTORS
330
C7D7
102
}
330
C7D7
100
AcDbXrecord
280
     1
102
RTVSPost2010Prop28
280
     0
102
RTVSPost2010PropOp28
 70
     1
102
RTVSPost2010Prop29
280
     1
102
RTVSPost2010PropOp29
 70
     1
102
RTVSPost2010Prop30
280
     1
102
RTVSPost2010PropOp30
 70
     1
102
RTVSPost2010Prop31
280
     0
102
RTVSPost2010PropOp31
 70
     1
102
RTVSPost2010Prop32
280
     0
102
RTVSPost2010PropOp32
 70
     1
102
RTVSPost2010Prop33
280
     0
102
RTVSPost2010PropOp33
 70
     1
102
RTVSPost2010Prop34
280
     0
102
RTVSPost2010PropOp34
 70
     1
102
RTVSPost2010Prop35
280
     0
102
RTVSPost2010PropOp35
 70
     1
102
RTVSPost2010Prop36
280
     0
102
RTVSPost2010PropOp36
 70
     1
102
RTVSPost2010Prop37
 90
       50
102
RTVSPost2010PropOp37
 70
     1
102
RTVSPost2010Prop38
140
0.0
102
RTVSPost2010PropOp38
 70
     1
102
RTVSPost2010Prop39
140
1.0
102
RTVSPost2010PropOp39
 70
     1
102
RTVSPost2010Prop40
 90
        0
102
RTVSPost2010PropOp40
 70
     1
102
RTVSPost2010Prop41ColorIndex
 90
       18
102
RTVSPost2010Prop41ColorRGB
 90
        0
102
RTVSPost2010PropOp41
 70
     1
102
RTVSPost2010Prop42
 90
       50
102
RTVSPost2010PropOp42
 70
     1
102
RTVSPost2010Prop43
 90
        3
102
RTVSPost2010PropOp43
 70
     1
102
RTVSPost2010Prop44ColorIndex
 90
        5
102
RTVSPost2010Prop44ColorRGB
 90
      255
102
RTVSPost2010PropOp44
 70
     1
102
RTVSPost2010Prop45
280
     0
102
RTVSPost2010PropOp45
 70
     1
102
RTVSPost2010Prop46
 90
       50
102
RTVSPost2010PropOp46
 70
     1
102
RTVSPost2010Prop47
 90
       50
102
RTVSPost2010PropOp47
 70
     1
102
RTVSPost2010Prop48
 90
       50
102
RTVSPost2010PropOp48
 70
     1
102
RTVSPost2010Prop49
280
     0
102
RTVSPost2010PropOp49
 70
     1
102
RTVSPost2010Prop50
 90
       50
102
RTVSPost2010PropOp50
 70
     1
102
RTVSPost2010Prop51ColorIndex
 90
      256
102
RTVSPost2010Prop51ColorRGB
 90
-16777216
102
RTVSPost2010PropOp51
 70
     0
102
RTVSPost2010Prop52
140
1.0
102
RTVSPost2010PropOp52
 70
     0
102
RTVSPost2010Prop53
 90
        2
102
RTVSPost2010PropOp53
 70
     1
102
RTVSPost2010Prop54
  1
strokes_ogs.tif
102
RTVSPost2010PropOp54
 70
     1
102
RTVSPost2010Prop55
280
     0
102
RTVSPost2010PropOp55
 70
     1
102
RTVSPost2010Prop56
140
1.0
102
RTVSPost2010PropOp56
 70
     1
102
RTVSPost2010Prop57
140
1.0
102
RTVSPost2010PropOp57
 70
     1
102
RTVSPropertyOp0
 70
     1
102
RTVSPropertyOp1
 70
     1
102
RTVSPropertyOp2
 70
     1
102
RTVSPropertyOp3
 70
     1
102
RTVSPropertyOp4
 70
     1
102
RTVSPropertyOp5
 70
     1
102
RTVSPropertyOp6
 70
     1
102
RTVSPropertyOp7
 70
     1
102
RTVSPropertyOp8
 70
     1
102
RTVSPropertyOp9
 70
     1
102
RTVSPropertyOp10
 70
     1
102
RTVSPropertyOp11
 70
     1
102
RTVSPropertyOp12
 70
     1
102
RTVSPropertyOp13
 70
     1
102
RTVSPropertyOp14
 70
     1
102
RTVSPropertyOp15
 70
     1
102
RTVSPropertyOp16
 70
     1
102
RTVSPropertyOp17
 70
     1
102
RTVSPropertyOp18
 70
     1
102
RTVSPropertyOp19
 70
     1
102
RTVSPropertyOp20
 70
     1
102
RTVSPropertyOp21
 70
     1
102
RTVSPropertyOp22
 70
     1
102
RTVSPropertyOp23
 70
     1
102
RTVSPropertyOp24
 70
     1
102
RTVSPropertyOp25
 70
     1
102
RTVSPropertyOp26
 70
     1
102
RTVSPropertyOp27
 70
     1
102
RTVSPropertyOp28
 70
     1
102
RTVSPropertyOp29
 70
     1
102
RTVSPropertyOp30
 70
     1
102
RTVSPropertyOp31
 70
     1
102
RTVSPropertyOp32
 70
     1
102
RTVSPropertyOp33
 70
     1
102
RTVSPropertyOp34
 70
     1
102
RTVSPropertyOp35
 70
     1
102
RTVSPropertyOp36
 70
     1
102
RTVSPropertyOp37
 70
     1
102
RTVSPropertyOp38
 70
     1
102
RTVSPropertyOp39
 70
     1
102
RTVSPropertyOp40
 70
     1
102
RTVSPropertyOp41
 70
     1
102
RTVSPropertyOp42
 70
     1
102
RTVSPropertyOp43
 70
     1
102
RTVSPropertyOp44
 70
     1
102
RTVSPropertyOp45
 70
     1
102
RTVSPropertyOp46
 70
     1
102
RTVSPropertyOp47
 70
     1
102
RTVSPropertyOp48
 70
     1
102
RTVSPropertyOp49
 70
     1
102
RTVSPropertyOp50
 70
     1
102
RTVSPropertyOp51
 70
     0
102
RTVSPropertyOp52
 70
     0
102
RTVSPropertyOp53
 70
     1
102
RTVSPropertyOp54
 70
     1
102
RTVSPropertyOp55
 70
     1
102
RTVSPropertyOp56
 70
     1
102
RTVSPropertyOp57
 70
     1
102
RTVSPropertyOp58
 70
     1
102
RTVSPropertyOp59
 70
     1
102
RTVSPropertyOp60
 70
     1
102
RTVSPropertyOp61
 70
     1
102
RTVSPropertyOp62
 70
     1
  0
XRECORD
  5
C7D6
102
{ACAD_REACTORS
330
C7D5
102
}
330
C7D5
100
AcDbXrecord
280
     1
102
RTVSPost2010Prop28
280
     0
102
RTVSPost2010PropOp28
 70
     1
102
RTVSPost2010Prop29
280
     1
102
RTVSPost2010PropOp29
 70
     1
102
RTVSPost2010Prop30
280
     1
102
RTVSPost2010PropOp30
 70
     1
102
RTVSPost2010Prop31
280
     0
102
RTVSPost2010PropOp31
 70
     1
102
RTVSPost2010Prop32
280
     0
102
RTVSPost2010PropOp32
 70
     1
102
RTVSPost2010Prop33
280
     0
102
RTVSPost2010PropOp33
 70
     1
102
RTVSPost2010Prop34
280
     0
102
RTVSPost2010PropOp34
 70
     1
102
RTVSPost2010Prop35
280
     0
102
RTVSPost2010PropOp35
 70
     1
102
RTVSPost2010Prop36
280
     0
102
RTVSPost2010PropOp36
 70
     1
102
RTVSPost2010Prop37
 90
       50
102
RTVSPost2010PropOp37
 70
     1
102
RTVSPost2010Prop38
140
0.0
102
RTVSPost2010PropOp38
 70
     1
102
RTVSPost2010Prop39
140
1.0
102
RTVSPost2010PropOp39
 70
     1
102
RTVSPost2010Prop40
 90
        0
102
RTVSPost2010PropOp40
 70
     1
102
RTVSPost2010Prop41ColorIndex
 90
       18
102
RTVSPost2010Prop41ColorRGB
 90
        0
102
RTVSPost2010PropOp41
 70
     1
102
RTVSPost2010Prop42
 90
       50
102
RTVSPost2010PropOp42
 70
     1
102
RTVSPost2010Prop43
 90
        3
102
RTVSPost2010PropOp43
 70
     1
102
RTVSPost2010Prop44ColorIndex
 90
        5
102
RTVSPost2010Prop44ColorRGB
 90
      255
102
RTVSPost2010PropOp44
 70
     1
102
RTVSPost2010Prop45
280
     0
102
RTVSPost2010PropOp45
 70
     1
102
RTVSPost2010Prop46
 90
       50
102
RTVSPost2010PropOp46
 70
     1
102
RTVSPost2010Prop47
 90
       50
102
RTVSPost2010PropOp47
 70
     1
102
RTVSPost2010Prop48
 90
       50
102
RTVSPost2010PropOp48
 70
     1
102
RTVSPost2010Prop49
280
     0
102
RTVSPost2010PropOp49
 70
     1
102
RTVSPost2010Prop50
 90
       50
102
RTVSPost2010PropOp50
 70
     1
102
RTVSPost2010Prop51ColorIndex
 90
      256
102
RTVSPost2010Prop51ColorRGB
 90
-16777216
102
RTVSPost2010PropOp51
 70
     0
102
RTVSPost2010Prop52
140
1.0
102
RTVSPost2010PropOp52
 70
     0
102
RTVSPost2010Prop53
 90
        2
102
RTVSPost2010PropOp53
 70
     1
102
RTVSPost2010Prop54
  1
strokes_ogs.tif
102
RTVSPost2010PropOp54
 70
     1
102
RTVSPost2010Prop55
280
     0
102
RTVSPost2010PropOp55
 70
     1
102
RTVSPost2010Prop56
140
1.0
102
RTVSPost2010PropOp56
 70
     1
102
RTVSPost2010Prop57
140
1.0
102
RTVSPost2010PropOp57
 70
     1
102
RTVSPropertyOp0
 70
     1
102
RTVSPropertyOp1
 70
     1
102
RTVSPropertyOp2
 70
     1
102
RTVSPropertyOp3
 70
     1
102
RTVSPropertyOp4
 70
     1
102
RTVSPropertyOp5
 70
     1
102
RTVSPropertyOp6
 70
     1
102
RTVSPropertyOp7
 70
     1
102
RTVSPropertyOp8
 70
     1
102
RTVSPropertyOp9
 70
     1
102
RTVSPropertyOp10
 70
     1
102
RTVSPropertyOp11
 70
     1
102
RTVSPropertyOp12
 70
     1
102
RTVSPropertyOp13
 70
     1
102
RTVSPropertyOp14
 70
     1
102
RTVSPropertyOp15
 70
     1
102
RTVSPropertyOp16
 70
     1
102
RTVSPropertyOp17
 70
     1
102
RTVSPropertyOp18
 70
     1
102
RTVSPropertyOp19
 70
     1
102
RTVSPropertyOp20
 70
     1
102
RTVSPropertyOp21
 70
     1
102
RTVSPropertyOp22
 70
     1
102
RTVSPropertyOp23
 70
     1
102
RTVSPropertyOp24
 70
     1
102
RTVSPropertyOp25
 70
     1
102
RTVSPropertyOp26
 70
     1
102
RTVSPropertyOp27
 70
     1
102
RTVSPropertyOp28
 70
     1
102
RTVSPropertyOp29
 70
     1
102
RTVSPropertyOp30
 70
     1
102
RTVSPropertyOp31
 70
     1
102
RTVSPropertyOp32
 70
     1
102
RTVSPropertyOp33
 70
     1
102
RTVSPropertyOp34
 70
     1
102
RTVSPropertyOp35
 70
     1
102
RTVSPropertyOp36
 70
     1
102
RTVSPropertyOp37
 70
     1
102
RTVSPropertyOp38
 70
     1
102
RTVSPropertyOp39
 70
     1
102
RTVSPropertyOp40
 70
     1
102
RTVSPropertyOp41
 70
     1
102
RTVSPropertyOp42
 70
     1
102
RTVSPropertyOp43
 70
     1
102
RTVSPropertyOp44
 70
     1
102
RTVSPropertyOp45
 70
     1
102
RTVSPropertyOp46
 70
     1
102
RTVSPropertyOp47
 70
     1
102
RTVSPropertyOp48
 70
     1
102
RTVSPropertyOp49
 70
     1
102
RTVSPropertyOp50
 70
     1
102
RTVSPropertyOp51
 70
     0
102
RTVSPropertyOp52
 70
     0
102
RTVSPropertyOp53
 70
     1
102
RTVSPropertyOp54
 70
     1
102
RTVSPropertyOp55
 70
     1
102
RTVSPropertyOp56
 70
     1
102
RTVSPropertyOp57
 70
     1
102
RTVSPropertyOp58
 70
     1
102
RTVSPropertyOp59
 70
     1
102
RTVSPropertyOp60
 70
     1
102
RTVSPropertyOp61
 70
     1
102
RTVSPropertyOp62
 70
     1
  0
XRECORD
  5
C7D0
102
{ACAD_REACTORS
330
C7CF
102
}
330
C7CF
100
AcDbXrecord
280
     1
102
RTVSPost2010Prop28
280
     0
102
RTVSPost2010PropOp28
 70
     1
102
RTVSPost2010Prop29
280
     1
102
RTVSPost2010PropOp29
 70
     1
102
RTVSPost2010Prop30
280
     1
102
RTVSPost2010PropOp30
 70
     1
102
RTVSPost2010Prop31
280
     0
102
RTVSPost2010PropOp31
 70
     1
102
RTVSPost2010Prop32
280
     0
102
RTVSPost2010PropOp32
 70
     1
102
RTVSPost2010Prop33
280
     0
102
RTVSPost2010PropOp33
 70
     1
102
RTVSPost2010Prop34
280
     0
102
RTVSPost2010PropOp34
 70
     1
102
RTVSPost2010Prop35
280
     0
102
RTVSPost2010PropOp35
 70
     1
102
RTVSPost2010Prop36
280
     0
102
RTVSPost2010PropOp36
 70
     1
102
RTVSPost2010Prop37
 90
       50
102
RTVSPost2010PropOp37
 70
     1
102
RTVSPost2010Prop38
140
0.0
102
RTVSPost2010PropOp38
 70
     1
102
RTVSPost2010Prop39
140
1.0
102
RTVSPost2010PropOp39
 70
     1
102
RTVSPost2010Prop40
 90
        0
102
RTVSPost2010PropOp40
 70
     1
102
RTVSPost2010Prop41ColorIndex
 90
       18
102
RTVSPost2010Prop41ColorRGB
 90
        0
102
RTVSPost2010PropOp41
 70
     1
102
RTVSPost2010Prop42
 90
       50
102
RTVSPost2010PropOp42
 70
     1
102
RTVSPost2010Prop43
 90
        3
102
RTVSPost2010PropOp43
 70
     1
102
RTVSPost2010Prop44ColorIndex
 90
        5
102
RTVSPost2010Prop44ColorRGB
 90
      255
102
RTVSPost2010PropOp44
 70
     1
102
RTVSPost2010Prop45
280
     0
102
RTVSPost2010PropOp45
 70
     1
102
RTVSPost2010Prop46
 90
       50
102
RTVSPost2010PropOp46
 70
     1
102
RTVSPost2010Prop47
 90
       50
102
RTVSPost2010PropOp47
 70
     1
102
RTVSPost2010Prop48
 90
       50
102
RTVSPost2010PropOp48
 70
     1
102
RTVSPost2010Prop49
280
     0
102
RTVSPost2010PropOp49
 70
     1
102
RTVSPost2010Prop50
 90
       50
102
RTVSPost2010PropOp50
 70
     1
102
RTVSPost2010Prop51ColorIndex
 90
      256
102
RTVSPost2010Prop51ColorRGB
 90
-16777216
102
RTVSPost2010PropOp51
 70
     0
102
RTVSPost2010Prop52
140
1.0
102
RTVSPost2010PropOp52
 70
     0
102
RTVSPost2010Prop53
 90
        2
102
RTVSPost2010PropOp53
 70
     1
102
RTVSPost2010Prop54
  1
strokes_ogs.tif
102
RTVSPost2010PropOp54
 70
     1
102
RTVSPost2010Prop55
280
     0
102
RTVSPost2010PropOp55
 70
     1
102
RTVSPost2010Prop56
140
1.0
102
RTVSPost2010PropOp56
 70
     1
102
RTVSPost2010Prop57
140
1.0
102
RTVSPost2010PropOp57
 70
     1
102
RTVSPropertyOp0
 70
     1
102
RTVSPropertyOp1
 70
     1
102
RTVSPropertyOp2
 70
     1
102
RTVSPropertyOp3
 70
     1
102
RTVSPropertyOp4
 70
     1
102
RTVSPropertyOp5
 70
     1
102
RTVSPropertyOp6
 70
     1
102
RTVSPropertyOp7
 70
     1
102
RTVSPropertyOp8
 70
     1
102
RTVSPropertyOp9
 70
     1
102
RTVSPropertyOp10
 70
     1
102
RTVSPropertyOp11
 70
     1
102
RTVSPropertyOp12
 70
     1
102
RTVSPropertyOp13
 70
     1
102
RTVSPropertyOp14
 70
     1
102
RTVSPropertyOp15
 70
     1
102
RTVSPropertyOp16
 70
     1
102
RTVSPropertyOp17
 70
     1
102
RTVSPropertyOp18
 70
     1
102
RTVSPropertyOp19
 70
     1
102
RTVSPropertyOp20
 70
     1
102
RTVSPropertyOp21
 70
     1
102
RTVSPropertyOp22
 70
     1
102
RTVSPropertyOp23
 70
     1
102
RTVSPropertyOp24
 70
     1
102
RTVSPropertyOp25
 70
     1
102
RTVSPropertyOp26
 70
     1
102
RTVSPropertyOp27
 70
     1
102
RTVSPropertyOp28
 70
     1
102
RTVSPropertyOp29
 70
     1
102
RTVSPropertyOp30
 70
     1
102
RTVSPropertyOp31
 70
     1
102
RTVSPropertyOp32
 70
     1
102
RTVSPropertyOp33
 70
     1
102
RTVSPropertyOp34
 70
     1
102
RTVSPropertyOp35
 70
     1
102
RTVSPropertyOp36
 70
     1
102
RTVSPropertyOp37
 70
     1
102
RTVSPropertyOp38
 70
     1
102
RTVSPropertyOp39
 70
     1
102
RTVSPropertyOp40
 70
     1
102
RTVSPropertyOp41
 70
     1
102
RTVSPropertyOp42
 70
     1
102
RTVSPropertyOp43
 70
     1
102
RTVSPropertyOp44
 70
     1
102
RTVSPropertyOp45
 70
     1
102
RTVSPropertyOp46
 70
     1
102
RTVSPropertyOp47
 70
     1
102
RTVSPropertyOp48
 70
     1
102
RTVSPropertyOp49
 70
     1
102
RTVSPropertyOp50
 70
     1
102
RTVSPropertyOp51
 70
     0
102
RTVSPropertyOp52
 70
     0
102
RTVSPropertyOp53
 70
     1
102
RTVSPropertyOp54
 70
     1
102
RTVSPropertyOp55
 70
     1
102
RTVSPropertyOp56
 70
     1
102
RTVSPropertyOp57
 70
     1
102
RTVSPropertyOp58
 70
     1
102
RTVSPropertyOp59
 70
     1
102
RTVSPropertyOp60
 70
     1
102
RTVSPropertyOp61
 70
     1
102
RTVSPropertyOp62
 70
     1
  0
XRECORD
  5
C7D2
102
{ACAD_REACTORS
330
C7D1
102
}
330
C7D1
100
AcDbXrecord
280
     1
102
RTVSPost2010Prop28
280
     0
102
RTVSPost2010PropOp28
 70
     1
102
RTVSPost2010Prop29
280
     1
102
RTVSPost2010PropOp29
 70
     1
102
RTVSPost2010Prop30
280
     1
102
RTVSPost2010PropOp30
 70
     1
102
RTVSPost2010Prop31
280
     0
102
RTVSPost2010PropOp31
 70
     1
102
RTVSPost2010Prop32
280
     0
102
RTVSPost2010PropOp32
 70
     1
102
RTVSPost2010Prop33
280
     0
102
RTVSPost2010PropOp33
 70
     1
102
RTVSPost2010Prop34
280
     0
102
RTVSPost2010PropOp34
 70
     1
102
RTVSPost2010Prop35
280
     0
102
RTVSPost2010PropOp35
 70
     1
102
RTVSPost2010Prop36
280
     0
102
RTVSPost2010PropOp36
 70
     1
102
RTVSPost2010Prop37
 90
       50
102
RTVSPost2010PropOp37
 70
     1
102
RTVSPost2010Prop38
140
0.0
102
RTVSPost2010PropOp38
 70
     1
102
RTVSPost2010Prop39
140
1.0
102
RTVSPost2010PropOp39
 70
     1
102
RTVSPost2010Prop40
 90
        0
102
RTVSPost2010PropOp40
 70
     1
102
RTVSPost2010Prop41ColorIndex
 90
       18
102
RTVSPost2010Prop41ColorRGB
 90
        0
102
RTVSPost2010PropOp41
 70
     1
102
RTVSPost2010Prop42
 90
       50
102
RTVSPost2010PropOp42
 70
     1
102
RTVSPost2010Prop43
 90
        3
102
RTVSPost2010PropOp43
 70
     1
102
RTVSPost2010Prop44ColorIndex
 90
        5
102
RTVSPost2010Prop44ColorRGB
 90
      255
102
RTVSPost2010PropOp44
 70
     1
102
RTVSPost2010Prop45
280
     0
102
RTVSPost2010PropOp45
 70
     1
102
RTVSPost2010Prop46
 90
       50
102
RTVSPost2010PropOp46
 70
     1
102
RTVSPost2010Prop47
 90
       50
102
RTVSPost2010PropOp47
 70
     1
102
RTVSPost2010Prop48
 90
       50
102
RTVSPost2010PropOp48
 70
     1
102
RTVSPost2010Prop49
280
     0
102
RTVSPost2010PropOp49
 70
     1
102
RTVSPost2010Prop50
 90
       50
102
RTVSPost2010PropOp50
 70
     1
102
RTVSPost2010Prop51ColorIndex
 90
      256
102
RTVSPost2010Prop51ColorRGB
 90
-16777216
102
RTVSPost2010PropOp51
 70
     0
102
RTVSPost2010Prop52
140
1.0
102
RTVSPost2010PropOp52
 70
     0
102
RTVSPost2010Prop53
 90
        2
102
RTVSPost2010PropOp53
 70
     1
102
RTVSPost2010Prop54
  1
strokes_ogs.tif
102
RTVSPost2010PropOp54
 70
     1
102
RTVSPost2010Prop55
280
     0
102
RTVSPost2010PropOp55
 70
     1
102
RTVSPost2010Prop56
140
1.0
102
RTVSPost2010PropOp56
 70
     1
102
RTVSPost2010Prop57
140
1.0
102
RTVSPost2010PropOp57
 70
     1
102
RTVSPropertyOp0
 70
     1
102
RTVSPropertyOp1
 70
     1
102
RTVSPropertyOp2
 70
     1
102
RTVSPropertyOp3
 70
     1
102
RTVSPropertyOp4
 70
     1
102
RTVSPropertyOp5
 70
     1
102
RTVSPropertyOp6
 70
     1
102
RTVSPropertyOp7
 70
     1
102
RTVSPropertyOp8
 70
     1
102
RTVSPropertyOp9
 70
     1
102
RTVSPropertyOp10
 70
     1
102
RTVSPropertyOp11
 70
     1
102
RTVSPropertyOp12
 70
     1
102
RTVSPropertyOp13
 70
     1
102
RTVSPropertyOp14
 70
     1
102
RTVSPropertyOp15
 70
     1
102
RTVSPropertyOp16
 70
     1
102
RTVSPropertyOp17
 70
     1
102
RTVSPropertyOp18
 70
     1
102
RTVSPropertyOp19
 70
     1
102
RTVSPropertyOp20
 70
     1
102
RTVSPropertyOp21
 70
     1
102
RTVSPropertyOp22
 70
     1
102
RTVSPropertyOp23
 70
     1
102
RTVSPropertyOp24
 70
     1
102
RTVSPropertyOp25
 70
     1
102
RTVSPropertyOp26
 70
     1
102
RTVSPropertyOp27
 70
     1
102
RTVSPropertyOp28
 70
     1
102
RTVSPropertyOp29
 70
     1
102
RTVSPropertyOp30
 70
     1
102
RTVSPropertyOp31
 70
     1
102
RTVSPropertyOp32
 70
     1
102
RTVSPropertyOp33
 70
     1
102
RTVSPropertyOp34
 70
     1
102
RTVSPropertyOp35
 70
     1
102
RTVSPropertyOp36
 70
     1
102
RTVSPropertyOp37
 70
     1
102
RTVSPropertyOp38
 70
     1
102
RTVSPropertyOp39
 70
     1
102
RTVSPropertyOp40
 70
     1
102
RTVSPropertyOp41
 70
     1
102
RTVSPropertyOp42
 70
     1
102
RTVSPropertyOp43
 70
     1
102
RTVSPropertyOp44
 70
     1
102
RTVSPropertyOp45
 70
     1
102
RTVSPropertyOp46
 70
     1
102
RTVSPropertyOp47
 70
     1
102
RTVSPropertyOp48
 70
     1
102
RTVSPropertyOp49
 70
     1
102
RTVSPropertyOp50
 70
     1
102
RTVSPropertyOp51
 70
     0
102
RTVSPropertyOp52
 70
     0
102
RTVSPropertyOp53
 70
     1
102
RTVSPropertyOp54
 70
     1
102
RTVSPropertyOp55
 70
     1
102
RTVSPropertyOp56
 70
     1
102
RTVSPropertyOp57
 70
     1
102
RTVSPropertyOp58
 70
     1
102
RTVSPropertyOp59
 70
     1
102
RTVSPropertyOp60
 70
     1
102
RTVSPropertyOp61
 70
     1
102
RTVSPropertyOp62
 70
     1
  0
XRECORD
  5
C7C0
102
{ACAD_REACTORS
330
C7BF
102
}
330
C7BF
100
AcDbXrecord
280
     1
102
RTVSPost2010Prop28
280
     0
102
RTVSPost2010PropOp28
 70
     1
102
RTVSPost2010Prop29
280
     1
102
RTVSPost2010PropOp29
 70
     1
102
RTVSPost2010Prop30
280
     1
102
RTVSPost2010PropOp30
 70
     1
102
RTVSPost2010Prop31
280
     0
102
RTVSPost2010PropOp31
 70
     1
102
RTVSPost2010Prop32
280
     0
102
RTVSPost2010PropOp32
 70
     1
102
RTVSPost2010Prop33
280
     0
102
RTVSPost2010PropOp33
 70
     1
102
RTVSPost2010Prop34
280
     0
102
RTVSPost2010PropOp34
 70
     1
102
RTVSPost2010Prop35
280
     0
102
RTVSPost2010PropOp35
 70
     1
102
RTVSPost2010Prop36
280
     0
102
RTVSPost2010PropOp36
 70
     1
102
RTVSPost2010Prop37
 90
       50
102
RTVSPost2010PropOp37
 70
     1
102
RTVSPost2010Prop38
140
0.0
102
RTVSPost2010PropOp38
 70
     1
102
RTVSPost2010Prop39
140
1.0
102
RTVSPost2010PropOp39
 70
     1
102
RTVSPost2010Prop40
 90
        0
102
RTVSPost2010PropOp40
 70
     1
102
RTVSPost2010Prop41ColorIndex
 90
       18
102
RTVSPost2010Prop41ColorRGB
 90
        0
102
RTVSPost2010PropOp41
 70
     1
102
RTVSPost2010Prop42
 90
       50
102
RTVSPost2010PropOp42
 70
     1
102
RTVSPost2010Prop43
 90
        3
102
RTVSPost2010PropOp43
 70
     1
102
RTVSPost2010Prop44ColorIndex
 90
        5
102
RTVSPost2010Prop44ColorRGB
 90
      255
102
RTVSPost2010PropOp44
 70
     1
102
RTVSPost2010Prop45
280
     0
102
RTVSPost2010PropOp45
 70
     1
102
RTVSPost2010Prop46
 90
       50
102
RTVSPost2010PropOp46
 70
     1
102
RTVSPost2010Prop47
 90
       50
102
RTVSPost2010PropOp47
 70
     1
102
RTVSPost2010Prop48
 90
       50
102
RTVSPost2010PropOp48
 70
     1
102
RTVSPost2010Prop49
280
     0
102
RTVSPost2010PropOp49
 70
     1
102
RTVSPost2010Prop50
 90
       50
102
RTVSPost2010PropOp50
 70
     1
102
RTVSPost2010Prop51ColorIndex
 90
      256
102
RTVSPost2010Prop51ColorRGB
 90
-16777216
102
RTVSPost2010PropOp51
 70
     0
102
RTVSPost2010Prop52
140
1.0
102
RTVSPost2010PropOp52
 70
     0
102
RTVSPost2010Prop53
 90
        2
102
RTVSPost2010PropOp53
 70
     1
102
RTVSPost2010Prop54
  1
strokes_ogs.tif
102
RTVSPost2010PropOp54
 70
     1
102
RTVSPost2010Prop55
280
     0
102
RTVSPost2010PropOp55
 70
     1
102
RTVSPost2010Prop56
140
1.0
102
RTVSPost2010PropOp56
 70
     1
102
RTVSPost2010Prop57
140
1.0
102
RTVSPost2010PropOp57
 70
     1
102
RTVSPropertyOp0
 70
     1
102
RTVSPropertyOp1
 70
     1
102
RTVSPropertyOp2
 70
     1
102
RTVSPropertyOp3
 70
     1
102
RTVSPropertyOp4
 70
     1
102
RTVSPropertyOp5
 70
     1
102
RTVSPropertyOp6
 70
     1
102
RTVSPropertyOp7
 70
     1
102
RTVSPropertyOp8
 70
     1
102
RTVSPropertyOp9
 70
     1
102
RTVSPropertyOp10
 70
     1
102
RTVSPropertyOp11
 70
     1
102
RTVSPropertyOp12
 70
     1
102
RTVSPropertyOp13
 70
     1
102
RTVSPropertyOp14
 70
     1
102
RTVSPropertyOp15
 70
     1
102
RTVSPropertyOp16
 70
     1
102
RTVSPropertyOp17
 70
     1
102
RTVSPropertyOp18
 70
     1
102
RTVSPropertyOp19
 70
     1
102
RTVSPropertyOp20
 70
     1
102
RTVSPropertyOp21
 70
     1
102
RTVSPropertyOp22
 70
     1
102
RTVSPropertyOp23
 70
     1
102
RTVSPropertyOp24
 70
     1
102
RTVSPropertyOp25
 70
     1
102
RTVSPropertyOp26
 70
     1
102
RTVSPropertyOp27
 70
     1
102
RTVSPropertyOp28
 70
     1
102
RTVSPropertyOp29
 70
     1
102
RTVSPropertyOp30
 70
     1
102
RTVSPropertyOp31
 70
     1
102
RTVSPropertyOp32
 70
     1
102
RTVSPropertyOp33
 70
     1
102
RTVSPropertyOp34
 70
     1
102
RTVSPropertyOp35
 70
     1
102
RTVSPropertyOp36
 70
     1
102
RTVSPropertyOp37
 70
     1
102
RTVSPropertyOp38
 70
     1
102
RTVSPropertyOp39
 70
     1
102
RTVSPropertyOp40
 70
     1
102
RTVSPropertyOp41
 70
     1
102
RTVSPropertyOp42
 70
     1
102
RTVSPropertyOp43
 70
     1
102
RTVSPropertyOp44
 70
     1
102
RTVSPropertyOp45
 70
     1
102
RTVSPropertyOp46
 70
     1
102
RTVSPropertyOp47
 70
     1
102
RTVSPropertyOp48
 70
     1
102
RTVSPropertyOp49
 70
     1
102
RTVSPropertyOp50
 70
     1
102
RTVSPropertyOp51
 70
     0
102
RTVSPropertyOp52
 70
     0
102
RTVSPropertyOp53
 70
     1
102
RTVSPropertyOp54
 70
     1
102
RTVSPropertyOp55
 70
     1
102
RTVSPropertyOp56
 70
     1
102
RTVSPropertyOp57
 70
     1
102
RTVSPropertyOp58
 70
     1
102
RTVSPropertyOp59
 70
     1
102
RTVSPropertyOp60
 70
     1
102
RTVSPropertyOp61
 70
     1
102
RTVSPropertyOp62
 70
     1
  0
XRECORD
  5
C7B4
102
{ACAD_REACTORS
330
C7B3
102
}
330
C7B3
100
AcDbXrecord
280
     1
102
RTVSPost2010Prop28
280
     0
102
RTVSPost2010PropOp28
 70
     1
102
RTVSPost2010Prop29
280
     1
102
RTVSPost2010PropOp29
 70
     1
102
RTVSPost2010Prop30
280
     1
102
RTVSPost2010PropOp30
 70
     1
102
RTVSPost2010Prop31
280
     0
102
RTVSPost2010PropOp31
 70
     1
102
RTVSPost2010Prop32
280
     0
102
RTVSPost2010PropOp32
 70
     1
102
RTVSPost2010Prop33
280
     0
102
RTVSPost2010PropOp33
 70
     1
102
RTVSPost2010Prop34
280
     0
102
RTVSPost2010PropOp34
 70
     1
102
RTVSPost2010Prop35
280
     0
102
RTVSPost2010PropOp35
 70
     1
102
RTVSPost2010Prop36
280
     0
102
RTVSPost2010PropOp36
 70
     1
102
RTVSPost2010Prop37
 90
       50
102
RTVSPost2010PropOp37
 70
     1
102
RTVSPost2010Prop38
140
0.0
102
RTVSPost2010PropOp38
 70
     1
102
RTVSPost2010Prop39
140
1.0
102
RTVSPost2010PropOp39
 70
     1
102
RTVSPost2010Prop40
 90
        0
102
RTVSPost2010PropOp40
 70
     1
102
RTVSPost2010Prop41ColorIndex
 90
       18
102
RTVSPost2010Prop41ColorRGB
 90
        0
102
RTVSPost2010PropOp41
 70
     1
102
RTVSPost2010Prop42
 90
       50
102
RTVSPost2010PropOp42
 70
     1
102
RTVSPost2010Prop43
 90
        3
102
RTVSPost2010PropOp43
 70
     1
102
RTVSPost2010Prop44ColorIndex
 90
        5
102
RTVSPost2010Prop44ColorRGB
 90
      255
102
RTVSPost2010PropOp44
 70
     1
102
RTVSPost2010Prop45
280
     0
102
RTVSPost2010PropOp45
 70
     1
102
RTVSPost2010Prop46
 90
       50
102
RTVSPost2010PropOp46
 70
     1
102
RTVSPost2010Prop47
 90
       50
102
RTVSPost2010PropOp47
 70
     1
102
RTVSPost2010Prop48
 90
       50
102
RTVSPost2010PropOp48
 70
     1
102
RTVSPost2010Prop49
280
     0
102
RTVSPost2010PropOp49
 70
     1
102
RTVSPost2010Prop50
 90
       50
102
RTVSPost2010PropOp50
 70
     1
102
RTVSPost2010Prop51ColorIndex
 90
      256
102
RTVSPost2010Prop51ColorRGB
 90
-16777216
102
RTVSPost2010PropOp51
 70
     0
102
RTVSPost2010Prop52
140
1.0
102
RTVSPost2010PropOp52
 70
     0
102
RTVSPost2010Prop53
 90
        2
102
RTVSPost2010PropOp53
 70
     1
102
RTVSPost2010Prop54
  1
strokes_ogs.tif
102
RTVSPost2010PropOp54
 70
     1
102
RTVSPost2010Prop55
280
     0
102
RTVSPost2010PropOp55
 70
     1
102
RTVSPost2010Prop56
140
1.0
102
RTVSPost2010PropOp56
 70
     1
102
RTVSPost2010Prop57
140
1.0
102
RTVSPost2010PropOp57
 70
     1
102
RTVSPropertyOp0
 70
     1
102
RTVSPropertyOp1
 70
     1
102
RTVSPropertyOp2
 70
     1
102
RTVSPropertyOp3
 70
     1
102
RTVSPropertyOp4
 70
     1
102
RTVSPropertyOp5
 70
     1
102
RTVSPropertyOp6
 70
     1
102
RTVSPropertyOp7
 70
     1
102
RTVSPropertyOp8
 70
     1
102
RTVSPropertyOp9
 70
     1
102
RTVSPropertyOp10
 70
     1
102
RTVSPropertyOp11
 70
     1
102
RTVSPropertyOp12
 70
     1
102
RTVSPropertyOp13
 70
     1
102
RTVSPropertyOp14
 70
     1
102
RTVSPropertyOp15
 70
     1
102
RTVSPropertyOp16
 70
     1
102
RTVSPropertyOp17
 70
     1
102
RTVSPropertyOp18
 70
     1
102
RTVSPropertyOp19
 70
     1
102
RTVSPropertyOp20
 70
     1
102
RTVSPropertyOp21
 70
     1
102
RTVSPropertyOp22
 70
     1
102
RTVSPropertyOp23
 70
     1
102
RTVSPropertyOp24
 70
     1
102
RTVSPropertyOp25
 70
     1
102
RTVSPropertyOp26
 70
     1
102
RTVSPropertyOp27
 70
     1
102
RTVSPropertyOp28
 70
     1
102
RTVSPropertyOp29
 70
     1
102
RTVSPropertyOp30
 70
     1
102
RTVSPropertyOp31
 70
     1
102
RTVSPropertyOp32
 70
     1
102
RTVSPropertyOp33
 70
     1
102
RTVSPropertyOp34
 70
     1
102
RTVSPropertyOp35
 70
     1
102
RTVSPropertyOp36
 70
     1
102
RTVSPropertyOp37
 70
     1
102
RTVSPropertyOp38
 70
     1
102
RTVSPropertyOp39
 70
     1
102
RTVSPropertyOp40
 70
     1
102
RTVSPropertyOp41
 70
     1
102
RTVSPropertyOp42
 70
     1
102
RTVSPropertyOp43
 70
     1
102
RTVSPropertyOp44
 70
     1
102
RTVSPropertyOp45
 70
     1
102
RTVSPropertyOp46
 70
     1
102
RTVSPropertyOp47
 70
     1
102
RTVSPropertyOp48
 70
     1
102
RTVSPropertyOp49
 70
     1
102
RTVSPropertyOp50
 70
     1
102
RTVSPropertyOp51
 70
     0
102
RTVSPropertyOp52
 70
     0
102
RTVSPropertyOp53
 70
     1
102
RTVSPropertyOp54
 70
     1
102
RTVSPropertyOp55
 70
     1
102
RTVSPropertyOp56
 70
     1
102
RTVSPropertyOp57
 70
     1
102
RTVSPropertyOp58
 70
     1
102
RTVSPropertyOp59
 70
     1
102
RTVSPropertyOp60
 70
     1
102
RTVSPropertyOp61
 70
     1
102
RTVSPropertyOp62
 70
     1
  0
XRECORD
  5
C7D4
102
{ACAD_REACTORS
330
C7D3
102
}
330
C7D3
100
AcDbXrecord
280
     1
102
RTVSPost2010Prop28
280
     0
102
RTVSPost2010PropOp28
 70
     1
102
RTVSPost2010Prop29
280
     1
102
RTVSPost2010PropOp29
 70
     1
102
RTVSPost2010Prop30
280
     1
102
RTVSPost2010PropOp30
 70
     1
102
RTVSPost2010Prop31
280
     0
102
RTVSPost2010PropOp31
 70
     1
102
RTVSPost2010Prop32
280
     0
102
RTVSPost2010PropOp32
 70
     1
102
RTVSPost2010Prop33
280
     0
102
RTVSPost2010PropOp33
 70
     1
102
RTVSPost2010Prop34
280
     0
102
RTVSPost2010PropOp34
 70
     1
102
RTVSPost2010Prop35
280
     0
102
RTVSPost2010PropOp35
 70
     1
102
RTVSPost2010Prop36
280
     0
102
RTVSPost2010PropOp36
 70
     1
102
RTVSPost2010Prop37
 90
       50
102
RTVSPost2010PropOp37
 70
     1
102
RTVSPost2010Prop38
140
0.0
102
RTVSPost2010PropOp38
 70
     1
102
RTVSPost2010Prop39
140
1.0
102
RTVSPost2010PropOp39
 70
     1
102
RTVSPost2010Prop40
 90
        0
102
RTVSPost2010PropOp40
 70
     1
102
RTVSPost2010Prop41ColorIndex
 90
       18
102
RTVSPost2010Prop41ColorRGB
 90
        0
102
RTVSPost2010PropOp41
 70
     1
102
RTVSPost2010Prop42
 90
       50
102
RTVSPost2010PropOp42
 70
     1
102
RTVSPost2010Prop43
 90
        3
102
RTVSPost2010PropOp43
 70
     1
102
RTVSPost2010Prop44ColorIndex
 90
        5
102
RTVSPost2010Prop44ColorRGB
 90
      255
102
RTVSPost2010PropOp44
 70
     1
102
RTVSPost2010Prop45
280
     0
102
RTVSPost2010PropOp45
 70
     1
102
RTVSPost2010Prop46
 90
       50
102
RTVSPost2010PropOp46
 70
     1
102
RTVSPost2010Prop47
 90
       50
102
RTVSPost2010PropOp47
 70
     1
102
RTVSPost2010Prop48
 90
       50
102
RTVSPost2010PropOp48
 70
     1
102
RTVSPost2010Prop49
280
     0
102
RTVSPost2010PropOp49
 70
     1
102
RTVSPost2010Prop50
 90
       50
102
RTVSPost2010PropOp50
 70
     1
102
RTVSPost2010Prop51ColorIndex
 90
      256
102
RTVSPost2010Prop51ColorRGB
 90
-16777216
102
RTVSPost2010PropOp51
 70
     0
102
RTVSPost2010Prop52
140
1.0
102
RTVSPost2010PropOp52
 70
     0
102
RTVSPost2010Prop53
 90
        2
102
RTVSPost2010PropOp53
 70
     1
102
RTVSPost2010Prop54
  1
strokes_ogs.tif
102
RTVSPost2010PropOp54
 70
     1
102
RTVSPost2010Prop55
280
     0
102
RTVSPost2010PropOp55
 70
     1
102
RTVSPost2010Prop56
140
1.0
102
RTVSPost2010PropOp56
 70
     1
102
RTVSPost2010Prop57
140
1.0
102
RTVSPost2010PropOp57
 70
     1
102
RTVSPropertyOp0
 70
     1
102
RTVSPropertyOp1
 70
     1
102
RTVSPropertyOp2
 70
     1
102
RTVSPropertyOp3
 70
     1
102
RTVSPropertyOp4
 70
     1
102
RTVSPropertyOp5
 70
     1
102
RTVSPropertyOp6
 70
     1
102
RTVSPropertyOp7
 70
     1
102
RTVSPropertyOp8
 70
     1
102
RTVSPropertyOp9
 70
     1
102
RTVSPropertyOp10
 70
     1
102
RTVSPropertyOp11
 70
     1
102
RTVSPropertyOp12
 70
     1
102
RTVSPropertyOp13
 70
     1
102
RTVSPropertyOp14
 70
     1
102
RTVSPropertyOp15
 70
     1
102
RTVSPropertyOp16
 70
     1
102
RTVSPropertyOp17
 70
     1
102
RTVSPropertyOp18
 70
     1
102
RTVSPropertyOp19
 70
     1
102
RTVSPropertyOp20
 70
     1
102
RTVSPropertyOp21
 70
     1
102
RTVSPropertyOp22
 70
     1
102
RTVSPropertyOp23
 70
     1
102
RTVSPropertyOp24
 70
     1
102
RTVSPropertyOp25
 70
     1
102
RTVSPropertyOp26
 70
     1
102
RTVSPropertyOp27
 70
     1
102
RTVSPropertyOp28
 70
     1
102
RTVSPropertyOp29
 70
     1
102
RTVSPropertyOp30
 70
     1
102
RTVSPropertyOp31
 70
     1
102
RTVSPropertyOp32
 70
     1
102
RTVSPropertyOp33
 70
     1
102
RTVSPropertyOp34
 70
     1
102
RTVSPropertyOp35
 70
     1
102
RTVSPropertyOp36
 70
     1
102
RTVSPropertyOp37
 70
     1
102
RTVSPropertyOp38
 70
     1
102
RTVSPropertyOp39
 70
     1
102
RTVSPropertyOp40
 70
     1
102
RTVSPropertyOp41
 70
     1
102
RTVSPropertyOp42
 70
     1
102
RTVSPropertyOp43
 70
     1
102
RTVSPropertyOp44
 70
     1
102
RTVSPropertyOp45
 70
     1
102
RTVSPropertyOp46
 70
     1
102
RTVSPropertyOp47
 70
     1
102
RTVSPropertyOp48
 70
     1
102
RTVSPropertyOp49
 70
     1
102
RTVSPropertyOp50
 70
     1
102
RTVSPropertyOp51
 70
     0
102
RTVSPropertyOp52
 70
     0
102
RTVSPropertyOp53
 70
     1
102
RTVSPropertyOp54
 70
     1
102
RTVSPropertyOp55
 70
     1
102
RTVSPropertyOp56
 70
     1
102
RTVSPropertyOp57
 70
     1
102
RTVSPropertyOp58
 70
     1
102
RTVSPropertyOp59
 70
     1
102
RTVSPropertyOp60
 70
     1
102
RTVSPropertyOp61
 70
     1
102
RTVSPropertyOp62
 70
     1
  0
ENDSEC
  0
EOF
