  0
SECTION
  2
HEADER
  9
$ACADVER
  1
AC1015
  9
$ACADMAINTVER
 70
    18
  9
$DWGCODEPAGE
  3
ANSI_1252
  9
$INSBASE
 10
0.0
 20
0.0
 30
0.0
  9
$EXTMIN
 10
-243.3508293835339
 20
-317.7377926471385
 30
-0.0015258207003583
  9
$EXTMAX
 10
330.2590951116979
 20
336.8667762506134
 30
0.0000000349246037
  9
$LIMMIN
 10
0.0
 20
0.0
  9
$LIMMAX
 10
420.0
 20
297.0
  9
$ORTHOMODE
 70
     0
  9
$REGENMODE
 70
     1
  9
$FILLMODE
 70
     1
  9
$QTEXTMODE
 70
     0
  9
$MIRRTEXT
 70
     0
  9
$LTSCALE
 40
1.0
  9
$ATTMODE
 70
     1
  9
$TEXTSIZE
 40
2.5
  9
$TRACEWID
 40
1.0
  9
$TEXTSTYLE
  7
Standard
  9
$CLAYER
  8
0
  9
$CELTYPE
  6
ByLayer
  9
$CECOLOR
 62
   256
  9
$CELTSCALE
 40
1.0
  9
$DISPSILH
 70
     0
  9
$DIMSCALE
 40
1.0
  9
$DIMASZ
 40
2.5
  9
$DIMEXO
 40
0.625
  9
$DIMDLI
 40
3.75
  9
$DIMRND
 40
0.0
  9
$DIMDLE
 40
0.0
  9
$DIMEXE
 40
1.25
  9
$DIMTP
 40
0.0
  9
$DIMTM
 40
0.0
  9
$DIMTXT
 40
2.5
  9
$DIMCEN
 40
2.5
  9
$DIMTSZ
 40
0.0
  9
$DIMTOL
 70
     0
  9
$DIMLIM
 70
     0
  9
$DIMTIH
 70
     0
  9
$DIMTOH
 70
     0
  9
$DIMSE1
 70
     0
  9
$DIMSE2
 70
     0
  9
$DIMTAD
 70
     1
  9
$DIMZIN
 70
     8
  9
$DIMBLK
  1

  9
$DIMASO
 70
     1
  9
$DIMSHO
 70
     1
  9
$DIMPOST
  1

  9
$DIMAPOST
  1

  9
$DIMALT
 70
     0
  9
$DIMALTD
 70
     3
  9
$DIMALTF
 40
0.03937007874016
  9
$DIMLFAC
 40
1.0
  9
$DIMTOFL
 70
     1
  9
$DIMTVP
 40
0.0
  9
$DIMTIX
 70
     0
  9
$DIMSOXD
 70
     0
  9
$DIMSAH
 70
     0
  9
$DIMBLK1
  1

  9
$DIMBLK2
  1

  9
$DIMSTYLE
  2
ISO-25
  9
$DIMCLRD
 70
     0
  9
$DIMCLRE
 70
     0
  9
$DIMCLRT
 70
     0
  9
$DIMTFAC
 40
1.0
  9
$DIMGAP
 40
0.625
  9
$DIMJUST
 70
     0
  9
$DIMSD1
 70
     0
  9
$DIMSD2
 70
     0
  9
$DIMTOLJ
 70
     0
  9
$DIMTZIN
 70
     8
  9
$DIMALTZ
 70
     0
  9
$DIMALTTZ
 70
     0
  9
$DIMUPT
 70
     0
  9
$DIMDEC
 70
     2
  9
$DIMTDEC
 70
     2
  9
$DIMALTU
 70
     2
  9
$DIMALTTD
 70
     3
  9
$DIMTXSTY
  7
Standard
  9
$DIMAUNIT
 70
     0
  9
$DIMADEC
 70
     0
  9
$DIMALTRND
 40
0.0
  9
$DIMAZIN
 70
     0
  9
$DIMDSEP
 70
    44
  9
$DIMATFIT
 70
     3
  9
$DIMFRAC
 70
     0
  9
$DIMLDRBLK
  1

  9
$DIMLUNIT
 70
     2
  9
$DIMLWD
 70
    -2
  9
$DIMLWE
 70
    -2
  9
$DIMTMOVE
 70
     0
  9
$LUNITS
 70
     2
  9
$LUPREC
 70
     4
  9
$SKETCHINC
 40
1.0
  9
$FILLETRAD
 40
0.0
  9
$AUNITS
 70
     0
  9
$AUPREC
 70
     0
  9
$MENU
  1
.
  9
$ELEVATION
 40
0.0
  9
$PELEVATION
 40
0.0
  9
$THICKNESS
 40
0.0
  9
$LIMCHECK
 70
     0
  9
$CHAMFERA
 40
0.0
  9
$CHAMFERB
 40
0.0
  9
$CHAMFERC
 40
0.0
  9
$CHAMFERD
 40
0.0
  9
$SKPOLY
 70
     0
  9
$TDCREATE
 40
2460398.356956019
  9
$TDUCREATE
 40
2460398.065289352
  9
$TDUPDATE
 40
2460398.391342593
  9
$TDUUPDATE
 40
2460398.099675926
  9
$TDINDWG
 40
0.0102083333
  9
$TDUSRTIMER
 40
0.0102083333
  9
$USRTIMER
 70
     1
  9
$ANGBASE
 50
0.0
  9
$ANGDIR
 70
     0
  9
$PDMODE
 70
     0
  9
$PDSIZE
 40
0.0
  9
$PLINEWID
 40
0.0
  9
$SPLFRAME
 70
     0
  9
$SPLINETYPE
 70
     6
  9
$SPLINESEGS
 70
     8
  9
$HANDSEED
  5
29B26
  9
$SURFTAB1
 70
     6
  9
$SURFTAB2
 70
     6
  9
$SURFTYPE
 70
     6
  9
$SURFU
 70
     6
  9
$SURFV
 70
     6
  9
$UCSBASE
  2

  9
$UCSNAME
  2

  9
$UCSORG
 10
0.0
 20
0.0
 30
0.0
  9
$UCSXDIR
 10
1.0
 20
0.0
 30
0.0
  9
$UCSYDIR
 10
0.0
 20
1.0
 30
0.0
  9
$UCSORTHOREF
  2

  9
$UCSORTHOVIEW
 70
     0
  9
$UCSORGTOP
 10
0.0
 20
0.0
 30
0.0
  9
$UCSORGBOTTOM
 10
0.0
 20
0.0
 30
0.0
  9
$UCSORGLEFT
 10
0.0
 20
0.0
 30
0.0
  9
$UCSORGRIGHT
 10
0.0
 20
0.0
 30
0.0
  9
$UCSORGFRONT
 10
0.0
 20
0.0
 30
0.0
  9
$UCSORGBACK
 10
0.0
 20
0.0
 30
0.0
  9
$PUCSBASE
  2

  9
$PUCSNAME
  2

  9
$PUCSORG
 10
0.0
 20
0.0
 30
0.0
  9
$PUCSXDIR
 10
1.0
 20
0.0
 30
0.0
  9
$PUCSYDIR
 10
0.0
 20
1.0
 30
0.0
  9
$PUCSORTHOREF
  2

  9
$PUCSORTHOVIEW
 70
     0
  9
$PUCSORGTOP
 10
0.0
 20
0.0
 30
0.0
  9
$PUCSORGBOTTOM
 10
0.0
 20
0.0
 30
0.0
  9
$PUCSORGLEFT
 10
0.0
 20
0.0
 30
0.0
  9
$PUCSORGRIGHT
 10
0.0
 20
0.0
 30
0.0
  9
$PUCSORGFRONT
 10
0.0
 20
0.0
 30
0.0
  9
$PUCSORGBACK
 10
0.0
 20
0.0
 30
0.0
  9
$USERI1
 70
     0
  9
$USERI2
 70
     0
  9
$USERI3
 70
     0
  9
$USERI4
 70
     0
  9
$USERI5
 70
     0
  9
$USERR1
 40
0.0
  9
$USERR2
 40
0.0
  9
$USERR3
 40
0.0
  9
$USERR4
 40
0.0
  9
$USERR5
 40
0.0
  9
$WORLDVIEW
 70
     1
  9
$SHADEDGE
 70
     3
  9
$SHADEDIF
 70
    70
  9
$TILEMODE
 70
     1
  9
$MAXACTVP
 70
    48
  9
$PINSBASE
 10
0.0
 20
0.0
 30
0.0
  9
$PLIMCHECK
 70
     0
  9
$PEXTMIN
 10
0.0
 20
0.0
 30
0.0
  9
$PEXTMAX
 10
0.0
 20
0.0
 30
0.0
  9
$PLIMMIN
 10
0.0
 20
0.0
  9
$PLIMMAX
 10
12.0
 20
9.0
  9
$UNITMODE
 70
     0
  9
$VISRETAIN
 70
     1
  9
$PLINEGEN
 70
     0
  9
$PSLTSCALE
 70
     1
  9
$TREEDEPTH
 70
  3020
  9
$CMLSTYLE
  2
Standard
  9
$CMLJUST
 70
     0
  9
$CMLSCALE
 40
20.0
  9
$PROXYGRAPHICS
 70
     1
  9
$MEASUREMENT
 70
     1
  9
$CELWEIGHT
370
    -1
  9
$ENDCAPS
280
     0
  9
$JOINSTYLE
280
     0
  9
$LWDISPLAY
290
     0
  9
$INSUNITS
 70
     4
  9
$HYPERLINKBASE
  1

  9
$STYLESHEET
  1

  9
$XEDIT
290
     1
  9
$CEPSNTYPE
380
     0
  9
$PSTYLEMODE
290
     1
  9
$FINGERPRINTGUID
  2
{6C1266EE-7BC1-BF4A-B059-A6E7702B10CE}
  9
$VERSIONGUID
  2
{416D2271-6E7D-1145-B9FA-D7E23FD4AD2E}
  9
$EXTNAMES
290
     1
  9
$PSVPSCALE
 40
0.0
  9
$OLESTARTUP
290
     0
  0
ENDSEC
  0
SECTION
  2
CLASSES
  0
CLASS
  1
ACDBDICTIONARYWDFLT
  2
AcDbDictionaryWithDefault
  3
ObjectDBX Classes
 90
        0
280
     0
281
     0
  0
CLASS
  1
ACDBPLACEHOLDER
  2
AcDbPlaceHolder
  3
ObjectDBX Classes
 90
        0
280
     0
281
     0
  0
CLASS
  1
LAYOUT
  2
AcDbLayout
  3
ObjectDBX Classes
 90
        0
280
     0
281
     0
  0
CLASS
  1
DICTIONARYVAR
  2
AcDbDictionaryVar
  3
ObjectDBX Classes
 90
        0
280
     0
281
     0
  0
CLASS
  1
TABLESTYLE
  2
AcDbTableStyle
  3
ObjectDBX Classes
 90
     4095
280
     0
281
     0
  0
CLASS
  1
MATERIAL
  2
AcDbMaterial
  3
ObjectDBX Classes
 90
     1153
280
     0
281
     0
  0
CLASS
  1
VISUALSTYLE
  2
AcDbVisualStyle
  3
ObjectDBX Classes
 90
     4095
280
     0
281
     0
  0
CLASS
  1
SCALE
  2
AcDbScale
  3
ObjectDBX Classes
 90
     1153
280
     0
281
     0
  0
CLASS
  1
MLEADERSTYLE
  2
AcDbMLeaderStyle
  3
ACDB_MLEADERSTYLE_CLASS
 90
     4095
280
     0
281
     0
  0
CLASS
  1
CELLSTYLEMAP
  2
AcDbCellStyleMap
  3
ObjectDBX Classes
 90
     1152
280
     0
281
     0
  0
CLASS
  1
EXACXREFPANELOBJECT
  2
ExAcXREFPanelObject
  3
EXAC_ESW
 90
    33793
280
     0
281
     0
  0
CLASS
  1
NPOCOLLECTION
  2
AcDbImpNonPersistentObjectsCollection
  3
ObjectDBX Classes
 90
    33921
280
     0
281
     0
  0
CLASS
  1
LAYER_INDEX
  2
AcDbLayerIndex
  3
ObjectDBX Classes
 90
    32768
280
     0
281
     0
  0
CLASS
  1
SPATIAL_INDEX
  2
AcDbSpatialIndex
  3
ObjectDBX Classes
 90
    32768
280
     0
281
     0
  0
CLASS
  1
IDBUFFER
  2
AcDbIdBuffer
  3
ObjectDBX Classes
 90
    32768
280
     0
281
     0
  0
CLASS
  1
ACDBSECTIONVIEWSTYLE
  2
AcDbSectionViewStyle
  3
ObjectDBX Classes
 90
     1025
280
     0
281
     0
  0
CLASS
  1
ACDBDETAILVIEWSTYLE
  2
AcDbDetailViewStyle
  3
ObjectDBX Classes
 90
     1025
280
     0
281
     0
  0
CLASS
  1
XRECORD
  2
AcDbXrecord
  3
ObjectDBX Classes
 90
        0
280
     0
281
     0
  0
ENDSEC
  0
SECTION
  2
TABLES
  0
TABLE
  2
VPORT
  5
8
102
{ACAD_XDICTIONARY
360
29A34
102
}
330
0
100
AcDbSymbolTable
 70
     1
  0
VPORT
  5
EA
330
8
100
AcDbSymbolTableRecord
100
AcDbViewportTableRecord
  2
*Active
 70
     0
 10
0.0
 20
0.0
 11
1.0
 21
1.0
 12
43.45413286408193
 22
9.56449180173746
 13
0.0
 23
0.0
 14
10.0
 24
10.0
 15
10.0
 25
10.0
 16
0.0
 26
0.0
 36
1.0
 17
0.0
 27
0.0
 37
0.0
 40
696.1126365860771
 41
0.9846153846153846
 42
50.0
 43
0.0
 44
0.0
 50
0.0
 51
0.0
 71
     0
 72
  1000
 73
     1
 74
     3
 75
     0
 76
     1
 77
     0
 78
     0
281
     0
 65
     1
110
0.0
120
0.0
130
0.0
111
1.0
121
0.0
131
0.0
112
0.0
122
1.0
132
0.0
 79
     0
146
0.0
1001
ACAD_NAV_VCDISPLAY
1070
     3
  0
ENDTAB
  0
TABLE
  2
LTYPE
  5
5
330
0
100
AcDbSymbolTable
 70
     1
  0
LTYPE
  5
14
330
5
100
AcDbSymbolTableRecord
100
AcDbLinetypeTableRecord
  2
ByBlock
 70
     0
  3

 72
    65
 73
     0
 40
0.0
  0
LTYPE
  5
15
330
5
100
AcDbSymbolTableRecord
100
AcDbLinetypeTableRecord
  2
ByLayer
 70
     0
  3

 72
    65
 73
     0
 40
0.0
  0
LTYPE
  5
16
330
5
100
AcDbSymbolTableRecord
100
AcDbLinetypeTableRecord
  2
Continuous
 70
     0
  3
Solid line
 72
    65
 73
     0
 40
0.0
  0
ENDTAB
  0
TABLE
  2
LAYER
  5
2
102
{ACAD_XDICTIONARY
360
1FF
102
}
330
0
100
AcDbSymbolTable
 70
     1
  0
LAYER
  5
10
102
{ACAD_XDICTIONARY
360
13C
102
}
330
2
100
AcDbSymbolTableRecord
100
AcDbLayerTableRecord
  2
0
 70
     0
 62
     7
  6
Continuous
370
    -3
390
F
  0
ENDTAB
  0
TABLE
  2
STYLE
  5
3
330
0
100
AcDbSymbolTable
 70
     1
  0
STYLE
  5
11
330
3
100
AcDbSymbolTableRecord
100
AcDbTextStyleTableRecord
  2
Standard
 70
     0
 40
0.0
 41
1.0
 50
0.0
 71
     0
 42
2.5
  3
arial.ttf
  4

1001
ACAD
1000
Arial
1071
       34
  0
ENDTAB
  0
TABLE
  2
VIEW
  5
6
330
0
100
AcDbSymbolTable
 70
     0
  0
ENDTAB
  0
TABLE
  2
UCS
  5
7
330
0
100
AcDbSymbolTable
 70
     0
  0
ENDTAB
  0
TABLE
  2
APPID
  5
9
330
0
100
AcDbSymbolTable
 70
     8
  0
APPID
  5
12
330
9
100
AcDbSymbolTableRecord
100
AcDbRegAppTableRecord
  2
ACAD
 70
     0
  0
APPID
  5
9E
330
9
100
AcDbSymbolTableRecord
100
AcDbRegAppTableRecord
  2
ACAD_PSEXT
 70
     0
  0
APPID
  5
133
330
9
100
AcDbSymbolTableRecord
100
AcDbRegAppTableRecord
  2
AcadAnnoPO
 70
     0
  0
APPID
  5
134
330
9
100
AcDbSymbolTableRecord
100
AcDbRegAppTableRecord
  2
AcadAnnotative
 70
     0
  0
APPID
  5
135
330
9
100
AcDbSymbolTableRecord
100
AcDbRegAppTableRecord
  2
ACAD_DSTYLE_DIMJAG
 70
     0
  0
APPID
  5
136
330
9
100
AcDbSymbolTableRecord
100
AcDbRegAppTableRecord
  2
ACAD_DSTYLE_DIMTALN
 70
     0
  0
APPID
  5
165
330
9
100
AcDbSymbolTableRecord
100
AcDbRegAppTableRecord
  2
ACAD_MLEADERVER
 70
     0
  0
APPID
  5
217
330
9
100
AcDbSymbolTableRecord
100
AcDbRegAppTableRecord
  2
ACAD_NAV_VCDISPLAY
 70
     0
  0
ENDTAB
  0
TABLE
  2
DIMSTYLE
  5
A
330
0
100
AcDbSymbolTable
 70
     1
100
AcDbDimStyleTable
 71
     0
  0
DIMSTYLE
105
27
330
A
100
AcDbSymbolTableRecord
100
AcDbDimStyleTableRecord
  2
ISO-25
 70
     0
 41
2.5
 42
0.625
 43
3.75
 44
1.25
 73
     0
 74
     0
 77
     1
 78
     8
140
2.5
141
2.5
143
0.03937007874016
147
0.625
171
     3
172
     1
271
     2
272
     2
274
     3
278
    44
283
     0
284
     8
340
11
  0
ENDTAB
  0
TABLE
  2
BLOCK_RECORD
  5
1
330
0
100
AcDbSymbolTable
 70
     7
  0
BLOCK_RECORD
  5
1F
102
{ACAD_XDICTIONARY
360
1CE
102
}
330
1
100
AcDbSymbolTableRecord
100
AcDbBlockTableRecord
  2
*Model_Space
340
22
  0
BLOCK_RECORD
  5
D2
102
{ACAD_XDICTIONARY
360
299E7
102
}
330
1
100
AcDbSymbolTableRecord
100
AcDbBlockTableRecord
  2
*Paper_Space
340
D3
  0
BLOCK_RECORD
  5
D6
102
{ACAD_XDICTIONARY
360
299E9
102
}
330
1
100
AcDbSymbolTableRecord
100
AcDbBlockTableRecord
  2
*Paper_Space0
340
D7
  0
BLOCK_RECORD
  5
29815
330
1
100
AcDbSymbolTableRecord
100
AcDbBlockTableRecord
  2
SAEL500_115_2-Front
340
0
102
{BLKREFS
331
299DD
102
}
  0
BLOCK_RECORD
  5
2987B
330
1
100
AcDbSymbolTableRecord
100
AcDbBlockTableRecord
  2
SAEL500_115_2-Left
340
0
102
{BLKREFS
331
299DE
102
}
  0
BLOCK_RECORD
  5
298A4
330
1
100
AcDbSymbolTableRecord
100
AcDbBlockTableRecord
  2
SAEL500_115_2-Right
340
0
102
{BLKREFS
331
299DF
102
}
  0
BLOCK_RECORD
  5
298CC
330
1
100
AcDbSymbolTableRecord
100
AcDbBlockTableRecord
  2
SAEL500_115_2-Top
340
0
102
{BLKREFS
331
299E0
102
}
  0
BLOCK_RECORD
  5
29905
330
1
100
AcDbSymbolTableRecord
100
AcDbBlockTableRecord
  2
SAEL500_115_2-Bottom
340
0
102
{BLKREFS
331
299E1
102
}
  0
BLOCK_RECORD
  5
2992D
330
1
100
AcDbSymbolTableRecord
100
AcDbBlockTableRecord
  2
SAEL500_115_2-ISO
340
0
102
{BLKREFS
331
299E2
102
}
  0
ENDTAB
  0
ENDSEC
  0
SECTION
  2
BLOCKS
  0
BLOCK
  5
20
330
1F
100
AcDbEntity
  8
0
100
AcDbBlockBegin
  2
*Model_Space
 70
     0
 10
0.0
 20
0.0
 30
0.0
  3
*Model_Space
  1

  0
ENDBLK
  5
21
330
1F
100
AcDbEntity
  8
0
100
AcDbBlockEnd
  0
BLOCK
  5
D4
330
D2
100
AcDbEntity
 67
     1
  8
0
100
AcDbBlockBegin
  2
*Paper_Space
 70
     0
 10
0.0
 20
0.0
 30
0.0
  3
*Paper_Space
  1

  0
ENDBLK
  5
D5
330
D2
100
AcDbEntity
 67
     1
  8
0
100
AcDbBlockEnd
  0
BLOCK
  5
D8
330
D6
100
AcDbEntity
 67
     1
  8
0
100
AcDbBlockBegin
  2
*Paper_Space0
 70
     0
 10
0.0
 20
0.0
 30
0.0
  3
*Paper_Space0
  1

  0
ENDBLK
  5
D9
330
D6
100
AcDbEntity
 67
     1
  8
0
100
AcDbBlockEnd
  0
BLOCK
  5
29816
330
29815
100
AcDbEntity
  8
0
100
AcDbBlockBegin
  2
SAEL500_115_2-Front
 70
     0
 10
0.0
 20
0.0
 30
0.0
  3
SAEL500_115_2-Front
  1

  0
SPLINE
  5
29818
330
29815
100
AcDbEntity
  8
0
100
AcDbSpline
210
0.0
220
0.0
230
1.0
 70
     8
 71
     3
 72
    14
 73
    10
 74
     0
 42
0.000000001
 43
0.0000000001
 40
0.0
 40
0.0
 40
0.0
 40
0.0
 40
0.2870001856672752
 40
0.2870001856672752
 40
0.2870001856672752
 40
0.8282911260917206
 40
0.8282911260917206
 40
0.8282911260917206
 40
0.9976758091527583
 40
0.9976758091527583
 40
0.9976758091527583
 40
0.9976758091527583
 10
61.63175911166529
 20
22.96251060667355
 30
0.0
 10
61.27222392422607
 20
22.89911489184679
 30
0.0
 10
60.96620915172685
 20
22.77267956156148
 30
0.0
 10
60.68206703771624
 20
22.58956682452416
 30
0.0
 10
60.14616650598172
 20
22.24421072169038
 30
0.0
 10
59.74264309995657
 20
21.71065167248869
 30
0.0
 10
59.57927432875073
 20
21.09085729644248
 30
0.0
 10
59.52815178915848
 20
20.89690674950135
 30
0.0
 10
59.50192552936129
 20
20.69430902375509
 30
0.0
 10
59.50006291307015
 20
20.48847480013277
 30
0.0
  0
LINE
  5
29819
330
29815
100
AcDbEntity
  8
0
100
AcDbLine
 10
61.5
 20
22.96251060667355
 30
0.0
 11
61.6317591116654
 21
22.96251060667355
 31
0.0
  0
LINE
  5
2981A
330
29815
100
AcDbEntity
  8
0
100
AcDbLine
 10
59.50000000000002
 20
22.96251060667355
 30
0.0
 11
61.5
 21
22.96251060667355
 31
0.0
  0
SPLINE
  5
2981B
330
29815
100
AcDbEntity
  8
0
100
AcDbSpline
210
0.0
220
0.0
230
1.0
 70
     8
 71
     3
 72
    10
 73
     6
 74
     0
 42
0.000000001
 43
0.0000000001
 40
0.0
 40
0.0
 40
0.0
 40
0.0
 40
0.0028844360382723
 40
0.0028844360382723
 40
0.003291278874899
 40
0.003291278874899
 40
0.003291278874899
 40
0.003291278874899
 10
57.49959270886865
 20
20.48000233329963
 30
0.0
 10
57.49959854625071
 20
20.48834960539593
 30
0.0
 10
57.49960626485101
 20
20.4963641425766
 30
0.0
 10
57.49961590361039
 20
20.50476711706112
 30
0.0
 10
57.49961710739125
 20
20.50579421059587
 30
0.0
 10
57.49961831519588
 20
20.50680852688596
 30
0.0
  0
SPLINE
  5
2981C
330
29815
100
AcDbEntity
  8
0
100
AcDbSpline
210
0.0
220
0.0
230
1.0
 70
     8
 71
     3
 72
    10
 73
     6
 74
     0
 42
0.000000001
 43
0.0000000001
 40
0.0
 40
0.0
 40
0.0
 40
0.0
 40
0.0046978475756418
 40
0.0046978475756418
 40
0.0087436938055793
 40
0.0087436938055793
 40
0.0087436938055793
 40
0.0087436938055793
 10
57.49992652900958
 20
20.47999905598125
 30
0.0
 10
57.49978988754552
 20
20.49211711226944
 30
0.0
 10
57.49965158916214
 20
20.50399109038549
 30
0.0
 10
57.49942742532419
 20
20.52310281941581
 30
0.0
 10
57.49933621634443
 20
20.53081139576481
 30
0.0
 10
57.49926148421014
 20
20.53708584071186
 30
0.0
  0
SPLINE
  5
2981D
330
29815
100
AcDbEntity
  8
0
100
AcDbSpline
210
0.0
220
0.0
230
1.0
 70
     8
 71
     3
 72
    36
 73
    32
 74
     0
 42
0.000000001
 43
0.0000000001
 40
0.0071233555309726
 40
0.0071233555309726
 40
0.0071233555309726
 40
0.0071233555309726
 40
0.0372787538398282
 40
0.0372787538398282
 40
0.0477692157974566
 40
0.0477692157974566
 40
0.0570758403644205
 40
0.0570758403644205
 40
0.0618739998560387
 40
0.0618739998560387
 40
0.0638227268440064
 40
0.0638227268440064
 40
0.0647553436109914
 40
0.0647553436109914
 40
0.0656908591493324
 40
0.0656908591493324
 40
0.0666274963858482
 40
0.0666274963858482
 40
0.0685173476608928
 40
0.0685173476608928
 40
0.0722586706822349
 40
0.0722586706822349
 40
0.0782469789789582
 40
0.0782469789789582
 40
0.0962087244895498
 40
0.0962087244895498
 40
0.1500533426071957
 40
0.1500533426071957
 40
0.250300388938586
 40
0.250300388938586
 40
0.3078498508741964
 40
0.3078498508741964
 40
0.3078498508741964
 40
0.3078498508741964
 10
57.49994258170099
 20
20.48486465858088
 30
0.0
 10
57.4999012153821
 20
20.48979974420997
 30
0.0
 10
57.5000083653892
 20
20.47941036873499
 30
0.0
 10
57.49998084708197
 20
20.4817533522445
 30
0.0
 10
57.49987044901851
 20
20.49102586560431
 30
0.0
 10
57.49956086241855
 20
20.51500518756911
 30
0.0
 10
57.49937820167018
 20
20.52863814186782
 30
0.0
 10
57.4990525218196
 20
20.5522850218011
 30
0.0
 10
57.49893296712685
 20
20.56087526808706
 30
0.0
 10
57.49872566251809
 20
20.57577912936773
 30
0.0
 10
57.49866008650961
 20
20.580495200299
 30
0.0
 10
57.4985512723455
 20
20.58835845784863
 30
0.0
 10
57.49851391516692
 20
20.59106359760409
 30
0.0
 10
57.49843567984544
 20
20.59674907633587
 30
0.0
 10
57.49839428710441
 20
20.59976716778713
 30
0.0
 10
57.49831039489706
 20
20.60591350986517
 30
0.0
 10
57.49826732983319
 20
20.60908349950989
 30
0.0
 10
57.49814047292156
 20
20.61847305713281
 30
0.0
 10
57.49805861785681
 20
20.62460194113867
 30
0.0
 10
57.49782965334397
 20
20.64195217102416
 30
0.0
 10
57.49769129834207
 20
20.65272008192765
 30
0.0
 10
57.49735483273465
 20
20.6796639111883
 30
0.0
 10
57.49716836033319
 20
20.695394934104
 30
0.0
 10
57.49648076774929
 20
20.75693891782959
 30
0.0
 10
57.49609690982499
 20
20.800123723615
 30
0.0
 10
57.49495934890515
 20
20.97017249143194
 30
0.0
 10
57.49493666337198
 20
21.09632215420521
 30
0.0
 10
57.49650832805992
 20
21.50751891857587
 30
0.0
 10
57.49903980534842
 20
21.81389742488578
 30
0.0
 10
57.49999439373164
 20
22.32087916243171
 30
0.0
 10
57.49999120626175
 20
22.51265782867577
 30
0.0
 10
57.5000000359032
 20
22.70388492609495
 30
0.0
  0
SPLINE
  5
2981E
330
29815
100
AcDbEntity
  8
0
100
AcDbSpline
210
0.0
220
0.0
230
1.0
 70
     8
 71
     3
 72
    12
 73
     8
 74
     0
 42
0.000000001
 43
0.0000000001
 40
0.0
 40
0.0
 40
0.0
 40
0.0
 40
0.0034392354417438
 40
0.0034392354417438
 40
0.006413693922758
 40
0.006413693922758
 40
0.0082335130258754
 40
0.0082335130258754
 40
0.0082335130258754
 40
0.0082335130258754
 10
57.4999489266121
 20
20.47999999913736
 30
0.0
 10
57.49993669881643
 20
20.48948945966682
 30
0.0
 10
57.49992477166274
 20
20.4981052093467
 30
0.0
 10
57.49990546489939
 20
20.51025377134187
 30
0.0
 10
57.49989752729977
 20
20.51444362549331
 30
0.0
 10
57.49989013718745
 20
20.51801211525951
 30
0.0
 10
57.49988854558548
 20
20.51867506291443
 30
0.0
 10
57.49988854558759
 20
20.51867506202728
 30
0.0
  0
SPLINE
  5
2981F
330
29815
100
AcDbEntity
  8
0
100
AcDbSpline
210
0.0
220
0.0
230
1.0
 70
     8
 71
     3
 72
    10
 73
     6
 74
     0
 42
0.000000001
 43
0.0000000001
 40
0.0156910365990732
 40
0.0156910365990732
 40
0.0156910365990732
 40
0.0156910365990732
 40
0.016944593710709
 40
0.016944593710709
 40
0.01751139955475
 40
0.01751139955475
 40
0.01751139955475
 40
0.01751139955475
 10
59.50000000000002
 20
20.49674984247829
 30
0.0
 10
59.50002403353771
 20
20.49290876747576
 30
0.0
 10
59.50005145649144
 20
20.48905309217821
 30
0.0
 10
59.50009524178743
 20
20.48347139317072
 30
0.0
 10
59.50010943730102
 20
20.48173522533223
 30
0.0
 10
59.50012413304996
 20
20.48000322760845
 30
0.0
  0
SPLINE
  5
29820
330
29815
100
AcDbEntity
  8
0
100
AcDbSpline
210
0.0
220
0.0
230
1.0
 70
     8
 71
     3
 72
    14
 73
    10
 74
     0
 42
0.000000001
 43
0.0000000001
 40
0.0126427122905612
 40
0.0126427122905612
 40
0.0126427122905612
 40
0.0126427122905612
 40
0.0127966412989309
 40
0.0127966412989309
 40
0.0130268138432454
 40
0.0130268138432454
 40
0.0131131281636317
 40
0.0131131281636317
 40
0.0131778638802561
 40
0.0131778638802561
 40
0.0131778638802561
 40
0.0131778638802561
 10
59.49999999999995
 20
20.48232313940559
 30
0.0
 10
59.50000401115994
 20
20.48210089562035
 30
0.0
 10
59.50000801918669
 20
20.48187951405273
 30
0.0
 10
59.50001800717884
 20
20.48132951031391
 30
0.0
 10
59.50002398062078
 20
20.48100208032563
 30
0.0
 10
59.50003216736536
 20
20.48055532309817
 30
0.0
 10
59.50003439737812
 20
20.48043383394724
 30
0.0
 10
59.50003829441179
 20
20.48022187929206
 30
0.0
 10
59.50003996280681
 20
20.4801312508365
 30
0.0
 10
59.50004162926647
 20
20.48004083958653
 30
0.0
  0
SPLINE
  5
29821
330
29815
100
AcDbEntity
  8
0
100
AcDbSpline
210
0.0
220
0.0
230
1.0
 70
     8
 71
     3
 72
     8
 73
     4
 74
     0
 42
0.000000001
 43
0.0000000001
 40
0.0055426499037273
 40
0.0055426499037273
 40
0.0055426499037273
 40
0.0055426499037273
 40
0.0057998794373824
 40
0.0057998794373824
 40
0.0057998794373824
 40
0.0057998794373824
 10
59.4999999996071
 20
20.48018389354488
 30
0.0
 10
59.50000162197163
 20
20.48012009070836
 30
0.0
 10
59.50000318269693
 20
20.48005886051375
 30
0.0
 10
59.50000468268313
 20
20.4800001230554
 30
0.0
  0
SPLINE
  5
29822
330
29815
100
AcDbEntity
  8
0
100
AcDbSpline
210
0.0
220
0.0
230
1.0
 70
     8
 71
     3
 72
    11
 73
     7
 74
     0
 42
0.000000001
 43
0.0000000001
 40
-0.9986962150672761
 40
-0.9986962150672761
 40
-0.9986962150672761
 40
-0.9986962150672761
 40
-0.3390351070332902
 40
-0.3390351070332902
 40
-0.3390351070332902
 40
0.0
 40
0.0
 40
0.0
 40
0.0
 10
-59.50000469914209
 20
20.48477084958522
 30
0.0
 10
-59.50160260451738
 20
21.28924511243248
 30
0.0
 10
-59.91056142021786
 20
22.02119533094615
 30
0.0
 10
-60.53132982762324
 20
22.48476209974449
 30
0.0
 10
-60.85037589670986
 20
22.72301384319656
 30
0.0
 10
-61.22934079934893
 20
22.88726839694315
 30
0.0
 10
-61.63175911206863
 20
22.9625106067675
 30
0.0
  0
LINE
  5
29823
330
29815
100
AcDbEntity
  8
0
100
AcDbLine
 10
-61.5
 20
22.96251060667355
 30
0.0
 11
-59.50000000000002
 21
22.96251060667355
 31
0.0
  0
SPLINE
  5
29824
330
29815
100
AcDbEntity
  8
0
100
AcDbSpline
210
0.0
220
0.0
230
1.0
 70
     8
 71
     3
 72
    36
 73
    32
 74
     0
 42
0.000000001
 43
0.0000000001
 40
0.0038131203508947
 40
0.0038131203508947
 40
0.0038131203508947
 40
0.0038131203508947
 40
0.0383813888070169
 40
0.0383813888070169
 40
0.0963711695200126
 40
0.0963711695200126
 40
0.1739469343477594
 40
0.1739469343477594
 40
0.1833098057390468
 40
0.1833098057390468
 40
0.2114144014778368
 40
0.2114144014778368
 40
0.2300854360518977
 40
0.2300854360518977
 40
0.2369059050044383
 40
0.2369059050044383
 40
0.2417208618257422
 40
0.2417208618257422
 40
0.2462303754111502
 40
0.2462303754111502
 40
0.2484509868045875
 40
0.2484509868045875
 40
0.2513527212885005
 40
0.2513527212885005
 40
0.2539147609442716
 40
0.2539147609442716
 40
0.2571660246504119
 40
0.2571660246504119
 40
0.2623925004931364
 40
0.2623925004931364
 40
0.2691737900195989
 40
0.2691737900195989
 40
0.2691737900195989
 40
0.2691737900195989
 10
-57.50000959943989
 20
22.7318543285418
 30
0.0
 10
-57.5000095994403
 20
22.61712737324796
 30
0.0
 10
-57.49998219075522
 20
22.5026909709725
 30
0.0
 10
-57.49974281208084
 20
22.19942474724739
 30
0.0
 10
-57.49935081065673
 20
22.01262090458612
 30
0.0
 10
-57.49739147480731
 20
21.6008102196802
 30
0.0
 10
-57.4954061671271
 20
21.37761421638906
 30
0.0
 10
-57.4947089108705
 20
21.15156037134657
 30
0.0
 10
-57.4946534385219
 20
21.12751553234719
 30
0.0
 10
-57.49451944460999
 20
21.03263106693967
 30
0.0
 10
-57.49461382535347
 20
20.96475214639667
 30
0.0
 10
-57.49518729040914
 20
20.85236116337558
 30
0.0
 10
-57.49552326067322
 20
20.80773239180186
 30
0.0
 10
-57.49621172986618
 20
20.74223577932777
 30
0.0
 10
-57.49641950217618
 20
20.72419014080065
 30
0.0
 10
-57.49682865546014
 20
20.69168968183337
 30
0.0
 10
-57.49701510914689
 20
20.67765695471341
 30
0.0
 10
-57.49741449791255
 20
20.64909278201641
 30
0.0
 10
-57.49762987633953
 20
20.63432909303725
 30
0.0
 10
-57.49796673182071
 20
20.6119717067153
 30
0.0
 10
-57.49808155710093
 20
20.60446026336271
 30
0.0
 10
-57.49834142730996
 20
20.58762268977723
 30
0.0
 10
-57.49848795717813
 20
20.57824814153815
 30
0.0
 10
-57.4987349661087
 20
20.56249700332657
 30
0.0
 10
-57.49884158434103
 20
20.5557199687222
 30
0.0
 10
-57.49905854820029
 20
20.54190685649054
 30
0.0
 10
-57.49916467861474
 20
20.53513363280313
 30
0.0
 10
-57.49941135342574
 20
20.51930120955237
 30
0.0
 10
-57.49953654027489
 20
20.51116780916345
 30
0.0
 10
-57.49977858882077
 20
20.49523073770017
 30
0.0
 10
-57.49988336335602
 20
20.48812173494762
 30
0.0
 10
-57.4999466739836
 20
20.48376919985738
 30
0.0
  0
SPLINE
  5
29825
330
29815
100
AcDbEntity
  8
0
100
AcDbSpline
210
0.0
220
0.0
230
1.0
 70
     8
 71
     3
 72
     8
 73
     4
 74
     0
 42
0.000000001
 43
0.0000000001
 40
0.0200144737989913
 40
0.0200144737989913
 40
0.0200144737989913
 40
0.0200144737989913
 40
0.0210655283393998
 40
0.0210655283393998
 40
0.0210655283393998
 40
0.0210655283393998
 10
-57.49965720240838
 20
20.48878661785225
 30
0.0
 10
-57.49965440488098
 20
20.48591214461488
 30
0.0
 10
-57.49965151448854
 20
20.4829785776109
 30
0.0
 10
-57.49964857936078
 20
20.48000074770813
 30
0.0
  0
SPLINE
  5
29826
330
29815
100
AcDbEntity
  8
0
100
AcDbSpline
210
0.0
220
0.0
230
1.0
 70
     8
 71
     3
 72
    16
 73
    12
 74
     0
 42
0.000000001
 43
0.0000000001
 40
0.0331352269229483
 40
0.0331352269229483
 40
0.0331352269229483
 40
0.0331352269229483
 40
0.0346788846703421
 40
0.0346788846703421
 40
0.0377805265204753
 40
0.0377805265204753
 40
0.0397725993782458
 40
0.0397725993782458
 40
0.0428643095205552
 40
0.0428643095205552
 40
0.0441692737256496
 40
0.0441692737256496
 40
0.0441692737256496
 40
0.0441692737256496
 10
-57.49884610324712
 20
20.55543016884719
 30
0.0
 10
-57.49886773138266
 20
20.55373646436194
 30
0.0
 10
-57.49889185337699
 20
20.55183486921587
 30
0.0
 10
-57.49897267184485
 20
20.54541536415153
 30
0.0
 10
-57.49903867324876
 20
20.54011397058444
 30
0.0
 10
-57.49916916380962
 20
20.52948846899615
 30
0.0
 10
-57.49922628719115
 20
20.52480689683847
 30
0.0
 10
-57.49938501137759
 20
20.51169666209332
 30
0.0
 10
-57.49949623643977
 20
20.50241761868956
 30
0.0
 10
-57.49966039164232
 20
20.48852318205639
 30
0.0
 10
-57.49971031159595
 20
20.48427526050031
 30
0.0
 10
-57.49976031303056
 20
20.47999718512069
 30
0.0
  0
SPLINE
  5
29827
330
29815
100
AcDbEntity
  8
0
100
AcDbSpline
210
0.0
220
0.0
230
1.0
 70
     8
 71
     3
 72
    14
 73
    10
 74
     0
 42
0.000000001
 43
0.0000000001
 40
0.0155647707347263
 40
0.0155647707347263
 40
0.0155647707347263
 40
0.0155647707347263
 40
0.0156837190935762
 40
0.0156837190935762
 40
0.0197622414322145
 40
0.0197622414322145
 40
0.0217708570596176
 40
0.0217708570596176
 40
0.0248717587538664
 40
0.0248717587538664
 40
0.0248717587538664
 40
0.0248717587538664
 10
-57.49988726187715
 20
20.51436016856522
 30
0.0
 10
-57.49988726187716
 20
20.51436016856433
 30
0.0
 10
-57.49988726626394
 20
20.51435866479281
 30
0.0
 10
-57.49988757556653
 20
20.51425180822538
 30
0.0
 10
-57.49989326869854
 20
20.51228482715771
 30
0.0
 10
-57.49990741780792
 20
20.50570490487584
 30
0.0
 10
-57.4999130125656
 20
20.50292931124327
 30
0.0
 10
-57.49992891299182
 20
20.49439524704603
 30
0.0
 10
-57.49994026628519
 20
20.48769969092032
 30
0.0
 10
-57.49995288466358
 20
20.48000001324563
 30
0.0
  0
SPLINE
  5
29828
330
29815
100
AcDbEntity
  8
0
100
AcDbSpline
210
0.0
220
0.0
230
1.0
 70
     8
 71
     3
 72
    10
 73
     6
 74
     0
 42
0.000000001
 43
0.0000000001
 40
0.0
 40
0.0
 40
0.0
 40
0.0
 40
0.0019468391112811
 40
0.0019468391112811
 40
0.0023990687976614
 40
0.0023990687976614
 40
0.0023990687976614
 40
0.0023990687976614
 10
-59.50005163063497
 20
20.48000012475113
 30
0.0
 10
-59.50003469406954
 20
20.48499395631426
 30
0.0
 10
-59.50001896988799
 20
20.49025747016756
 30
0.0
 10
-59.50000471805894
 20
20.49652791552071
 30
0.0
 10
-59.50000237961517
 20
20.49771240455708
 30
0.0
 10
-59.50000014492784
 20
20.49888127352304
 30
0.0
  0
SPLINE
  5
29829
330
29815
100
AcDbEntity
  8
0
100
AcDbSpline
210
0.0
220
0.0
230
1.0
 70
     8
 71
     3
 72
     8
 73
     4
 74
     0
 42
0.000000001
 43
0.0000000001
 40
0.0
 40
0.0
 40
0.0
 40
0.0
 40
0.0008308165075029
 40
0.0008308165075029
 40
0.0008308165075029
 40
0.0008308165075029
 10
-59.50001111728539
 20
20.48000004580833
 30
0.0
 10
-59.50000761771022
 20
20.48107381488833
 30
0.0
 10
-59.50000367795434
 20
20.48233280314806
 30
0.0
 10
-59.49999977493003
 20
20.48359758414736
 30
0.0
  0
SPLINE
  5
2982A
330
29815
100
AcDbEntity
  8
0
100
AcDbSpline
210
0.0
220
0.0
230
1.0
 70
     8
 71
     3
 72
    10
 73
     6
 74
     0
 42
0.000000001
 43
0.0000000001
 40
0.0232532767244211
 40
0.0232532767244211
 40
0.0232532767244211
 40
0.0232532767244211
 40
0.0252496248021799
 40
0.0252496248021799
 40
0.0256532772347384
 40
0.0256532772347384
 40
0.0256532772347384
 40
0.0256532772347384
 10
-61.60911031005255
 20
22.95839589055223
 30
0.0
 10
-61.61537013290935
 20
22.9594971568556
 30
0.0
 10
-61.62167850237182
 20
22.96060329663711
 30
0.0
 10
-61.6292406748526
 20
22.96192671507562
 30
0.0
 10
-61.63051241002893
 20
22.96214918794652
 30
0.0
 10
-61.63178372212448
 20
22.96237151110319
 30
0.0
  0
ARC
  5
2982B
330
29815
100
AcDbEntity
  8
0
100
AcDbCircle
 10
-55.5
 20
2.0
 30
0.0
 40
4.000000000000003
100
AcDbArc
 50
180.0
 51
270.0
  0
ARC
  5
2982C
330
29815
100
AcDbEntity
  8
0
100
AcDbCircle
 10
-55.5
 20
2.0
 30
0.0
 40
2.000000000000001
100
AcDbArc
 50
180.0
 51
270.0
  0
ARC
  5
2982D
330
29815
100
AcDbEntity
  8
0
100
AcDbCircle
 10
55.5
 20
2.0
 30
0.0
 40
4.000000000000003
100
AcDbArc
 50
270.0
 51
0.0
  0
LINE
  5
2982E
330
29815
100
AcDbEntity
  8
0
100
AcDbLine
 10
61.6317591116654
 20
22.96251060667355
 30
0.0
 11
89.17995039702379
 21
27.82000000000004
 31
0.0
  0
LINE
  5
2982F
330
29815
100
AcDbEntity
  8
0
100
AcDbLine
 10
89.17995039702379
 20
27.82000000000004
 30
0.0
 11
99.00000000000005
 21
36.05999999999998
 31
0.0
  0
LINE
  5
29830
330
29815
100
AcDbEntity
  8
0
100
AcDbLine
 10
57.5
 20
27.82000000000004
 30
0.0
 11
57.50000000000001
 21
36.05999999999998
 31
0.0
  0
LINE
  5
29831
330
29815
100
AcDbEntity
  8
0
100
AcDbLine
 10
59.5
 20
27.82000000000004
 30
0.0
 11
57.5
 21
27.82000000000004
 31
0.0
  0
LINE
  5
29832
330
29815
100
AcDbEntity
  8
0
100
AcDbLine
 10
59.5
 20
36.05999999999998
 30
0.0
 11
59.5
 21
27.82000000000004
 31
0.0
  0
LINE
  5
29833
330
29815
100
AcDbEntity
  8
0
100
AcDbLine
 10
59.5
 20
36.05999999999998
 30
0.0
 11
57.50000000000001
 21
36.05999999999998
 31
0.0
  0
LINE
  5
29834
330
29815
100
AcDbEntity
  8
0
100
AcDbLine
 10
57.5
 20
23.22700107773628
 30
0.0
 11
57.5
 21
27.82000000000004
 31
0.0
  0
LINE
  5
29835
330
29815
100
AcDbEntity
  8
0
100
AcDbLine
 10
59.5
 20
27.82000000000004
 30
0.0
 11
59.49999999999999
 21
23.22700107773628
 31
0.0
  0
LINE
  5
29836
330
29815
100
AcDbEntity
  8
0
100
AcDbLine
 10
57.5
 20
23.22700107773629
 30
0.0
 11
57.5
 21
18.30296231267525
 31
0.0
  0
LINE
  5
29837
330
29815
100
AcDbEntity
  8
0
100
AcDbLine
 10
59.50000000000001
 20
18.30296231267525
 30
0.0
 11
59.50000000000001
 21
23.22700107773629
 31
0.0
  0
LINE
  5
29838
330
29815
100
AcDbEntity
  8
0
100
AcDbLine
 10
57.50000000000001
 20
36.05999999999998
 30
0.0
 11
57.50000000000001
 21
192.5
 31
0.0
  0
LINE
  5
29839
330
29815
100
AcDbEntity
  8
0
100
AcDbLine
 10
59.5
 20
192.5
 30
0.0
 11
59.5
 21
36.05999999999998
 31
0.0
  0
LINE
  5
2983A
330
29815
100
AcDbEntity
  8
0
100
AcDbLine
 10
57.50000000000001
 20
192.5
 30
0.0
 11
59.5
 21
192.5
 31
0.0
  0
LINE
  5
2983B
330
29815
100
AcDbEntity
  8
0
100
AcDbLine
 10
99.00000000000005
 20
36.05999999999998
 30
0.0
 11
99.0
 21
192.5
 31
0.0
  0
LINE
  5
2983C
330
29815
100
AcDbEntity
  8
0
100
AcDbLine
 10
59.49999999999999
 20
18.30296231267525
 30
0.0
 11
59.5
 21
1.999999999999999
 31
0.0
  0
LINE
  5
2983D
330
29815
100
AcDbEntity
  8
0
100
AcDbLine
 10
57.49999999999999
 20
2.0
 30
0.0
 11
57.5
 21
18.30296231267525
 31
0.0
  0
ARC
  5
2983E
330
29815
100
AcDbEntity
  8
0
100
AcDbCircle
 10
55.5
 20
2.0
 30
0.0
 40
2.000000000000001
100
AcDbArc
 50
270.0
 51
0.0
  0
LINE
  5
2983F
330
29815
100
AcDbEntity
  8
0
100
AcDbLine
 10
61.5
 20
192.5
 30
0.0
 11
59.5
 21
192.5
 31
0.0
  0
LINE
  5
29840
330
29815
100
AcDbEntity
  8
0
100
AcDbLine
 10
99.0
 20
192.5
 30
0.0
 11
61.5
 21
192.5
 31
0.0
  0
CIRCLE
  5
29841
330
29815
100
AcDbEntity
  8
0
100
AcDbCircle
 10
79.5
 20
172.5
 30
0.0
 40
6.5
  0
CIRCLE
  5
29842
330
29815
100
AcDbEntity
  8
0
100
AcDbCircle
 10
90.5
 20
177.5
 30
0.0
 40
2.5
  0
CIRCLE
  5
29843
330
29815
100
AcDbEntity
  8
0
100
AcDbCircle
 10
-79.5
 20
42.5
 30
0.0
 40
6.5
  0
CIRCLE
  5
29844
330
29815
100
AcDbEntity
  8
0
100
AcDbCircle
 10
79.5
 20
42.5
 30
0.0
 40
6.5
  0
CIRCLE
  5
29845
330
29815
100
AcDbEntity
  8
0
100
AcDbCircle
 10
-79.5
 20
112.5
 30
0.0
 40
6.5
  0
CIRCLE
  5
29846
330
29815
100
AcDbEntity
  8
0
100
AcDbCircle
 10
79.5
 20
112.5
 30
0.0
 40
6.5
  0
CIRCLE
  5
29847
330
29815
100
AcDbEntity
  8
0
100
AcDbCircle
 10
-79.5
 20
172.5
 30
0.0
 40
6.5
  0
CIRCLE
  5
29848
330
29815
100
AcDbEntity
  8
0
100
AcDbCircle
 10
-68.50000000000001
 20
47.5
 30
0.0
 40
2.5
  0
CIRCLE
  5
29849
330
29815
100
AcDbEntity
  8
0
100
AcDbCircle
 10
-68.50000000000001
 20
67.5
 30
0.0
 40
2.5
  0
CIRCLE
  5
2984A
330
29815
100
AcDbEntity
  8
0
100
AcDbCircle
 10
-68.50000000000001
 20
87.5
 30
0.0
 40
2.5
  0
CIRCLE
  5
2984B
330
29815
100
AcDbEntity
  8
0
100
AcDbCircle
 10
-68.50000000000001
 20
107.5
 30
0.0
 40
2.5
  0
CIRCLE
  5
2984C
330
29815
100
AcDbEntity
  8
0
100
AcDbCircle
 10
-68.50000000000001
 20
127.5
 30
0.0
 40
2.5
  0
CIRCLE
  5
2984D
330
29815
100
AcDbEntity
  8
0
100
AcDbCircle
 10
-68.50000000000001
 20
147.5
 30
0.0
 40
2.5
  0
CIRCLE
  5
2984E
330
29815
100
AcDbEntity
  8
0
100
AcDbCircle
 10
-68.50000000000001
 20
167.5
 30
0.0
 40
2.5
  0
CIRCLE
  5
2984F
330
29815
100
AcDbEntity
  8
0
100
AcDbCircle
 10
68.50000000000001
 20
47.5
 30
0.0
 40
2.5
  0
CIRCLE
  5
29850
330
29815
100
AcDbEntity
  8
0
100
AcDbCircle
 10
68.50000000000001
 20
67.5
 30
0.0
 40
2.5
  0
CIRCLE
  5
29851
330
29815
100
AcDbEntity
  8
0
100
AcDbCircle
 10
68.50000000000001
 20
87.5
 30
0.0
 40
2.5
  0
CIRCLE
  5
29852
330
29815
100
AcDbEntity
  8
0
100
AcDbCircle
 10
68.50000000000001
 20
107.5
 30
0.0
 40
2.5
  0
CIRCLE
  5
29853
330
29815
100
AcDbEntity
  8
0
100
AcDbCircle
 10
68.50000000000001
 20
127.5
 30
0.0
 40
2.5
  0
CIRCLE
  5
29854
330
29815
100
AcDbEntity
  8
0
100
AcDbCircle
 10
68.50000000000001
 20
147.5
 30
0.0
 40
2.5
  0
CIRCLE
  5
29855
330
29815
100
AcDbEntity
  8
0
100
AcDbCircle
 10
68.50000000000001
 20
167.5
 30
0.0
 40
2.5
  0
CIRCLE
  5
29856
330
29815
100
AcDbEntity
  8
0
100
AcDbCircle
 10
-68.50000000000001
 20
187.5
 30
0.0
 40
2.5
  0
CIRCLE
  5
29857
330
29815
100
AcDbEntity
  8
0
100
AcDbCircle
 10
68.50000000000001
 20
187.5
 30
0.0
 40
2.5
  0
CIRCLE
  5
29858
330
29815
100
AcDbEntity
  8
0
100
AcDbCircle
 10
-90.5
 20
37.5
 30
0.0
 40
2.5
  0
CIRCLE
  5
29859
330
29815
100
AcDbEntity
  8
0
100
AcDbCircle
 10
-90.5
 20
57.5
 30
0.0
 40
2.5
  0
CIRCLE
  5
2985A
330
29815
100
AcDbEntity
  8
0
100
AcDbCircle
 10
-90.5
 20
77.5
 30
0.0
 40
2.5
  0
CIRCLE
  5
2985B
330
29815
100
AcDbEntity
  8
0
100
AcDbCircle
 10
-90.5
 20
97.5
 30
0.0
 40
2.5
  0
CIRCLE
  5
2985C
330
29815
100
AcDbEntity
  8
0
100
AcDbCircle
 10
-90.5
 20
117.5
 30
0.0
 40
2.5
  0
CIRCLE
  5
2985D
330
29815
100
AcDbEntity
  8
0
100
AcDbCircle
 10
-90.5
 20
137.5
 30
0.0
 40
2.5
  0
CIRCLE
  5
2985E
330
29815
100
AcDbEntity
  8
0
100
AcDbCircle
 10
-90.5
 20
157.5
 30
0.0
 40
2.5
  0
CIRCLE
  5
2985F
330
29815
100
AcDbEntity
  8
0
100
AcDbCircle
 10
90.5
 20
37.5
 30
0.0
 40
2.5
  0
CIRCLE
  5
29860
330
29815
100
AcDbEntity
  8
0
100
AcDbCircle
 10
90.5
 20
57.5
 30
0.0
 40
2.5
  0
CIRCLE
  5
29861
330
29815
100
AcDbEntity
  8
0
100
AcDbCircle
 10
90.5
 20
77.5
 30
0.0
 40
2.5
  0
CIRCLE
  5
29862
330
29815
100
AcDbEntity
  8
0
100
AcDbCircle
 10
90.5
 20
97.5
 30
0.0
 40
2.5
  0
CIRCLE
  5
29863
330
29815
100
AcDbEntity
  8
0
100
AcDbCircle
 10
90.5
 20
117.5
 30
0.0
 40
2.5
  0
CIRCLE
  5
29864
330
29815
100
AcDbEntity
  8
0
100
AcDbCircle
 10
90.5
 20
137.5
 30
0.0
 40
2.5
  0
CIRCLE
  5
29865
330
29815
100
AcDbEntity
  8
0
100
AcDbCircle
 10
90.5
 20
157.5
 30
0.0
 40
2.5
  0
CIRCLE
  5
29866
330
29815
100
AcDbEntity
  8
0
100
AcDbCircle
 10
-90.5
 20
177.5
 30
0.0
 40
2.5
  0
LINE
  5
29867
330
29815
100
AcDbEntity
  8
0
100
AcDbLine
 10
-99.0
 20
192.5
 30
0.0
 11
-61.5
 21
192.5
 31
0.0
  0
LINE
  5
29868
330
29815
100
AcDbEntity
  8
0
100
AcDbLine
 10
-99.00000000000005
 20
36.05999999999998
 30
0.0
 11
-99.0
 21
192.5
 31
0.0
  0
LINE
  5
29869
330
29815
100
AcDbEntity
  8
0
100
AcDbLine
 10
-59.49999999999999
 20
18.30296231267525
 30
0.0
 11
-59.5
 21
1.999999999999999
 31
0.0
  0
LINE
  5
2986A
330
29815
100
AcDbEntity
  8
0
100
AcDbLine
 10
-57.49999999999999
 20
2.0
 30
0.0
 11
-57.5
 21
18.30296231267525
 31
0.0
  0
LINE
  5
2986B
330
29815
100
AcDbEntity
  8
0
100
AcDbLine
 10
-99.00000000000005
 20
36.05999999999998
 30
0.0
 11
-89.17995039702379
 21
27.82000000000004
 31
0.0
  0
LINE
  5
2986C
330
29815
100
AcDbEntity
  8
0
100
AcDbLine
 10
-89.17995039702379
 20
27.82000000000004
 30
0.0
 11
-61.6317591116654
 21
22.96251060667355
 31
0.0
  0
LINE
  5
2986D
330
29815
100
AcDbEntity
  8
0
100
AcDbLine
 10
-57.50000000000001
 20
36.05999999999998
 30
0.0
 11
-57.5
 21
27.82000000000004
 31
0.0
  0
LINE
  5
2986E
330
29815
100
AcDbEntity
  8
0
100
AcDbLine
 10
-59.5
 20
36.05999999999998
 30
0.0
 11
-57.50000000000001
 21
36.05999999999998
 31
0.0
  0
LINE
  5
2986F
330
29815
100
AcDbEntity
  8
0
100
AcDbLine
 10
-59.5
 20
27.82000000000004
 30
0.0
 11
-59.5
 21
36.05999999999998
 31
0.0
  0
LINE
  5
29870
330
29815
100
AcDbEntity
  8
0
100
AcDbLine
 10
-59.5
 20
27.82000000000004
 30
0.0
 11
-57.5
 21
27.82000000000004
 31
0.0
  0
LINE
  5
29871
330
29815
100
AcDbEntity
  8
0
100
AcDbLine
 10
-57.5
 20
27.82000000000004
 30
0.0
 11
-57.5
 21
23.22700107773628
 31
0.0
  0
LINE
  5
29872
330
29815
100
AcDbEntity
  8
0
100
AcDbLine
 10
-59.49999999999999
 20
23.22700107773628
 30
0.0
 11
-59.5
 21
27.82000000000004
 31
0.0
  0
LINE
  5
29873
330
29815
100
AcDbEntity
  8
0
100
AcDbLine
 10
-57.5
 20
18.30296231267525
 30
0.0
 11
-57.5
 21
23.22700107773629
 31
0.0
  0
LINE
  5
29874
330
29815
100
AcDbEntity
  8
0
100
AcDbLine
 10
-59.50000000000001
 20
23.22700107773629
 30
0.0
 11
-59.50000000000001
 21
18.30296231267525
 31
0.0
  0
LINE
  5
29875
330
29815
100
AcDbEntity
  8
0
100
AcDbLine
 10
-57.50000000000001
 20
192.5
 30
0.0
 11
-57.50000000000001
 21
36.05999999999998
 31
0.0
  0
LINE
  5
29876
330
29815
100
AcDbEntity
  8
0
100
AcDbLine
 10
-59.5
 20
192.5
 30
0.0
 11
-57.50000000000001
 21
192.5
 31
0.0
  0
LINE
  5
29877
330
29815
100
AcDbEntity
  8
0
100
AcDbLine
 10
-59.5
 20
36.05999999999998
 30
0.0
 11
-59.5
 21
192.5
 31
0.0
  0
LINE
  5
29878
330
29815
100
AcDbEntity
  8
0
100
AcDbLine
 10
-61.5
 20
192.5
 30
0.0
 11
-59.5
 21
192.5
 31
0.0
  0
LINE
  5
29879
330
29815
100
AcDbEntity
  8
0
100
AcDbLine
 10
-55.5
 20
0.0
 30
0.0
 11
55.49999999999998
 21
0.0
 31
0.0
  0
LINE
  5
2987A
330
29815
100
AcDbEntity
  8
0
100
AcDbLine
 10
55.49999999999998
 20
-2.0
 30
0.0
 11
-55.5
 21
-2.000000000000003
 31
0.0
  0
ENDBLK
  5
29817
330
29815
100
AcDbEntity
  8
0
100
AcDbBlockEnd
  0
BLOCK
  5
2987C
330
2987B
100
AcDbEntity
  8
0
100
AcDbBlockBegin
  2
SAEL500_115_2-Left
 70
     0
 10
0.0
 20
0.0
 30
0.0
  3
SAEL500_115_2-Left
  1

  0
SPLINE
  5
2987E
330
2987B
100
AcDbEntity
  8
0
100
AcDbSpline
210
0.0
220
0.0
230
1.0
 70
     8
 71
     3
 72
    11
 73
     7
 74
     0
 42
0.000000001
 43
0.0000000001
 40
0.0
 40
0.0
 40
0.0
 40
0.0
 40
0.2630945546998902
 40
0.2630945546998902
 40
0.2630945546998902
 40
0.3972400822853543
 40
0.3972400822853543
 40
0.3972400822853543
 40
0.3972400822853543
 10
0.0000000000000375
 20
22.96251060667357
 30
0.0
 10
0.0000028677165798
 20
22.88069514173848
 30
0.0
 10
0.1353978453870579
 20
22.81746038279569
 30
0.0
 10
0.3412741587746257
 20
22.73491903391712
 30
0.0
 10
0.4462454939215222
 20
22.69283320357539
 30
0.0
 10
0.5677281833388178
 20
22.64503122422731
 30
0.0
 10
0.6963018294416232
 20
22.58521696156691
 30
0.0
  0
SPLINE
  5
2987F
330
2987B
100
AcDbEntity
  8
0
100
AcDbSpline
210
0.0
220
0.0
230
1.0
 70
     8
 71
     3
 72
    11
 73
     7
 74
     0
 42
0.000000001
 43
0.0000000001
 40
0.6188797066441463
 40
0.6188797066441463
 40
0.6188797066441463
 40
0.6188797066441463
 40
0.6652191719024696
 40
0.6652191719024696
 40
0.6652191719024696
 40
0.7872173740656296
 40
0.7872173740656296
 40
0.7872173740656296
 40
0.7872173740656296
 10
1.349185177583248
 20
22.16196171573721
 30
0.0
 10
1.392810663140017
 20
22.12165001719796
 30
0.0
 10
1.43542497825276
 20
22.07866354122774
 30
0.0
 10
1.47663979940438
 20
22.03274275132655
 30
0.0
 10
1.585146318738256
 20
21.91184679841412
 30
0.0
 10
1.684106522780479
 20
21.77059179181441
 30
0.0
 10
1.766114387125374
 20
21.60417322257856
 30
0.0
  0
LINE
  5
29880
330
2987B
100
AcDbEntity
  8
0
100
AcDbLine
 10
1.538368177314455
 20
22.96251060667355
 30
0.0
 11
1.383941423833896
 21
22.96251060667355
 31
0.0
  0
LINE
  5
29881
330
2987B
100
AcDbEntity
  8
0
100
AcDbLine
 10
1.844810131990404
 20
22.96251060667355
 30
0.0
 11
1.690952694433288
 21
22.96251060667355
 31
0.0
  0
LINE
  5
29882
330
2987B
100
AcDbEntity
  8
0
100
AcDbLine
 10
0.1517362810141914
 20
22.96251060667355
 30
0.0
 11
0.0
 21
22.96251060667355
 31
0.0
  0
SPLINE
  5
29883
330
2987B
100
AcDbEntity
  8
0
100
AcDbSpline
210
0.0
220
0.0
230
1.0
 70
     8
 71
     3
 72
    14
 73
    10
 74
     0
 42
0.000000001
 43
0.0000000001
 40
0.0
 40
0.0
 40
0.0
 40
0.0
 40
0.389439659839798
 40
0.389439659839798
 40
0.389439659839798
 40
0.7616502545753353
 40
0.7616502545753353
 40
0.7616502545753353
 40
0.7796363604319123
 40
0.7796363604319123
 40
0.7796363604319123
 40
0.7796363604319123
 10
0.0000000000000446
 20
22.96251060667356
 30
0.0
 10
0.0000033433566476
 20
22.83776639077728
 30
0.0
 10
0.3049729408362229
 20
22.76547024796241
 30
0.0
 10
0.6743917851270878
 20
22.5954861692
 30
0.0
 10
1.027467298279962
 20
22.43302229719025
 30
0.0
 10
1.439329893829928
 20
22.18674518553122
 30
0.0
 10
1.712905503777076
 20
21.70538682863626
 30
0.0
 10
1.726125331342123
 20
21.68212644195056
 30
0.0
 10
1.738972926384707
 20
21.65845076938206
 30
0.0
 10
1.751430085709989
 20
21.63432463245515
 30
0.0
  0
SPLINE
  5
29884
330
2987B
100
AcDbEntity
  8
0
100
AcDbSpline
210
0.0
220
0.0
230
1.0
 70
     8
 71
     3
 72
    11
 73
     7
 74
     0
 42
0.000000001
 43
0.0000000001
 40
-1.0
 40
-1.0
 40
-1.0
 40
-1.0
 40
-0.3390351070332902
 40
-0.3390351070332902
 40
-0.3390351070332902
 40
0.0
 40
0.0
 40
0.0
 40
0.0
 10
2.000000000000056
 20
20.47999999999996
 30
0.0
 10
2.000833819686765
 20
21.28635074304119
 30
0.0
 10
2.000388046962799
 20
22.02027911599712
 30
0.0
 10
2.000035420164254
 20
22.48476209974449
 30
0.0
 10
1.999854543894335
 20
22.72301384319656
 30
0.0
 10
1.999932245804235
 20
22.88726839694315
 30
0.0
 10
1.999999998863075
 20
22.9625106067675
 30
0.0
  0
SPLINE
  5
29885
330
2987B
100
AcDbEntity
  8
0
100
AcDbSpline
210
0.0
220
0.0
230
1.0
 70
     8
 71
     3
 72
    16
 73
    12
 74
     0
 42
0.000000001
 43
0.0000000001
 40
0.0
 40
0.0
 40
0.0
 40
0.0
 40
0.0049219080269191
 40
0.0049219080269191
 40
0.0069182795941264
 40
0.0069182795941264
 40
0.0084527771685643
 40
0.0084527771685643
 40
0.0110611483561497
 40
0.0110611483561497
 40
0.0118237643900422
 40
0.0118237643900422
 40
0.0118237643900422
 40
0.0118237643900422
 10
1.999592629569327
 20
20.47999883586678
 30
0.0
 10
1.999557424654915
 20
20.49579395043712
 30
0.0
 10
1.999474683935657
 20
20.51126002412615
 30
0.0
 10
1.999316282970717
 20
20.52942511419413
 30
0.0
 10
1.999265630884864
 20
20.53430634275777
 30
0.0
 10
1.999176054615473
 20
20.54188020926571
 30
0.0
 10
1.999136845183681
 20
20.5448453881699
 30
0.0
 10
1.99904091137101
 20
20.55156636849925
 30
0.0
 10
1.998989908995667
 20
20.55450395888803
 30
0.0
 10
1.998965309018663
 20
20.55587119442004
 30
0.0
 10
1.998962341018843
 20
20.55602864704912
 30
0.0
 10
1.998962340999143
 20
20.5560286480958
 30
0.0
  0
SPLINE
  5
29886
330
2987B
100
AcDbEntity
  8
0
100
AcDbSpline
210
0.0
220
0.0
230
1.0
 70
     8
 71
     3
 72
     8
 73
     4
 74
     0
 42
0.000000001
 43
0.0000000001
 40
0.0282109228031997
 40
0.0282109228031997
 40
0.0282109228031997
 40
0.0282109228031997
 40
0.0299002788495813
 40
0.0299002788495813
 40
0.0299002788495813
 40
0.0299002788495813
 10
1.99951355729136
 20
20.50192245369483
 30
0.0
 10
1.999503750282808
 20
20.50232056424059
 30
0.0
 10
1.999498143706521
 20
20.50254454815858
 30
0.0
 10
1.99949814370661
 20
20.50254454815501
 30
0.0
  0
SPLINE
  5
29887
330
2987B
100
AcDbEntity
  8
0
100
AcDbSpline
210
0.0
220
0.0
230
1.0
 70
     8
 71
     3
 72
    38
 73
    34
 74
     0
 42
0.000000001
 43
0.0000000001
 40
0.0076748760644091
 40
0.0076748760644091
 40
0.0076748760644091
 40
0.0076748760644091
 40
0.0089732278214629
 40
0.0089732278214629
 40
0.0103434747418074
 40
0.0103434747418074
 40
0.0116314749925377
 40
0.0116314749925377
 40
0.0135356969823919
 40
0.0135356969823919
 40
0.0155623201104519
 40
0.0155623201104519
 40
0.0190471544721692
 40
0.0190471544721692
 40
0.0263308388381479
 40
0.0263308388381479
 40
0.0421974769125875
 40
0.0421974769125875
 40
0.0755355419967874
 40
0.0755355419967874
 40
0.1153708423181126
 40
0.1153708423181126
 40
0.1357461217590249
 40
0.1357461217590249
 40
0.1465849243516036
 40
0.1465849243516036
 40
0.1497344986155031
 40
0.1497344986155031
 40
0.1520658813452143
 40
0.1520658813452143
 40
0.1534763798095246
 40
0.1534763798095246
 40
0.1543658871994032
 40
0.1543658871994032
 40
0.1543658871994032
 40
0.1543658871994032
 10
1.999516157638741
 20
20.50167899321602
 30
0.0
 10
1.999467702854591
 20
20.50362697393048
 30
0.0
 10
1.999412568555654
 20
20.50577907680498
 30
0.0
 10
1.999286207801464
 20
20.51056517123905
 30
0.0
 10
1.999212061036875
 20
20.51329455940608
 30
0.0
 10
1.999042770652416
 20
20.51926021647238
 30
0.0
 10
1.998948053350974
 20
20.52249194026009
 30
0.0
 10
1.998681279781052
 20
20.53118585351956
 30
0.0
 10
1.998490713905312
 20
20.53706019790707
 30
0.0
 10
1.998057324343586
 20
20.54950910216348
 30
0.0
 10
1.997809212315422
 20
20.55619321567104
 30
0.0
 10
1.997087210432834
 20
20.57439619599691
 30
0.0
 10
1.996574452982071
 20
20.58606930275187
 30
0.0
 10
1.994840403836848
 20
20.62191288400111
 30
0.0
 10
1.993444317430039
 20
20.64610576387222
 30
0.0
 10
1.988336810642829
 20
20.7220069654016
 30
0.0
 10
1.98381642753332
 20
20.77298459844424
 30
0.0
 10
1.966559232009491
 20
20.92808565100987
 30
0.0
 10
1.950143080895783
 20
21.03052297770118
 30
0.0
 10
1.900824763098074
 20
21.25232848607841
 30
0.0
 10
1.864936580342265
 20
21.37168949578889
 30
0.0
 10
1.795231006332429
 20
21.54401536548855
 30
0.0
 10
1.768727841665591
 20
21.60133232767353
 30
0.0
 10
1.726122168065514
 20
21.68287336250822
 30
0.0
 10
1.710511556651397
 20
21.7107572549728
 30
0.0
 10
1.693266980401282
 20
21.74009246359017
 30
0.0
 10
1.689583490695653
 20
21.74625526276558
 30
0.0
 10
1.684239352436305
 20
21.75510425057852
 30
0.0
 10
1.682285464812729
 20
21.75830597618294
 30
0.0
 10
1.680126667351907
 20
21.76182997138988
 30
0.0
 10
1.679529747099021
 20
21.76280030900866
 30
0.0
 10
1.678988712741662
 20
21.76367927047765
 30
0.0
 10
1.678882177588373
 20
21.76385207977952
 30
0.0
 10
1.678882176174814
 20
21.76385208207324
 30
0.0
  0
LINE
  5
29888
330
2987B
100
AcDbEntity
  8
0
100
AcDbLine
 10
2.00000000000006
 20
1.999999999999999
 30
0.0
 11
2.000000000000056
 21
-2.0
 31
0.0
  0
LINE
  5
29889
330
2987B
100
AcDbEntity
  8
0
100
AcDbLine
 10
2.00000000000006
 20
2.0
 30
0.0
 11
2.00000000000006
 21
20.47999999999998
 31
0.0
  0
LINE
  5
2988A
330
2987B
100
AcDbEntity
  8
0
100
AcDbLine
 10
1.999999999999982
 20
-2.0
 30
0.0
 11
86.00000000000001
 21
-2.000000000000003
 31
0.0
  0
LINE
  5
2988B
330
2987B
100
AcDbEntity
  8
0
100
AcDbLine
 10
86.00000000000001
 20
-2.000000000000003
 30
0.0
 11
86.00000000000001
 21
2.0
 31
0.0
  0
LINE
  5
2988C
330
2987B
100
AcDbEntity
  8
0
100
AcDbLine
 10
1.999999999999992
 20
36.05999999999998
 30
0.0
 11
2.000000000000028
 21
192.5
 31
0.0
  0
LINE
  5
2988D
330
2987B
100
AcDbEntity
  8
0
100
AcDbLine
 10
0.0
 20
192.5
 30
0.0
 11
2.000000000000028
 21
192.5
 31
0.0
  0
LINE
  5
2988E
330
2987B
100
AcDbEntity
  8
0
100
AcDbLine
 10
0.0
 20
36.05999999999998
 30
0.0
 11
0.0
 21
192.5
 31
0.0
  0
LINE
  5
2988F
330
2987B
100
AcDbEntity
  8
0
100
AcDbLine
 10
4.000000000000003
 20
192.5
 30
0.0
 11
46.00000000000001
 21
192.5
 31
0.0
  0
LINE
  5
29890
330
2987B
100
AcDbEntity
  8
0
100
AcDbLine
 10
86.00000000000006
 20
18.30296231267525
 30
0.0
 11
86.00000000000001
 21
1.999999999999999
 31
0.0
  0
LINE
  5
29891
330
2987B
100
AcDbEntity
  8
0
100
AcDbLine
 10
1.999999999999992
 20
36.05999999999998
 30
0.0
 11
1.999999999999992
 21
27.82000000000004
 31
0.0
  0
LINE
  5
29892
330
2987B
100
AcDbEntity
  8
0
100
AcDbLine
 10
1.999999999999992
 20
27.82000000000004
 30
0.0
 11
2.000000000000014
 21
22.96251060667355
 31
0.0
  0
LINE
  5
29893
330
2987B
100
AcDbEntity
  8
0
100
AcDbLine
 10
0.0
 20
22.96251060667355
 30
0.0
 11
0.0
 21
27.82000000000004
 31
0.0
  0
LINE
  5
29894
330
2987B
100
AcDbEntity
  8
0
100
AcDbLine
 10
1.999999999999992
 20
27.82000000000004
 30
0.0
 11
0.0
 21
27.82000000000004
 31
0.0
  0
LINE
  5
29895
330
2987B
100
AcDbEntity
  8
0
100
AcDbLine
 10
0.0
 20
27.82000000000004
 30
0.0
 11
0.0
 21
36.05999999999998
 31
0.0
  0
LINE
  5
29896
330
2987B
100
AcDbEntity
  8
0
100
AcDbLine
 10
0.0
 20
36.05999999999998
 30
0.0
 11
1.999999999999992
 21
36.05999999999998
 31
0.0
  0
LINE
  5
29897
330
2987B
100
AcDbEntity
  8
0
100
AcDbLine
 10
55.82004960297631
 20
27.82000000000004
 30
0.0
 11
46.00000000000004
 21
36.05999999999998
 31
0.0
  0
LINE
  5
29898
330
2987B
100
AcDbEntity
  8
0
100
AcDbLine
 10
81.8682408883347
 20
23.22700107773628
 30
0.0
 11
55.82004960297631
 21
27.82000000000004
 31
0.0
  0
ARC
  5
29899
330
2987B
100
AcDbEntity
  8
0
100
AcDbCircle
 10
81.00000000000006
 20
18.30296231267525
 30
0.0
 40
5.0
100
AcDbArc
 50
0.0
 51
80.00000000000003
  0
LINE
  5
2989A
330
2987B
100
AcDbEntity
  8
0
100
AcDbLine
 10
46.00000000000004
 20
36.05999999999998
 30
0.0
 11
46.00000000000001
 21
192.5
 31
0.0
  0
LINE
  5
2989B
330
2987B
100
AcDbEntity
  8
0
100
AcDbLine
 10
2.000000000000002
 20
192.5
 30
0.0
 11
4.000000000000003
 21
192.5
 31
0.0
  0
CIRCLE
  5
2989C
330
2987B
100
AcDbEntity
  8
0
100
AcDbCircle
 10
38.50000000000001
 20
47.5
 30
0.0
 40
2.5
  0
CIRCLE
  5
2989D
330
2987B
100
AcDbEntity
  8
0
100
AcDbCircle
 10
38.50000000000001
 20
67.5
 30
0.0
 40
2.5
  0
CIRCLE
  5
2989E
330
2987B
100
AcDbEntity
  8
0
100
AcDbCircle
 10
38.50000000000001
 20
87.5
 30
0.0
 40
2.5
  0
CIRCLE
  5
2989F
330
2987B
100
AcDbEntity
  8
0
100
AcDbCircle
 10
38.50000000000001
 20
107.5
 30
0.0
 40
2.5
  0
CIRCLE
  5
298A0
330
2987B
100
AcDbEntity
  8
0
100
AcDbCircle
 10
38.50000000000001
 20
127.5
 30
0.0
 40
2.5
  0
CIRCLE
  5
298A1
330
2987B
100
AcDbEntity
  8
0
100
AcDbCircle
 10
38.50000000000001
 20
147.5
 30
0.0
 40
2.5
  0
CIRCLE
  5
298A2
330
2987B
100
AcDbEntity
  8
0
100
AcDbCircle
 10
38.50000000000001
 20
167.5
 30
0.0
 40
2.5
  0
CIRCLE
  5
298A3
330
2987B
100
AcDbEntity
  8
0
100
AcDbCircle
 10
38.50000000000001
 20
187.5
 30
0.0
 40
2.5
  0
ENDBLK
  5
2987D
330
2987B
100
AcDbEntity
  8
0
100
AcDbBlockEnd
  0
BLOCK
  5
298A5
330
298A4
100
AcDbEntity
  8
0
100
AcDbBlockBegin
  2
SAEL500_115_2-Right
 70
     0
 10
0.0
 20
0.0
 30
0.0
  3
SAEL500_115_2-Right
  1

  0
SPLINE
  5
298A7
330
298A4
100
AcDbEntity
  8
0
100
AcDbSpline
210
0.0
220
0.0
230
1.0
 70
     8
 71
     3
 72
    17
 73
    13
 74
     0
 42
0.000000001
 43
0.0000000001
 40
0.0
 40
0.0
 40
0.0
 40
0.0
 40
0.2630945546998902
 40
0.2630945546998902
 40
0.2630945546998902
 40
0.6652191719024696
 40
0.6652191719024696
 40
0.6652191719024696
 40
0.9355086585157005
 40
0.9355086585157005
 40
0.9355086585157005
 40
1.0
 40
1.0
 40
1.0
 40
1.0
 10
-0.0000000000000375
 20
22.96251060667357
 30
0.0
 10
-0.0000028677165798
 20
22.88069514173848
 30
0.0
 10
-0.1353978453870579
 20
22.81746038279569
 30
0.0
 10
-0.3412741587746257
 20
22.73491903391712
 30
0.0
 10
-0.6559440454489796
 20
22.60875941666833
 30
0.0
 10
-1.118985819448476
 20
22.43123418746457
 30
0.0
 10
-1.47663979940438
 20
22.03274275132655
 30
0.0
 10
-1.717038189584905
 20
21.76489532024214
 30
0.0
 10
-1.910578205232946
 20
21.39711486435604
 30
0.0
 10
-1.976719719940589
 20
20.87715260120786
 30
0.0
 10
-1.992501151415219
 20
20.75308908585693
 30
0.0
 10
-1.999065688200496
 20
20.61964286484914
 30
0.0
 10
-1.99999999999993
 20
20.47999999999996
 30
0.0
  0
SPLINE
  5
298A8
330
298A4
100
AcDbEntity
  8
0
100
AcDbSpline
210
0.0
220
0.0
230
1.0
 70
     8
 71
     3
 72
    14
 73
    10
 74
     0
 42
0.000000001
 43
0.0000000001
 40
0.0
 40
0.0
 40
0.0
 40
0.0
 40
0.2870001856672752
 40
0.2870001856672752
 40
0.2870001856672752
 40
0.8282911260917206
 40
0.8282911260917206
 40
0.8282911260917206
 40
1.0
 40
1.0
 40
1.0
 40
1.0
 10
-1.999999999999987
 20
22.96251060667355
 30
0.0
 10
-2.000346318721189
 20
22.89911489184679
 30
0.0
 10
-2.000215842365259
 20
22.77267956156148
 30
0.0
 10
-2.000098106197962
 20
22.58956682452416
 30
0.0
 10
-1.999876052262458
 20
22.24421072169038
 30
0.0
 10
-2.000046339025661
 20
21.71065167248869
 30
0.0
 10
-2.000163544094264
 20
21.09085729644248
 30
0.0
 10
-2.00020072400777
 20
20.89424548121031
 30
0.0
 10
-2.00002672075964
 20
20.68874755673999
 30
0.0
 10
-2.000000000000091
 20
20.47999999999993
 30
0.0
  0
SPLINE
  5
298A9
330
298A4
100
AcDbEntity
  8
0
100
AcDbSpline
210
0.0
220
0.0
230
1.0
 70
     8
 71
     3
 72
     8
 73
     4
 74
     0
 42
0.000000001
 43
0.0000000001
 40
0.3972932997765294
 40
0.3972932997765294
 40
0.3972932997765294
 40
0.3972932997765294
 40
0.6189293334620897
 40
0.6189293334620897
 40
0.6189293334620897
 40
0.6189293334620897
 10
-0.6968181212511924
 20
22.58508884645821
 30
0.0
 10
-0.9084849812897912
 20
22.48620213206184
 30
0.0
 10
-1.139521640095162
 20
22.35646596562645
 30
0.0
 10
-1.348319373681745
 20
22.16394276776286
 30
0.0
  0
SPLINE
  5
298AA
330
298A4
100
AcDbEntity
  8
0
100
AcDbSpline
210
0.0
220
0.0
230
1.0
 70
     8
 71
     3
 72
     8
 73
     4
 74
     0
 42
0.000000001
 43
0.0000000001
 40
0.8191480548207376
 40
0.8191480548207376
 40
0.8191480548207376
 40
0.8191480548207376
 40
0.9812142248994232
 40
0.9812142248994232
 40
0.9812142248994232
 40
0.9812142248994232
 10
-1.827681793749244
 20
21.46842986451201
 30
0.0
 10
-1.923680180871637
 20
21.23167502667799
 30
0.0
 10
-1.984731782005052
 20
20.95207186727018
 30
0.0
 10
-1.997519385883613
 20
20.60388428910324
 30
0.0
  0
SPLINE
  5
298AB
330
298A4
100
AcDbEntity
  8
0
100
AcDbSpline
210
0.0
220
0.0
230
1.0
 70
     8
 71
     3
 72
    10
 73
     6
 74
     0
 42
0.000000001
 43
0.0000000001
 40
0.0224112749320121
 40
0.0224112749320121
 40
0.0224112749320121
 40
0.0224112749320121
 40
0.024147264051461
 40
0.024147264051461
 40
0.0247252408923726
 40
0.0247252408923726
 40
0.0247252408923726
 40
0.0247252408923726
 10
-1.999514408135393
 20
20.50173144888445
 30
0.0
 10
-1.999540945375943
 20
20.49647022957721
 30
0.0
 10
-1.999562490006767
 20
20.49103980352812
 30
0.0
 10
-1.999583769159218
 20
20.48369907268064
 30
0.0
 10
-1.999588495476389
 20
20.48185364712519
 30
0.0
 10
-1.999592629569327
 20
20.47999883586678
 30
0.0
  0
SPLINE
  5
298AC
330
298A4
100
AcDbEntity
  8
0
100
AcDbSpline
210
0.0
220
0.0
230
1.0
 70
     8
 71
     3
 72
    12
 73
     8
 74
     0
 42
0.000000001
 43
0.0000000001
 40
0.0074208292995969
 40
0.0074208292995969
 40
0.0074208292995969
 40
0.0074208292995969
 40
0.0084086786773057
 40
0.0084086786773057
 40
0.0142508098862652
 40
0.0142508098862652
 40
0.0220571907007046
 40
0.0220571907007046
 40
0.0220571907007046
 40
0.0220571907007046
 10
-1.999498143706563
 20
20.5025445481569
 30
0.0
 10
-1.999498143706717
 20
20.50254454815069
 30
0.0
 10
-1.999500080919355
 20
20.50246675223744
 30
0.0
 10
-1.999524651473574
 20
20.50147486114089
 30
0.0
 10
-1.999601204124251
 20
20.49835644052049
 30
0.0
 10
-1.999787162604915
 20
20.49013468777102
 30
0.0
 10
-1.999889387599358
 20
20.4850426841473
 30
0.0
 10
-1.999937592885426
 20
20.48250337735588
 30
0.0
  0
SPLINE
  5
298AD
330
298A4
100
AcDbEntity
  8
0
100
AcDbSpline
210
0.0
220
0.0
230
1.0
 70
     8
 71
     3
 72
     8
 73
     4
 74
     0
 42
0.000000001
 43
0.0000000001
 40
0.033934854049686
 40
0.033934854049686
 40
0.033934854049686
 40
0.033934854049686
 40
0.036248545644032
 40
0.036248545644032
 40
0.036248545644032
 40
0.036248545644032
 10
-1.999914538896222
 20
20.48394720218468
 30
0.0
 10
-1.999914538901057
 20
20.48394720191
 30
0.0
 10
-1.999922915088056
 20
20.48349090896754
 30
0.0
 10
-1.999944041060642
 20
20.4822341918234
 30
0.0
  0
SPLINE
  5
298AE
330
298A4
100
AcDbEntity
  8
0
100
AcDbSpline
210
0.0
220
0.0
230
1.0
 70
     8
 71
     3
 72
     8
 73
     4
 74
     0
 42
0.000000001
 43
0.0000000001
 40
0.0325747903973687
 40
0.0325747903973687
 40
0.0325747903973687
 40
0.0325747903973687
 40
0.0533373208876691
 40
0.0533373208876691
 40
0.0533373208876691
 40
0.0533373208876691
 10
-1.999919449692549
 20
20.48475932440606
 30
0.0
 10
-1.999919449684044
 20
20.48475932508161
 30
0.0
 10
-1.999932387169682
 20
20.48413979987973
 30
0.0
 10
-1.99996061977183
 20
20.47999974342194
 30
0.0
  0
SPLINE
  5
298AF
330
298A4
100
AcDbEntity
  8
0
100
AcDbSpline
210
0.0
220
0.0
230
1.0
 70
     8
 71
     3
 72
    26
 73
    22
 74
     0
 42
0.000000001
 43
0.0000000001
 40
0.1836284379931239
 40
0.1836284379931239
 40
0.1836284379931239
 40
0.1836284379931239
 40
0.2176281549630099
 40
0.2176281549630099
 40
0.2546915816390526
 40
0.2546915816390526
 40
0.2814822943475867
 40
0.2814822943475867
 40
0.2880981563057672
 40
0.2880981563057672
 40
0.2900762248587107
 40
0.2900762248587107
 40
0.2914879268272172
 40
0.2914879268272172
 40
0.2933981144132897
 40
0.2933981144132897
 40
0.2954494411102023
 40
0.2954494411102023
 40
0.2991832147835035
 40
0.2991832147835035
 40
0.3011031557950146
 40
0.3011031557950146
 40
0.3011031557950146
 40
0.3011031557950146
 10
-1.804574783734755
 20
21.51998272426904
 30
0.0
 10
-1.845631817833363
 20
21.4237021977809
 30
0.0
 10
-1.879406635421304
 20
21.3228274056879
 30
0.0
 10
-1.935236610300709
 20
21.10948951869554
 30
0.0
 10
-1.956353727980445
 20
20.99621916463815
 30
0.0
 10
-1.982146479088603
 20
20.79700233626982
 30
0.0
 10
-1.98991582259398
 20
20.71074272399721
 30
0.0
 10
-1.995964352853659
 20
20.59994814861168
 30
0.0
 10
-1.996996236117142
 20
20.57748615874265
 30
0.0
 10
-1.998063814525544
 20
20.5493341975411
 30
0.0
 10
-1.998292351619011
 20
20.54288537985932
 30
0.0
 10
-1.998637690867194
 20
20.53251358122251
 30
0.0
 10
-1.998768925432079
 20
20.52836301102849
 30
0.0
 10
-1.999037438364858
 20
20.51951574253845
 30
0.0
 10
-1.999162795449809
 20
20.51508299078225
 30
0.0
 10
-1.999374264756605
 20
20.50730049007773
 30
0.0
 10
-1.99946047979596
 20
20.50392609853756
 30
0.0
 10
-1.999669511827544
 20
20.49545640319088
 30
0.0
 10
-1.999769110393959
 20
20.49099805928388
 30
0.0
 10
-1.999879905084216
 20
20.48583171811879
 30
0.0
 10
-1.999910944424906
 20
20.48433610078109
 30
0.0
 10
-1.999936735137044
 20
20.48306597810751
 30
0.0
  0
LINE
  5
298B0
330
298A4
100
AcDbEntity
  8
0
100
AcDbLine
 10
-1.999999999999939
 20
20.47999999999996
 30
0.0
 11
-1.999999999999939
 21
1.999999999999995
 31
0.0
  0
LINE
  5
298B1
330
298A4
100
AcDbEntity
  8
0
100
AcDbLine
 10
-1.999999999999943
 20
-2.000000000000003
 30
0.0
 11
-1.999999999999939
 21
1.999999999999996
 31
0.0
  0
LINE
  5
298B2
330
298A4
100
AcDbEntity
  8
0
100
AcDbLine
 10
-86.00000000000001
 20
-2.000000000000003
 30
0.0
 11
-86.00000000000001
 21
2.0
 31
0.0
  0
LINE
  5
298B3
330
298A4
100
AcDbEntity
  8
0
100
AcDbLine
 10
-1.999999999999982
 20
-2.0
 30
0.0
 11
-86.00000000000001
 21
-2.0
 31
0.0
  0
LINE
  5
298B4
330
298A4
100
AcDbEntity
  8
0
100
AcDbLine
 10
0.0
 20
36.05999999999998
 30
0.0
 11
0.0
 21
192.5
 31
0.0
  0
LINE
  5
298B5
330
298A4
100
AcDbEntity
  8
0
100
AcDbLine
 10
0.0
 20
36.05999999999998
 30
0.0
 11
0.0
 21
27.82000000000004
 31
0.0
  0
LINE
  5
298B6
330
298A4
100
AcDbEntity
  8
0
100
AcDbLine
 10
0.0
 20
27.82000000000004
 30
0.0
 11
0.0
 21
22.96251060667355
 31
0.0
  0
CIRCLE
  5
298B7
330
298A4
100
AcDbEntity
  8
0
100
AcDbCircle
 10
-38.50000000000004
 20
177.5
 30
0.0
 40
2.5
  0
LINE
  5
298B8
330
298A4
100
AcDbEntity
  8
0
100
AcDbLine
 10
-1.999999999999992
 20
27.82000000000004
 30
0.0
 11
0.0
 21
27.82000000000004
 31
0.0
  0
LINE
  5
298B9
330
298A4
100
AcDbEntity
  8
0
100
AcDbLine
 10
-2.000000000000014
 20
22.96251060667355
 30
0.0
 11
-1.999999999999992
 21
27.82000000000004
 31
0.0
  0
LINE
  5
298BA
330
298A4
100
AcDbEntity
  8
0
100
AcDbLine
 10
-1.999999999999992
 20
36.05999999999998
 30
0.0
 11
0.0
 21
36.05999999999998
 31
0.0
  0
LINE
  5
298BB
330
298A4
100
AcDbEntity
  8
0
100
AcDbLine
 10
-1.999999999999992
 20
27.82000000000004
 30
0.0
 11
-1.999999999999992
 21
36.05999999999998
 31
0.0
  0
LINE
  5
298BC
330
298A4
100
AcDbEntity
  8
0
100
AcDbLine
 10
-46.00000000000004
 20
36.05999999999998
 30
0.0
 11
-55.82004960297631
 21
27.82000000000004
 31
0.0
  0
LINE
  5
298BD
330
298A4
100
AcDbEntity
  8
0
100
AcDbLine
 10
-55.82004960297631
 20
27.82000000000004
 30
0.0
 11
-81.8682408883347
 21
23.22700107773628
 31
0.0
  0
ARC
  5
298BE
330
298A4
100
AcDbEntity
  8
0
100
AcDbCircle
 10
-81.00000000000006
 20
18.30296231267525
 30
0.0
 40
5.0
100
AcDbArc
 50
100.0
 51
180.0
  0
LINE
  5
298BF
330
298A4
100
AcDbEntity
  8
0
100
AcDbLine
 10
-46.00000000000001
 20
192.5
 30
0.0
 11
-46.00000000000004
 21
36.05999999999998
 31
0.0
  0
LINE
  5
298C0
330
298A4
100
AcDbEntity
  8
0
100
AcDbLine
 10
0.0
 20
192.5
 30
0.0
 11
-2.000000000000028
 21
192.5
 31
0.0
  0
LINE
  5
298C1
330
298A4
100
AcDbEntity
  8
0
100
AcDbLine
 10
-1.999999999999992
 20
36.05999999999998
 30
0.0
 11
-2.000000000000028
 21
192.5
 31
0.0
  0
LINE
  5
298C2
330
298A4
100
AcDbEntity
  8
0
100
AcDbLine
 10
-86.00000000000006
 20
18.30296231267525
 30
0.0
 11
-86.00000000000001
 21
1.999999999999999
 31
0.0
  0
LINE
  5
298C3
330
298A4
100
AcDbEntity
  8
0
100
AcDbLine
 10
-4.000000000000003
 20
192.5
 30
0.0
 11
-46.00000000000001
 21
192.5
 31
0.0
  0
LINE
  5
298C4
330
298A4
100
AcDbEntity
  8
0
100
AcDbLine
 10
-2.000000000000002
 20
192.5
 30
0.0
 11
-4.000000000000003
 21
192.5
 31
0.0
  0
CIRCLE
  5
298C5
330
298A4
100
AcDbEntity
  8
0
100
AcDbCircle
 10
-38.50000000000004
 20
37.5
 30
0.0
 40
2.5
  0
CIRCLE
  5
298C6
330
298A4
100
AcDbEntity
  8
0
100
AcDbCircle
 10
-38.50000000000004
 20
57.5
 30
0.0
 40
2.5
  0
CIRCLE
  5
298C7
330
298A4
100
AcDbEntity
  8
0
100
AcDbCircle
 10
-38.50000000000004
 20
77.5
 30
0.0
 40
2.5
  0
CIRCLE
  5
298C8
330
298A4
100
AcDbEntity
  8
0
100
AcDbCircle
 10
-38.50000000000004
 20
97.5
 30
0.0
 40
2.5
  0
CIRCLE
  5
298C9
330
298A4
100
AcDbEntity
  8
0
100
AcDbCircle
 10
-38.50000000000004
 20
117.5
 30
0.0
 40
2.5
  0
CIRCLE
  5
298CA
330
298A4
100
AcDbEntity
  8
0
100
AcDbCircle
 10
-38.50000000000004
 20
137.5
 30
0.0
 40
2.5
  0
CIRCLE
  5
298CB
330
298A4
100
AcDbEntity
  8
0
100
AcDbCircle
 10
-38.50000000000004
 20
157.5
 30
0.0
 40
2.5
  0
ENDBLK
  5
298A6
330
298A4
100
AcDbEntity
  8
0
100
AcDbBlockEnd
  0
BLOCK
  5
298CD
330
298CC
100
AcDbEntity
  8
0
100
AcDbBlockBegin
  2
SAEL500_115_2-Top
 70
     0
 10
0.0
 20
0.0
 30
0.0
  3
SAEL500_115_2-Top
  1

  0
SPLINE
  5
298CF
330
298CC
100
AcDbEntity
  8
0
100
AcDbSpline
210
0.0
220
0.0
230
1.0
 70
     8
 71
     3
 72
    14
 73
    10
 74
     0
 42
0.000000001
 43
0.0000000001
 40
0.5188985697047699
 40
0.5188985697047699
 40
0.5188985697047699
 40
0.5188985697047699
 40
0.6652191719024696
 40
0.6652191719024696
 40
0.6652191719024696
 40
0.9355086585157005
 40
0.9355086585157005
 40
0.9355086585157005
 40
1.0
 40
1.0
 40
1.0
 40
1.0
 10
58.78994262301895
 20
-1.056587465078817
 30
0.0
 10
58.56011017593985
 20
-1.202408152831968
 30
0.0
 10
58.35050242191052
 20
-1.346500674648463
 30
0.0
 10
58.16915930665957
 20
-1.47663979940438
 30
0.0
 10
57.83417478099586
 20
-1.717038189584905
 30
0.0
 10
57.60858645397007
 20
-1.910578205232946
 30
0.0
 10
57.52755061003094
 20
-1.976719719940589
 30
0.0
 10
57.5082153767245
 20
-1.992501151415219
 30
0.0
 10
57.50000613706448
 20
-1.999065688200496
 30
0.0
 10
57.49999999999993
 20
-1.99999999999993
 30
0.0
  0
LINE
  5
298D0
330
298CC
100
AcDbEntity
  8
0
100
AcDbLine
 10
57.49999999999993
 20
-1.999999999999941
 30
0.0
 11
57.49999999999993
 21
-2.072029101450175
 31
0.0
  0
LINE
  5
298D1
330
298CC
100
AcDbEntity
  8
0
100
AcDbLine
 10
61.63175911166529
 20
-1.999999999999987
 30
0.0
 11
61.63050953115458
 21
-2.000001201933982
 31
0.0
  0
SPLINE
  5
298D2
330
298CC
100
AcDbEntity
  8
0
100
AcDbSpline
210
0.0
220
0.0
230
1.0
 70
     8
 71
     3
 72
    12
 73
     8
 74
     0
 42
0.000000001
 43
0.0000000001
 40
0.0
 40
0.0
 40
0.0
 40
0.0
 40
0.0081092467199831
 40
0.0081092467199831
 40
0.0105805684009125
 40
0.0105805684009125
 40
0.0106501728549463
 40
0.0106501728549463
 40
0.0106501728549463
 40
0.0106501728549463
 10
57.49994632337541
 20
-3.999998955333264
 30
0.0
 10
57.49998260335335
 20
-3.987607869068185
 30
0.0
 10
57.50002888654641
 20
-3.975891037799257
 30
0.0
 10
57.50006245390292
 20
-3.968408383251954
 30
0.0
 10
57.50006754895228
 20
-3.967305465676912
 30
0.0
 10
57.50006781890011
 20
-3.967245381700213
 30
0.0
 10
57.50006782260829
 20
-3.967244554717509
 30
0.0
 10
57.50006782260655
 20
-3.967244555105367
 30
0.0
  0
SPLINE
  5
298D3
330
298CC
100
AcDbEntity
  8
0
100
AcDbSpline
210
0.0
220
0.0
230
1.0
 70
     8
 71
     3
 72
    28
 73
    24
 74
     0
 42
0.000000001
 43
0.0000000001
 40
0.001953884848105
 40
0.001953884848105
 40
0.001953884848105
 40
0.001953884848105
 40
0.0021257570796202
 40
0.0021257570796202
 40
0.0027036889975656
 40
0.0027036889975656
 40
0.0032370672570079
 40
0.0032370672570079
 40
0.0046031456982498
 40
0.0046031456982498
 40
0.0086964005888123
 40
0.0086964005888123
 40
0.0209748056753287
 40
0.0209748056753287
 40
0.0578200507998548
 40
0.0578200507998548
 40
0.1685274505123206
 40
0.1685274505123206
 40
0.1919520388606443
 40
0.1919520388606443
 40
0.2037412230385345
 40
0.2037412230385345
 40
0.2162742107527796
 40
0.2162742107527796
 40
0.2162742107527796
 40
0.2162742107527796
 10
57.49995501563796
 20
-3.997079597157332
 30
0.0
 10
57.4999511714394
 20
-3.99682789089182
 30
0.0
 10
57.49994688365617
 20
-3.996546992655211
 30
0.0
 10
57.49992596654632
 20
-3.995175823004001
 30
0.0
 10
57.49990408989702
 20
-3.993738822775077
 30
0.0
 10
57.49985934035207
 20
-3.990787209185829
 30
0.0
 10
57.49983642447578
 20
-3.989270902676052
 30
0.0
 10
57.49975389095254
 20
-3.983789201472322
 30
0.0
 10
57.49969254513946
 20
-3.979677323051265
 30
0.0
 10
57.49944990321844
 20
-3.963248475185748
 30
0.0
 10
57.49927110155912
 20
-3.950773359780474
 30
0.0
 10
57.49858082596767
 20
-3.901032593397322
 30
0.0
 10
57.49811469789463
 20
-3.863786384759645
 30
0.0
 10
57.49646947930983
 20
-3.715417563898432
 30
0.0
 10
57.49574954301124
 20
-3.605692854727617
 30
0.0
 10
57.49435639488824
 20
-3.168921765145947
 30
0.0
 10
57.49623099264333
 20
-2.826070943240397
 30
0.0
 10
57.49831573840454
 20
-2.412305303357091
 30
0.0
 10
57.49874909700776
 20
-2.339041354032846
 30
0.0
 10
57.49939031159066
 20
-2.230478957369467
 30
0.0
 10
57.49956068361074
 20
-2.195341770584292
 30
0.0
 10
57.49968411252847
 20
-2.129575883568236
 30
0.0
 10
57.4996265577343
 20
-2.096757102738056
 30
0.0
 10
57.49959797787043
 20
-2.072029101450174
 30
0.0
  0
SPLINE
  5
298D4
330
298CC
100
AcDbEntity
  8
0
100
AcDbSpline
210
0.0
220
0.0
230
1.0
 70
     8
 71
     3
 72
    10
 73
     6
 74
     0
 42
0.000000001
 43
0.0000000001
 40
0.0
 40
0.0
 40
0.0
 40
0.0
 40
0.0142578776019198
 40
0.0142578776019198
 40
0.0186060998853132
 40
0.0186060998853132
 40
0.0186060998853132
 40
0.0186060998853132
 10
61.63050983553621
 20
-2.000001198236903
 30
0.0
 10
61.58339548114785
 20
-2.000046197985633
 30
0.0
 10
61.53611102297511
 20
-2.000140794717012
 30
0.0
 10
61.47489132247141
 20
-2.000502706381411
 30
0.0
 10
61.46060447377274
 20
-2.000601719223327
 30
0.0
 10
61.44630515695787
 20
-2.00072091397157
 30
0.0
  0
SPLINE
  5
298D5
330
298CC
100
AcDbEntity
  8
0
100
AcDbSpline
210
0.0
220
0.0
230
1.0
 70
     8
 71
     3
 72
     8
 73
     4
 74
     0
 42
0.000000001
 43
0.0000000001
 40
0.0371070439499002
 40
0.0371070439499002
 40
0.0371070439499002
 40
0.0371070439499002
 40
0.0386949757736221
 40
0.0386949757736221
 40
0.0386949757736221
 40
0.0386949757736221
 10
61.47294671061326
 20
-2.000182978486944
 30
0.0
 10
61.47817092705269
 20
-2.000133848647106
 30
0.0
 10
61.48339928579176
 20
-2.0000912282519
 30
0.0
 10
61.48863138565157
 20
-2.000055018194057
 30
0.0
  0
SPLINE
  5
298D6
330
298CC
100
AcDbEntity
  8
0
100
AcDbSpline
210
0.0
220
0.0
230
1.0
 70
     8
 71
     3
 72
     8
 73
     4
 74
     0
 42
0.000000001
 43
0.0000000001
 40
0.0171163501882174
 40
0.0171163501882174
 40
0.0171163501882174
 40
0.0171163501882174
 40
0.0175573141794429
 40
0.0175573141794429
 40
0.0175573141794429
 40
0.0175573141794429
 10
59.50000281104447
 20
-3.996646767226525
 30
0.0
 10
59.50001167119503
 20
-3.997774957316432
 30
0.0
 10
59.50002078703234
 20
-3.998894106877303
 30
0.0
 10
59.50003012162359
 20
-4.000000899730528
 30
0.0
  0
LINE
  5
298D7
330
298CC
100
AcDbEntity
  8
0
100
AcDbLine
 10
-57.5
 20
-2.000000000000058
 30
0.0
 11
-57.5
 21
-2.069796039137985
 31
0.0
  0
SPLINE
  5
298D8
330
298CC
100
AcDbEntity
  8
0
100
AcDbSpline
210
0.0
220
0.0
230
1.0
 70
     8
 71
     3
 72
    11
 73
     7
 74
     0
 42
0.000000001
 43
0.0000000001
 40
0.5165110364573222
 40
0.5165110364573222
 40
0.5165110364573222
 40
0.5165110364573222
 40
0.7616502545753353
 40
0.7616502545753353
 40
0.7616502545753353
 40
1.0
 40
1.0
 40
1.0
 40
1.0
 10
-58.80103524111383
 20
-1.048721509984551
 30
0.0
 10
-58.4145313323699
 20
-1.292566595513574
 30
0.0
 10
-58.08653163747635
 20
-1.532727636550452
 30
0.0
 10
-57.85494570853
 20
-1.712905503777076
 30
0.0
 10
-57.62977387502221
 20
-1.888093093565139
 30
0.0
 10
-57.50000062358537
 20
-1.997912049311443
 30
0.0
 10
-57.49999999999388
 20
-1.999999999999915
 30
0.0
  0
SPLINE
  5
298D9
330
298CC
100
AcDbEntity
  8
0
100
AcDbSpline
210
0.0
220
0.0
230
1.0
 70
     8
 71
     3
 72
    10
 73
     6
 74
     0
 42
0.000000001
 43
0.0000000001
 40
0.0
 40
0.0
 40
0.0
 40
0.0
 40
0.0072944892631118
 40
0.0072944892631118
 40
0.0085765880508969
 40
0.0085765880508969
 40
0.0085765880508969
 40
0.0085765880508969
 10
-58.68000841698968
 20
-1.16316126900854
 30
0.0
 10
-58.67269480867122
 20
-1.170431529628508
 30
0.0
 10
-58.66785857998682
 20
-1.175173652790744
 30
0.0
 10
-58.66643387242387
 20
-1.176559070777734
 30
0.0
 10
-58.66632639080989
 20
-1.176663007296463
 30
0.0
 10
-58.66632639080764
 20
-1.176663007298639
 30
0.0
  0
SPLINE
  5
298DA
330
298CC
100
AcDbEntity
  8
0
100
AcDbSpline
210
0.0
220
0.0
230
1.0
 70
     8
 71
     3
 72
    14
 73
    10
 74
     0
 42
0.000000001
 43
0.0000000001
 40
0.0094375097141113
 40
0.0094375097141113
 40
0.0094375097141113
 40
0.0094375097141113
 40
0.0111326029862471
 40
0.0111326029862471
 40
0.0134302908605052
 40
0.0134302908605052
 40
0.0168843633532046
 40
0.0168843633532046
 40
0.0210563278586211
 40
0.0210563278586211
 40
0.0210563278586211
 40
0.0210563278586211
 10
-57.50014631260939
 20
-3.945150272996278
 30
0.0
 10
-57.50014631259171
 20
-3.945150275833296
 30
0.0
 10
-57.50014139922864
 20
-3.945923554864163
 30
0.0
 10
-57.50012193601171
 20
-3.949007846680973
 30
0.0
 10
-57.50010465089491
 20
-3.951773993121855
 30
0.0
 10
-57.50005685463116
 20
-3.960051765449577
 30
0.0
 10
-57.5000241493326
 20
-3.96628348741507
 30
0.0
 10
-57.49995869322408
 20
-3.981300586844287
 30
0.0
 10
-57.49992664642498
 20
-3.99046217031795
 30
0.0
 10
-57.49990096457825
 20
-3.999981642567449
 30
0.0
  0
LINE
  5
298DB
330
298CC
100
AcDbEntity
  8
0
100
AcDbLine
 10
-57.49997710527539
 20
-3.998811133088456
 30
0.0
 11
-57.4999800013159
 21
-4.000000006394765
 31
0.0
  0
SPLINE
  5
298DC
330
298CC
100
AcDbEntity
  8
0
100
AcDbSpline
210
0.0
220
0.0
230
1.0
 70
     8
 71
     3
 72
    30
 73
    26
 74
     0
 42
0.000000001
 43
0.0000000001
 40
0.0
 40
0.0
 40
0.0
 40
0.0
 40
0.0047534164311333
 40
0.0047534164311333
 40
0.0107387638269914
 40
0.0107387638269914
 40
0.0203950571462737
 40
0.0203950571462737
 40
0.0344622988644782
 40
0.0344622988644782
 40
0.0688230789775046
 40
0.0688230789775046
 40
0.1720269029519616
 40
0.1720269029519616
 40
0.1970318435740411
 40
0.1970318435740411
 40
0.2092864147869596
 40
0.2092864147869596
 40
0.2124618631574958
 40
0.2124618631574958
 40
0.2146768689741813
 40
0.2146768689741813
 40
0.2156651197941173
 40
0.2156651197941173
 40
0.2163286415161771
 40
0.2163286415161771
 40
0.2163286415161771
 40
0.2163286415161771
 10
-57.49965701828206
 20
-2.069796039137985
 30
0.0
 10
-57.4996679971268
 20
-2.07718754420935
 30
0.0
 10
-57.49967906217328
 20
-2.086869371371631
 30
0.0
 10
-57.49968983277465
 20
-2.1109652259612
 30
0.0
 10
-57.49968518668911
 20
-2.126176442556886
 30
0.0
 10
-57.4996086711507
 20
-2.168193391511537
 30
0.0
 10
-57.49948918137483
 20
-2.19694051923972
 30
0.0
 10
-57.49907159260229
 20
-2.269289235083047
 30
0.0
 10
-57.49874782882276
 20
-2.313578964283883
 30
0.0
 10
-57.4977929732347
 20
-2.462671380364982
 30
0.0
 10
-57.49720203633621
 20
-2.567217290616729
 30
0.0
 10
-57.49481821292999
 20
-2.991639103675258
 30
0.0
 10
-57.49361445586726
 20
-3.302006026460949
 30
0.0
 10
-57.4961933865773
 20
-3.682412203655265
 30
0.0
 10
-57.49689008357173
 20
-3.757324215198191
 30
0.0
 10
-57.49820829529775
 20
-3.869986562316769
 30
0.0
 10
-57.49868906019315
 20
-3.907389259657792
 30
0.0
 10
-57.49932288979039
 20
-3.953283504264794
 30
0.0
 10
-57.49945563418634
 20
-3.962719140448925
 30
0.0
 10
-57.49966972946502
 20
-3.977707629483942
 30
0.0
 10
-57.49975632312693
 20
-3.983695183419595
 30
0.0
 10
-57.49984770236487
 20
-3.98997427255909
 30
0.0
 10
-57.49987065876367
 20
-3.991545794413293
 30
0.0
 10
-57.4998992222497
 20
-3.993498900815348
 30
0.0
 10
-57.49990845085481
 20
-3.994129190551904
 30
0.0
 10
-57.4999161136975
 20
-3.99465218679833
 30
0.0
  0
LINE
  5
298DD
330
298CC
100
AcDbEntity
  8
0
100
AcDbLine
 10
-57.5
 20
-2.000000000000058
 30
0.0
 11
-55.5
 21
-2.000000000000056
 31
0.0
  0
LINE
  5
298DE
330
298CC
100
AcDbEntity
  8
0
100
AcDbLine
 10
-55.5
 20
-1.999999999999982
 30
0.0
 11
55.5
 21
-1.999999999999982
 31
0.0
  0
LINE
  5
298DF
330
298CC
100
AcDbEntity
  8
0
100
AcDbLine
 10
55.49999999999994
 20
-1.999999999999943
 30
0.0
 11
57.49999999999994
 21
-1.999999999999941
 31
0.0
  0
LINE
  5
298E0
330
298CC
100
AcDbEntity
  8
0
100
AcDbLine
 10
61.5
 20
0.0
 30
0.0
 11
99.0
 21
0.0
 31
0.0
  0
ARC
  5
298E1
330
298CC
100
AcDbEntity
  8
0
100
AcDbCircle
 10
61.5
 20
-4.000000000000004
 30
0.0
 40
4.000000000000003
100
AcDbArc
 50
90.0
 51
180.0
  0
LINE
  5
298E2
330
298CC
100
AcDbEntity
  8
0
100
AcDbLine
 10
57.5
 20
-55.82004960297631
 30
0.0
 11
57.50000000000001
 21
-46.00000000000004
 31
0.0
  0
LINE
  5
298E3
330
298CC
100
AcDbEntity
  8
0
100
AcDbLine
 10
59.5
 20
-55.82004960297631
 30
0.0
 11
57.5
 21
-55.82004960297631
 31
0.0
  0
LINE
  5
298E4
330
298CC
100
AcDbEntity
  8
0
100
AcDbLine
 10
59.5
 20
-46.00000000000004
 30
0.0
 11
59.5
 21
-55.82004960297631
 31
0.0
  0
LINE
  5
298E5
330
298CC
100
AcDbEntity
  8
0
100
AcDbLine
 10
57.5
 20
-81.8682408883347
 30
0.0
 11
57.5
 21
-55.82004960297631
 31
0.0
  0
LINE
  5
298E6
330
298CC
100
AcDbEntity
  8
0
100
AcDbLine
 10
59.5
 20
-55.82004960297631
 30
0.0
 11
59.49999999999999
 21
-81.8682408883347
 31
0.0
  0
LINE
  5
298E7
330
298CC
100
AcDbEntity
  8
0
100
AcDbLine
 10
57.5
 20
-81.8682408883347
 30
0.0
 11
57.5
 21
-86.00000000000006
 31
0.0
  0
LINE
  5
298E8
330
298CC
100
AcDbEntity
  8
0
100
AcDbLine
 10
59.49999999999999
 20
-86.00000000000006
 30
0.0
 11
57.5
 21
-86.00000000000006
 31
0.0
  0
LINE
  5
298E9
330
298CC
100
AcDbEntity
  8
0
100
AcDbLine
 10
59.50000000000001
 20
-86.00000000000006
 30
0.0
 11
59.50000000000001
 21
-81.8682408883347
 31
0.0
  0
LINE
  5
298EA
330
298CC
100
AcDbEntity
  8
0
100
AcDbLine
 10
57.50000000000001
 20
-46.00000000000001
 30
0.0
 11
59.5
 21
-46.00000000000001
 31
0.0
  0
LINE
  5
298EB
330
298CC
100
AcDbEntity
  8
0
100
AcDbLine
 10
99.0
 20
0.0
 30
0.0
 11
99.0
 21
-2.000000000000028
 31
0.0
  0
LINE
  5
298EC
330
298CC
100
AcDbEntity
  8
0
100
AcDbLine
 10
59.5
 20
-4.000000000000003
 30
0.0
 11
59.5
 21
-46.00000000000001
 31
0.0
  0
LINE
  5
298ED
330
298CC
100
AcDbEntity
  8
0
100
AcDbLine
 10
57.50000000000001
 20
-46.00000000000001
 30
0.0
 11
57.5
 21
-4.000000000000003
 31
0.0
  0
LINE
  5
298EE
330
298CC
100
AcDbEntity
  8
0
100
AcDbLine
 10
57.5
 20
-86.00000000000001
 30
0.0
 11
55.5
 21
-86.00000000000001
 31
0.0
  0
ARC
  5
298EF
330
298CC
100
AcDbEntity
  8
0
100
AcDbCircle
 10
61.5
 20
-4.000000000000004
 30
0.0
 40
2.000000000000001
100
AcDbArc
 50
90.0
 51
180.0
  0
LINE
  5
298F0
330
298CC
100
AcDbEntity
  8
0
100
AcDbLine
 10
99.0
 20
-2.000000000000028
 30
0.0
 11
61.5
 21
-2.000000000000001
 31
0.0
  0
LINE
  5
298F1
330
298CC
100
AcDbEntity
  8
0
100
AcDbLine
 10
-99.0
 20
-2.000000000000028
 30
0.0
 11
-61.5
 21
-2.000000000000001
 31
0.0
  0
LINE
  5
298F2
330
298CC
100
AcDbEntity
  8
0
100
AcDbLine
 10
-99.0
 20
0.0
 30
0.0
 11
-99.0
 21
-2.000000000000028
 31
0.0
  0
LINE
  5
298F3
330
298CC
100
AcDbEntity
  8
0
100
AcDbLine
 10
-59.5
 20
-4.000000000000003
 30
0.0
 11
-59.5
 21
-46.00000000000001
 31
0.0
  0
LINE
  5
298F4
330
298CC
100
AcDbEntity
  8
0
100
AcDbLine
 10
-57.50000000000001
 20
-46.00000000000001
 30
0.0
 11
-57.5
 21
-4.000000000000003
 31
0.0
  0
LINE
  5
298F5
330
298CC
100
AcDbEntity
  8
0
100
AcDbLine
 10
-61.5
 20
0.0
 30
0.0
 11
-99.0
 21
0.0
 31
0.0
  0
ARC
  5
298F6
330
298CC
100
AcDbEntity
  8
0
100
AcDbCircle
 10
-61.5
 20
-4.000000000000004
 30
0.0
 40
2.000000000000001
100
AcDbArc
 50
0.0
 51
90.0
  0
ARC
  5
298F7
330
298CC
100
AcDbEntity
  8
0
100
AcDbCircle
 10
-61.5
 20
-4.000000000000004
 30
0.0
 40
4.000000000000003
100
AcDbArc
 50
0.0
 51
90.0
  0
LINE
  5
298F8
330
298CC
100
AcDbEntity
  8
0
100
AcDbLine
 10
-55.5
 20
-86.00000000000001
 30
0.0
 11
55.49999999999998
 21
-86.00000000000001
 31
0.0
  0
CIRCLE
  5
298F9
330
298CC
100
AcDbEntity
  8
0
100
AcDbCircle
 10
0.0
 20
-67.99999999999998
 30
0.0
 40
2.5
  0
CIRCLE
  5
298FA
330
298CC
100
AcDbEntity
  8
0
100
AcDbCircle
 10
0.0
 20
-47.99999999999998
 30
0.0
 40
2.5
  0
LINE
  5
298FB
330
298CC
100
AcDbEntity
  8
0
100
AcDbLine
 10
-57.50000000000001
 20
-46.00000000000004
 30
0.0
 11
-57.5
 21
-55.82004960297631
 31
0.0
  0
LINE
  5
298FC
330
298CC
100
AcDbEntity
  8
0
100
AcDbLine
 10
-59.5
 20
-55.82004960297631
 30
0.0
 11
-59.5
 21
-46.00000000000004
 31
0.0
  0
LINE
  5
298FD
330
298CC
100
AcDbEntity
  8
0
100
AcDbLine
 10
-59.5
 20
-55.82004960297631
 30
0.0
 11
-57.5
 21
-55.82004960297631
 31
0.0
  0
LINE
  5
298FE
330
298CC
100
AcDbEntity
  8
0
100
AcDbLine
 10
-57.5
 20
-55.82004960297631
 30
0.0
 11
-57.5
 21
-81.8682408883347
 31
0.0
  0
LINE
  5
298FF
330
298CC
100
AcDbEntity
  8
0
100
AcDbLine
 10
-59.49999999999999
 20
-81.8682408883347
 30
0.0
 11
-59.5
 21
-55.82004960297631
 31
0.0
  0
LINE
  5
29900
330
298CC
100
AcDbEntity
  8
0
100
AcDbLine
 10
-57.5
 20
-86.00000000000006
 30
0.0
 11
-57.5
 21
-81.8682408883347
 31
0.0
  0
LINE
  5
29901
330
298CC
100
AcDbEntity
  8
0
100
AcDbLine
 10
-59.50000000000001
 20
-81.8682408883347
 30
0.0
 11
-59.50000000000001
 21
-86.00000000000006
 31
0.0
  0
LINE
  5
29902
330
298CC
100
AcDbEntity
  8
0
100
AcDbLine
 10
-57.5
 20
-86.00000000000006
 30
0.0
 11
-59.49999999999999
 21
-86.00000000000006
 31
0.0
  0
LINE
  5
29903
330
298CC
100
AcDbEntity
  8
0
100
AcDbLine
 10
-59.5
 20
-46.00000000000001
 30
0.0
 11
-57.50000000000001
 21
-46.00000000000001
 31
0.0
  0
LINE
  5
29904
330
298CC
100
AcDbEntity
  8
0
100
AcDbLine
 10
-57.5
 20
-86.00000000000001
 30
0.0
 11
-55.5
 21
-86.00000000000001
 31
0.0
  0
ENDBLK
  5
298CE
330
298CC
100
AcDbEntity
  8
0
100
AcDbBlockEnd
  0
BLOCK
  5
29906
330
29905
100
AcDbEntity
  8
0
100
AcDbBlockBegin
  2
SAEL500_115_2-Bottom
 70
     0
 10
0.0
 20
0.0
 30
0.0
  3
SAEL500_115_2-Bottom
  1

  0
LINE
  5
29908
330
29905
100
AcDbEntity
  8
0
100
AcDbLine
 10
61.6317591116654
 20
0.0
 30
0.0
 11
61.5
 21
0.0
 31
0.0
  0
SPLINE
  5
29909
330
29905
100
AcDbEntity
  8
0
100
AcDbSpline
210
0.0
220
0.0
230
1.0
 70
     8
 71
     3
 72
    17
 73
    13
 74
     0
 42
0.000000001
 43
0.0000000001
 40
0.0
 40
0.0
 40
0.0
 40
0.0
 40
0.2630945546998902
 40
0.2630945546998902
 40
0.2630945546998902
 40
0.6652191719024696
 40
0.6652191719024696
 40
0.6652191719024696
 40
0.9355086585157005
 40
0.9355086585157005
 40
0.9355086585157005
 40
1.0
 40
1.0
 40
1.0
 40
1.0
 10
61.63175911166539
 20
0.0000000000000375
 30
0.0
 10
61.1596874460735
 20
0.0000028677165798
 30
0.0
 10
60.63405572016931
 20
0.1353978453870579
 30
0.0
 10
60.13783379559384
 20
0.3412741587746257
 30
0.0
 10
59.37938764799088
 20
0.6559440454489796
 30
0.0
 10
58.66753431132287
 20
1.118985819448476
 30
0.0
 10
58.16915930665957
 20
1.47663979940438
 30
0.0
 10
57.83417478099586
 20
1.717038189584905
 30
0.0
 10
57.60858645397007
 20
1.910578205232946
 30
0.0
 10
57.52755061003094
 20
1.976719719940589
 30
0.0
 10
57.5082153767245
 20
1.992501151415219
 30
0.0
 10
57.50000613706448
 20
1.999065688200496
 30
0.0
 10
57.49999999999993
 20
1.99999999999993
 30
0.0
  0
ARC
  5
2990A
330
29905
100
AcDbEntity
  8
0
100
AcDbCircle
 10
61.5
 20
4.000000000000004
 30
0.0
 40
3.999999999999985
100
AcDbArc
 50
227.3580443702442
 51
270.0
  0
SPLINE
  5
2990B
330
29905
100
AcDbEntity
  8
0
100
AcDbSpline
210
0.0
220
0.0
230
1.0
 70
     8
 71
     3
 72
    14
 73
    10
 74
     0
 42
0.000000001
 43
0.0000000001
 40
0.0
 40
0.0
 40
0.0
 40
0.0
 40
0.2870001856672752
 40
0.2870001856672752
 40
0.2870001856672752
 40
0.8282911260917206
 40
0.8282911260917206
 40
0.8282911260917206
 40
1.0
 40
1.0
 40
1.0
 40
1.0
 10
61.63175911166529
 20
1.999999999999987
 30
0.0
 10
61.27222392422607
 20
2.000346318721189
 30
0.0
 10
60.96620915172685
 20
2.000215842365259
 30
0.0
 10
60.68206703771624
 20
2.000098106197962
 30
0.0
 10
60.14616650598172
 20
1.999876052262458
 30
0.0
 10
59.74264309995657
 20
2.000046339025661
 30
0.0
 10
59.57927432875073
 20
2.000163544094264
 30
0.0
 10
59.5274503175941
 20
2.00020072400777
 30
0.0
 10
59.50121049601746
 20
2.00002672075964
 30
0.0
 10
59.50000000000004
 20
2.000000000000091
 30
0.0
  0
ARC
  5
2990C
330
29905
100
AcDbEntity
  8
0
100
AcDbCircle
 10
61.5
 20
4.000000000000004
 30
0.0
 40
1.999999999999983
100
AcDbArc
 50
180.0541372143761
 51
268.5006047385432
  0
ARC
  5
2990D
330
29905
100
AcDbEntity
  8
0
100
AcDbCircle
 10
61.5
 20
4.000000000000004
 30
0.0
 40
1.999999999999983
100
AcDbArc
 50
269.5183340402688
 51
269.6743077378779
  0
SPLINE
  5
2990E
330
29905
100
AcDbEntity
  8
0
100
AcDbSpline
210
0.0
220
0.0
230
1.0
 70
     8
 71
     3
 72
    14
 73
    10
 74
     0
 42
0.000000001
 43
0.0000000001
 40
0.0118649783382769
 40
0.0118649783382769
 40
0.0118649783382769
 40
0.0118649783382769
 40
0.0118716600597915
 40
0.0118716600597915
 40
0.0130350275425266
 40
0.0130350275425266
 40
0.0155595047486931
 40
0.0155595047486931
 40
0.0169778308727664
 40
0.0169778308727664
 40
0.0169778308727664
 40
0.0169778308727664
 10
61.37281974298132
 20
2.001908314498215
 30
0.0
 10
61.37281974692621
 20
2.001908314404434
 30
0.0
 10
61.37282363421174
 20
2.001908221992725
 30
0.0
 10
61.37412916545951
 20
2.001877218060322
 30
0.0
 10
61.38060237547394
 20
2.001729193838964
 30
0.0
 10
61.39283487919804
 20
2.001466161139019
 30
0.0
 10
61.40117337784618
 20
2.001303563853408
 30
0.0
 10
61.414227036504
 20
2.001075642023614
 30
0.0
 10
61.41893778350129
 20
2.000998888988551
 30
0.0
 10
61.42365492796431
 20
2.000928691293905
 30
0.0
  0
SPLINE
  5
2990F
330
29905
100
AcDbEntity
  8
0
100
AcDbSpline
210
0.0
220
0.0
230
1.0
 70
     8
 71
     3
 72
     8
 73
     4
 74
     0
 42
0.000000001
 43
0.0000000001
 40
0.0
 40
0.0
 40
0.0
 40
0.0
 40
0.0004577657622671
 40
0.0004577657622671
 40
0.0004577657622671
 40
0.0004577657622671
 10
59.50001567016393
 20
3.999999878025768
 30
0.0
 10
59.50001056904508
 20
3.999567572131086
 30
0.0
 10
59.50000531490239
 20
3.99911525078572
 30
0.0
 10
59.49999999999999
 20
3.998649690013803
 30
0.0
  0
SPLINE
  5
29910
330
29905
100
AcDbEntity
  8
0
100
AcDbSpline
210
0.0
220
0.0
230
1.0
 70
     8
 71
     3
 72
     8
 73
     4
 74
     0
 42
0.000000001
 43
0.0000000001
 40
0.0
 40
0.0
 40
0.0
 40
0.0
 40
0.0004828733920555
 40
0.0004828733920555
 40
0.0004828733920555
 40
0.0004828733920555
 10
59.50001979668464
 20
3.999999484541893
 30
0.0
 10
59.50001348640906
 20
3.999551841854001
 30
0.0
 10
59.50000687973184
 20
3.999077910575943
 30
0.0
 10
59.49999999999995
 20
3.99857773043116
 30
0.0
  0
SPLINE
  5
29911
330
29905
100
AcDbEntity
  8
0
100
AcDbSpline
210
0.0
220
0.0
230
1.0
 70
     8
 71
     3
 72
     8
 73
     4
 74
     0
 42
0.000000001
 43
0.0000000001
 40
0.0
 40
0.0
 40
0.0
 40
0.0
 40
0.0004862067192352
 40
0.0004862067192352
 40
0.0004862067192352
 40
0.0004862067192352
 10
59.50003012162358
 20
4.000000899730528
 30
0.0
 10
59.50001982930702
 20
3.998780550376052
 30
0.0
 10
59.50000976143615
 20
3.997544074368582
 30
0.0
 10
59.49999999999996
 20
3.996296821564957
 30
0.0
  0
LINE
  5
29912
330
29905
100
AcDbEntity
  8
0
100
AcDbLine
 10
-61.5
 20
0.0
 30
0.0
 11
-61.6317591116654
 21
0.0
 31
0.0
  0
ARC
  5
29913
330
29905
100
AcDbEntity
  8
0
100
AcDbCircle
 10
-61.5
 20
4.000000000000004
 30
0.0
 40
3.999999999999985
100
AcDbArc
 50
270.0000000000001
 51
312.4822782988576
  0
SPLINE
  5
29914
330
29905
100
AcDbEntity
  8
0
100
AcDbSpline
210
0.0
220
0.0
230
1.0
 70
     8
 71
     3
 72
    14
 73
    10
 74
     0
 42
0.000000001
 43
0.0000000001
 40
0.0
 40
0.0
 40
0.0
 40
0.0
 40
0.389439659839798
 40
0.389439659839798
 40
0.389439659839798
 40
0.7616502545753353
 40
0.7616502545753353
 40
0.7616502545753353
 40
1.0
 40
1.0
 40
1.0
 40
1.0
 10
-61.63175911166537
 20
0.0000000000000446
 30
0.0
 10
-60.91149638405243
 20
0.0000033433566476
 30
0.0
 10
-60.13815665526417
 20
0.3049729408362229
 30
0.0
 10
-59.44396477314781
 20
0.6743917851270878
 30
0.0
 10
-58.78048439364715
 20
1.027467298279962
 30
0.0
 10
-58.20657747519415
 20
1.439329893829928
 30
0.0
 10
-57.85494570853
 20
1.712905503777076
 30
0.0
 10
-57.62977387502221
 20
1.888093093565139
 30
0.0
 10
-57.50000062358537
 20
1.997912049311443
 30
0.0
 10
-57.49999999999388
 20
1.999999999999915
 30
0.0
  0
SPLINE
  5
29915
330
29905
100
AcDbEntity
  8
0
100
AcDbSpline
210
0.0
220
0.0
230
1.0
 70
     8
 71
     3
 72
    11
 73
     7
 74
     0
 42
0.000000001
 43
0.0000000001
 40
-1.0
 40
-1.0
 40
-1.0
 40
-1.0
 40
-0.3390351070332902
 40
-0.3390351070332902
 40
-0.3390351070332902
 40
0.0
 40
0.0
 40
0.0
 40
0.0
 10
-59.50000000000003
 20
2.000000000000056
 30
0.0
 10
-59.49998686142276
 20
2.000833819686765
 30
0.0
 10
-59.90933450462981
 20
2.000388046962799
 30
0.0
 10
-60.53132982762324
 20
2.000035420164254
 30
0.0
 10
-60.85037589670986
 20
1.999854543894335
 30
0.0
 10
-61.22934079934893
 20
1.999932245804235
 30
0.0
 10
-61.63175911206863
 20
1.999999998863075
 30
0.0
  0
ARC
  5
29916
330
29905
100
AcDbEntity
  8
0
100
AcDbCircle
 10
-61.5
 20
4.000000000000004
 30
0.0
 40
1.999999999999983
100
AcDbArc
 50
270.7311032811988
 51
0.0
  0
LINE
  5
29917
330
29905
100
AcDbEntity
  8
0
100
AcDbLine
 10
55.5
 20
1.999999999999982
 30
0.0
 11
-55.5
 21
1.999999999999982
 31
0.0
  0
LINE
  5
29918
330
29905
100
AcDbEntity
  8
0
100
AcDbLine
 10
-59.50000000000001
 20
2.00000000000006
 30
0.0
 11
-55.5
 21
2.000000000000056
 31
0.0
  0
LINE
  5
29919
330
29905
100
AcDbEntity
  8
0
100
AcDbLine
 10
55.49999999999994
 20
1.999999999999943
 30
0.0
 11
59.49999999999995
 21
1.999999999999939
 31
0.0
  0
LINE
  5
2991A
330
29905
100
AcDbEntity
  8
0
100
AcDbLine
 10
-55.5
 20
86.00000000000001
 30
0.0
 11
-59.5
 21
86.00000000000001
 31
0.0
  0
LINE
  5
2991B
330
29905
100
AcDbEntity
  8
0
100
AcDbLine
 10
-59.50000000000002
 20
2.00000000000006
 30
0.0
 11
-59.5
 21
86.00000000000001
 31
0.0
  0
LINE
  5
2991C
330
29905
100
AcDbEntity
  8
0
100
AcDbLine
 10
59.49999999999995
 20
1.999999999999939
 30
0.0
 11
59.5
 21
86.00000000000001
 31
0.0
  0
LINE
  5
2991D
330
29905
100
AcDbEntity
  8
0
100
AcDbLine
 10
55.5
 20
86.00000000000001
 30
0.0
 11
59.5
 21
86.00000000000001
 31
0.0
  0
LINE
  5
2991E
330
29905
100
AcDbEntity
  8
0
100
AcDbLine
 10
99.00000000000005
 20
0.0
 30
0.0
 11
89.17995039702379
 21
0.0
 31
0.0
  0
LINE
  5
2991F
330
29905
100
AcDbEntity
  8
0
100
AcDbLine
 10
89.17995039702379
 20
0.0
 30
0.0
 11
61.6317591116654
 21
0.0
 31
0.0
  0
LINE
  5
29920
330
29905
100
AcDbEntity
  8
0
100
AcDbLine
 10
89.17995039702379
 20
1.999999999999992
 30
0.0
 11
89.17995039702379
 21
0.0
 31
0.0
  0
LINE
  5
29921
330
29905
100
AcDbEntity
  8
0
100
AcDbLine
 10
61.6317591116654
 20
2.000000000000014
 30
0.0
 11
89.17995039702379
 21
1.999999999999992
 31
0.0
  0
LINE
  5
29922
330
29905
100
AcDbEntity
  8
0
100
AcDbLine
 10
99.00000000000005
 20
1.999999999999992
 30
0.0
 11
99.00000000000005
 21
0.0
 31
0.0
  0
LINE
  5
29923
330
29905
100
AcDbEntity
  8
0
100
AcDbLine
 10
89.17995039702379
 20
1.999999999999992
 30
0.0
 11
99.00000000000005
 21
1.999999999999992
 31
0.0
  0
LINE
  5
29924
330
29905
100
AcDbEntity
  8
0
100
AcDbLine
 10
-99.00000000000005
 20
1.999999999999992
 30
0.0
 11
-89.17995039702379
 21
1.999999999999992
 31
0.0
  0
LINE
  5
29925
330
29905
100
AcDbEntity
  8
0
100
AcDbLine
 10
-89.17995039702379
 20
1.999999999999992
 30
0.0
 11
-61.6317591116654
 21
2.000000000000014
 31
0.0
  0
LINE
  5
29926
330
29905
100
AcDbEntity
  8
0
100
AcDbLine
 10
-61.6317591116654
 20
0.0
 30
0.0
 11
-89.17995039702379
 21
0.0
 31
0.0
  0
LINE
  5
29927
330
29905
100
AcDbEntity
  8
0
100
AcDbLine
 10
-89.17995039702379
 20
1.999999999999992
 30
0.0
 11
-89.17995039702379
 21
0.0
 31
0.0
  0
LINE
  5
29928
330
29905
100
AcDbEntity
  8
0
100
AcDbLine
 10
-89.17995039702379
 20
0.0
 30
0.0
 11
-99.00000000000005
 21
0.0
 31
0.0
  0
LINE
  5
29929
330
29905
100
AcDbEntity
  8
0
100
AcDbLine
 10
-99.00000000000005
 20
0.0
 30
0.0
 11
-99.00000000000005
 21
1.999999999999992
 31
0.0
  0
CIRCLE
  5
2992A
330
29905
100
AcDbEntity
  8
0
100
AcDbCircle
 10
0.0
 20
47.99999999999998
 30
0.0
 40
2.5
  0
CIRCLE
  5
2992B
330
29905
100
AcDbEntity
  8
0
100
AcDbCircle
 10
0.0
 20
67.99999999999998
 30
0.0
 40
2.5
  0
LINE
  5
2992C
330
29905
100
AcDbEntity
  8
0
100
AcDbLine
 10
55.49999999999998
 20
86.00000000000001
 30
0.0
 11
-55.5
 21
86.00000000000001
 31
0.0
  0
ENDBLK
  5
29907
330
29905
100
AcDbEntity
  8
0
100
AcDbBlockEnd
  0
BLOCK
  5
2992E
330
2992D
100
AcDbEntity
  8
0
100
AcDbBlockBegin
  2
SAEL500_115_2-ISO
 70
     0
 10
0.0
 20
0.0
 30
0.0
  3
SAEL500_115_2-ISO
  1

  0
SPLINE
  5
29930
330
2992D
100
AcDbEntity
  8
0
100
AcDbSpline
210
0.0
220
0.0
230
1.0
 70
     8
 71
     3
 72
    14
 73
    10
 74
     0
 42
0.000000001
 43
0.0000000001
 40
0.0
 40
0.0
 40
0.0
 40
0.0
 40
0.2870001856672752
 40
0.2870001856672752
 40
0.2870001856672752
 40
0.8282911260917206
 40
0.8282911260917206
 40
0.8282911260917206
 40
1.0
 40
1.0
 40
1.0
 40
1.0
 10
72.35868276018919
 20
-67.56830355493433
 30
0.0
 10
72.10420810675953
 20
-67.47342769772808
 30
0.0
 10
71.88791524669813
 20
-67.45167843813575
 30
0.0
 10
71.68707968310285
 20
-67.48514076396839
 30
0.0
 10
71.30829779891548
 20
-67.54825171205585
 30
0.0
 10
71.02284325122258
 20
-67.81923263006013
 30
0.0
 10
70.90724120877002
 20
-68.25864544618901
 30
0.0
 10
70.87056980888393
 20
-68.39803643577252
 30
0.0
 10
70.85213849198666
 20
-68.55504138966096
 30
0.0
 10
70.85130143647441
 20
-68.7249779643821
 30
0.0
  0
LINE
  5
29931
330
2992D
100
AcDbEntity
  8
0
100
AcDbLine
 10
70.85130143647446
 20
-68.72497796438198
 30
0.0
 11
69.43708787410134
 21
-69.54147454530971
 31
0.0
  0
LINE
  5
29932
330
2992D
100
AcDbEntity
  8
0
100
AcDbLine
 10
72.26551499884755
 20
-67.51451312284395
 30
0.0
 11
72.35868276018925
 21
-67.56830355493438
 31
0.0
  0
ELLIPSE
  5
29933
330
2992D
100
AcDbEntity
  8
0
100
AcDbEllipse
 10
70.85130143647446
 20
-68.33100970377168
 30
0.0
 11
1.999999999999984
 21
-0.0000000000001191
 31
0.0
210
0.0
220
0.0
230
1.0
 40
0.5773502691896257
 41
0.7853981633976961
 42
2.356194490192601
  0
LINE
  5
29934
330
2992D
100
AcDbEntity
  8
0
100
AcDbLine
 10
69.43708787410137
 20
-69.54147454530975
 30
0.0
 11
69.43708787410137
 21
-67.51451312284395
 31
0.0
  0
ELLIPSE
  5
29935
330
2992D
100
AcDbEntity
  8
0
100
AcDbEllipse
 10
-16.12283264947092
 20
-18.11646997671651
 30
0.0
 11
3.999999999999986
 21
0.0000000000000001
 31
0.0
210
0.0
220
0.0
230
1.0
 40
0.5773502691896258
 41
5.497787143782133
 42
6.283185307179588
  0
LINE
  5
29936
330
2992D
100
AcDbEntity
  8
0
100
AcDbLine
 10
-13.29440552472473
 20
-19.74946313857196
 30
0.0
 11
-13.29440552472473
 21
-19.93779320129975
 31
0.0
  0
LINE
  5
29937
330
2992D
100
AcDbEntity
  8
0
100
AcDbLine
 10
-13.29440552472473
 20
-19.93779320129975
 30
0.0
 11
-13.29440552472473
 21
-21.77642456103774
 31
0.0
  0
LINE
  5
29938
330
2992D
100
AcDbEntity
  8
0
100
AcDbLine
 10
-11.95643381360638
 20
-21.00394623345547
 30
0.0
 11
-13.29440552472473
 21
-21.77642456103774
 31
0.0
  0
LINE
  5
29939
330
2992D
100
AcDbEntity
  8
0
100
AcDbLine
 10
-11.88019196235168
 20
-20.95992798011004
 30
0.0
 11
-11.95643381360638
 21
-21.00394623345547
 31
0.0
  0
SPLINE
  5
2993A
330
2992D
100
AcDbEntity
  8
0
100
AcDbSpline
210
0.0
220
0.0
230
1.0
 70
     8
 71
     3
 72
    11
 73
     7
 74
     0
 42
0.000000001
 43
0.0000000001
 40
0.5566212501596883
 40
0.5566212501596883
 40
0.5566212501596883
 40
0.5566212501596883
 40
0.7616502545753353
 40
0.7616502545753353
 40
0.7616502545753353
 40
1.0
 40
1.0
 40
1.0
 40
1.0
 10
-12.08104756967607
 20
-18.66860296368806
 30
0.0
 10
-12.00699639702081
 20
-18.99668363308778
 30
0.0
 10
-11.95857317559807
 20
-19.34019954489204
 30
0.0
 10
-11.92817001468569
 20
-19.69729200821518
 30
0.0
 10
-11.89282581699899
 20
-20.11241814106998
 30
0.0
 10
-11.87871599920241
 20
-20.52145788670623
 30
0.0
 10
-11.88019196234725
 20
-20.95992798008362
 30
0.0
  0
SPLINE
  5
2993B
330
2992D
100
AcDbEntity
  8
0
100
AcDbSpline
210
0.0
220
0.0
230
1.0
 70
     8
 71
     3
 72
    16
 73
    12
 74
     0
 42
0.000000001
 43
0.0000000001
 40
0.0002612202461404
 40
0.0002612202461404
 40
0.0002612202461404
 40
0.0002612202461404
 40
0.0136518165572276
 40
0.0136518165572276
 40
0.0248504485954007
 40
0.0248504485954007
 40
0.0422523278287765
 40
0.0422523278287765
 40
0.059085258487454
 40
0.059085258487454
 40
0.0689003655589278
 40
0.0689003655589278
 40
0.0689003655589278
 40
0.0689003655589278
 10
-12.12282916166621
 20
-18.11646996942268
 30
0.0
 10
-12.12273579671782
 20
-18.16111577937686
 30
0.0
 10
-12.12247635608726
 20
-18.20601989366181
 30
0.0
 10
-12.12108936101898
 20
-18.2864430741624
 30
0.0
 10
-12.12009592119964
 20
-18.32259912754059
 30
0.0
 10
-12.11632830352945
 20
-18.41033345045733
 30
0.0
 10
-12.11277351955849
 20
-18.46010424711269
 30
0.0
 10
-12.10385125718065
 20
-18.54514111506308
 30
0.0
 10
-12.09856543959443
 20
-18.58178854759378
 30
0.0
 10
-12.08898480826205
 20
-18.63524747268754
 30
0.0
 10
-12.08517137462934
 20
-18.65410783990991
 30
0.0
 10
-12.08095962790948
 20
-18.67292377419999
 30
0.0
  0
LINE
  5
2993C
330
2992D
100
AcDbEntity
  8
0
100
AcDbLine
 10
-11.88019196235168
 20
-20.95992798011004
 30
0.0
 11
-11.88019196235168
 21
-36.04878479565441
 31
0.0
  0
ELLIPSE
  5
2993D
330
2992D
100
AcDbEntity
  8
0
100
AcDbEllipse
 10
-10.46597839997858
 20
-36.86528137658213
 30
0.0
 11
1.000000000000105
 21
-1.732050807568817
 31
0.0
210
0.0
220
0.0
230
1.0
 40
0.5773502691896264
 41
3.926990816987
 42
5.497787143781897
  0
LINE
  5
2993E
330
2992D
100
AcDbEntity
  8
0
100
AcDbLine
 10
-10.46597839997851
 20
-38.49827453843756
 30
0.0
 11
38.32438950189326
 21
-66.6674065804441
 31
0.0
  0
LINE
  5
2993F
330
2992D
100
AcDbEntity
  8
0
100
AcDbLine
 10
43.489392651744
 20
-69.64942253937569
 30
0.0
 11
44.47309485102728
 21
-70.21736326893433
 31
0.0
  0
LINE
  5
29940
330
2992D
100
AcDbEntity
  8
0
100
AcDbLine
 10
70.85130143647446
 20
-68.72497796438198
 30
0.0
 11
70.85130143647446
 21
-83.81383477992633
 31
0.0
  0
ELLIPSE
  5
29941
330
2992D
100
AcDbEntity
  8
0
100
AcDbEllipse
 10
68.02287431172826
 20
-82.18084161807087
 30
0.0
 11
2.000000000000003
 21
-3.464101615137753
 31
0.0
210
0.0
220
0.0
230
1.0
 40
0.5773502691896264
 41
0.0
 42
0.7853981633974403
  0
ELLIPSE
  5
29942
330
2992D
100
AcDbEntity
  8
0
100
AcDbEllipse
 10
-69.86294801964854
 20
-71.15813777554662
 30
0.0
 11
2.000000000000209
 21
-3.464101615137639
 31
0.0
210
0.0
220
0.0
230
1.0
 40
0.5773502691896258
 41
3.926990816986995
 42
5.497787143781893
  0
LINE
  5
29943
330
2992D
100
AcDbEntity
  8
0
100
AcDbLine
 10
-69.86294801964854
 20
-72.79113093740207
 30
0.0
 11
-10.46597839997851
 21
-38.49827453843756
 31
0.0
  0
LINE
  5
29944
330
2992D
100
AcDbEntity
  8
0
100
AcDbLine
 10
-69.86294801964854
 20
-74.42412409925752
 30
0.0
 11
-69.86294801964854
 21
-72.79113093740207
 31
0.0
  0
ELLIPSE
  5
29945
330
2992D
100
AcDbEntity
  8
0
100
AcDbEllipse
 10
-69.86294801964854
 20
-71.15813777554662
 30
0.0
 11
1.000000000000104
 21
-1.732050807568819
 31
0.0
210
0.0
220
0.0
230
1.0
 40
0.5773502691896258
 41
3.926990816986995
 42
5.497787143781896
  0
LINE
  5
29946
330
2992D
100
AcDbEntity
  8
0
100
AcDbLine
 10
-72.69137514439472
 20
-69.52514461369116
 30
0.0
 11
-71.27716158202163
 21
-70.3416411946189
 31
0.0
  0
LINE
  5
29947
330
2992D
100
AcDbEntity
  8
0
100
AcDbLine
 10
-71.27716158202163
 20
-70.3416411946189
 30
0.0
 11
-11.88019196235167
 21
-36.04878479565441
 31
0.0
  0
LINE
  5
29948
330
2992D
100
AcDbEntity
  8
0
100
AcDbLine
 10
70.85130143647446
 20
-83.81383477992633
 30
0.0
 11
11.45433181680443
 21
-118.1066911788908
 31
0.0
  0
ELLIPSE
  5
29949
330
2992D
100
AcDbEntity
  8
0
100
AcDbEllipse
 10
8.625904692058243
 20
-116.4736980170354
 30
0.0
 11
2.000000000000002
 21
-3.464101615137758
 31
0.0
210
0.0
220
0.0
230
1.0
 40
0.5773502691896258
 41
5.497787143782137
 42
7.068583470577033
  0
ELLIPSE
  5
2994A
330
2992D
100
AcDbEntity
  8
0
100
AcDbEllipse
 10
86.4076506225785
 20
48.05036303990142
 30
0.0
 11
-3.25
 21
5.629165124598853
 31
0.0
210
0.0
220
0.0
230
1.0
 40
0.5773502691896255
 41
0.2193254863005942
 42
2.922267167289195
  0
ELLIPSE
  5
2994B
330
2992D
100
AcDbEntity
  8
0
100
AcDbEllipse
 10
94.18582521563052
 20
47.64211474943755
 30
0.0
 11
1.250000000000129
 21
-2.165063509461022
 31
0.0
210
0.0
220
0.0
230
1.0
 40
0.5773502691896258
 41
3.7428568702686
 42
5.681921090500121
  0
LINE
  5
2994C
330
2992D
100
AcDbEntity
  8
0
100
AcDbLine
 10
73.67972856122064
 20
71.72876388680546
 30
0.0
 11
100.1962328557161
 21
56.41945299441061
 31
0.0
  0
LINE
  5
2994D
330
2992D
100
AcDbEntity
  8
0
100
AcDbLine
 10
100.1962328557162
 20
-71.31327212592291
 30
0.0
 11
100.1962328557161
 21
56.41945299441061
 31
0.0
  0
ELLIPSE
  5
2994E
330
2992D
100
AcDbEntity
  8
0
100
AcDbEllipse
 10
70.85130143647446
 20
70.09577072495003
 30
0.0
 11
4.000000000000005
 21
-0.0000000000002379
 31
0.0
210
0.0
220
0.0
230
1.0
 40
0.5773502691896258
 41
0.7853981633976881
 42
2.356194490192585
  0
LINE
  5
2994F
330
2992D
100
AcDbEntity
  8
0
100
AcDbLine
 10
10.04011825443132
 20
-117.2901945979631
 30
0.0
 11
8.625904692058231
 21
-118.1066911788908
 31
0.0
  0
ELLIPSE
  5
29950
330
2992D
100
AcDbEntity
  8
0
100
AcDbEllipse
 10
43.62769036079234
 20
45.39674915188627
 30
0.0
 11
1.249999999999871
 21
2.165063509461171
 31
0.0
210
0.0
220
0.0
230
1.0
 40
0.5773502691896259
 41
3.742856870268584
 42
5.681921090500105
  0
ELLIPSE
  5
29951
330
2992D
100
AcDbEntity
  8
0
100
AcDbEllipse
 10
45.04190392316544
 20
44.58025257095855
 30
0.0
 11
-1.25
 21
-2.165063509461097
 31
0.0
210
0.0
220
0.0
230
0.9999999999999998
 40
0.577350269189626
 41
0.0
 42
6.283185307179586
  0
LINE
  5
29952
330
2992D
100
AcDbEntity
  8
0
100
AcDbLine
 10
72.35868276018925
 20
-67.56830355493439
 30
0.0
 11
91.83819562749034
 21
-74.84868207100966
 31
0.0
  0
LINE
  5
29953
330
2992D
100
AcDbEntity
  8
0
100
AcDbLine
 10
98.78201929334311
 20
-72.12976870685062
 30
0.0
 11
100.1962328557162
 21
-71.31327212592291
 31
0.0
  0
LINE
  5
29954
330
2992D
100
AcDbEntity
  8
0
100
AcDbLine
 10
91.83819562749034
 20
-74.84868207100966
 30
0.0
 11
98.78201929334311
 21
-72.12976870685062
 31
0.0
  0
LINE
  5
29955
330
2992D
100
AcDbEntity
  8
0
100
AcDbLine
 10
31.38056583604045
 20
-83.88733972254014
 30
0.0
 11
38.32438950189324
 21
-73.1503894330103
 31
0.0
  0
LINE
  5
29956
330
2992D
100
AcDbEntity
  8
0
100
AcDbLine
 10
32.79477939841354
 20
-84.70383630346786
 30
0.0
 11
31.38056583604045
 21
-83.88733972254014
 31
0.0
  0
LINE
  5
29957
330
2992D
100
AcDbEntity
  8
0
100
AcDbLine
 10
39.73860306426633
 20
-73.96688601393802
 30
0.0
 11
32.79477939841354
 21
-84.70383630346786
 31
0.0
  0
LINE
  5
29958
330
2992D
100
AcDbEntity
  8
0
100
AcDbLine
 10
39.73860306426633
 20
-73.96688601393802
 30
0.0
 11
38.32438950189324
 21
-73.1503894330103
 31
0.0
  0
LINE
  5
29959
330
2992D
100
AcDbEntity
  8
0
100
AcDbLine
 10
12.9617131405192
 20
-98.27163720069648
 30
0.0
 11
31.38056583604045
 21
-83.88733972254014
 31
0.0
  0
LINE
  5
2995A
330
2992D
100
AcDbEntity
  8
0
100
AcDbLine
 10
14.37592670289228
 20
-99.0881337816242
 30
0.0
 11
12.9617131405192
 21
-98.27163720069648
 31
0.0
  0
LINE
  5
2995B
330
2992D
100
AcDbEntity
  8
0
100
AcDbLine
 10
32.79477939841354
 20
-84.70383630346786
 30
0.0
 11
14.37592670289228
 21
-99.0881337816242
 31
0.0
  0
ELLIPSE
  5
2995C
330
2992D
100
AcDbEntity
  8
0
100
AcDbEllipse
 10
13.57565216036406
 20
-101.9376401583509
 30
0.0
 11
2.500000000000259
 21
4.330127018922045
 31
0.0
210
0.0
220
0.0
230
0.9999999999999998
 40
0.5773502691896258
 41
0.9599310885970764
 42
2.356194490192585
  0
LINE
  5
2995D
330
2992D
100
AcDbEntity
  8
0
100
AcDbLine
 10
11.4543318168044
 20
-104.795378191598
 30
0.0
 11
10.04011825443132
 21
-103.9788816106703
 31
0.0
  0
ELLIPSE
  5
2995E
330
2992D
100
AcDbEntity
  8
0
100
AcDbEllipse
 10
14.98986572273715
 20
-102.7541367392786
 30
0.0
 11
-2.499999999999743
 21
-4.330127018922342
 31
0.0
210
0.0
220
0.0
230
0.9999999999999998
 40
0.5773502691896259
 41
4.101523742186527
 42
5.497787143781943
  0
LINE
  5
2995F
330
2992D
100
AcDbEntity
  8
0
100
AcDbLine
 10
38.32438950189324
 20
-73.1503894330103
 30
0.0
 11
38.32438950189326
 21
54.58233568732322
 31
0.0
  0
LINE
  5
29960
330
2992D
100
AcDbEntity
  8
0
100
AcDbLine
 10
39.73860306426635
 20
53.7658391063955
 30
0.0
 11
39.73860306426633
 21
-73.96688601393802
 31
0.0
  0
LINE
  5
29961
330
2992D
100
AcDbEntity
  8
0
100
AcDbLine
 10
38.32438950189326
 20
54.58233568732322
 30
0.0
 11
39.73860306426635
 21
53.7658391063955
 31
0.0
  0
LINE
  5
29962
330
2992D
100
AcDbEntity
  8
0
100
AcDbLine
 10
100.1962328557161
 20
56.41945299441061
 30
0.0
 11
98.78201929334307
 21
55.60295641348287
 31
0.0
  0
LINE
  5
29963
330
2992D
100
AcDbEntity
  8
0
100
AcDbLine
 10
98.78201929334311
 20
-72.12976870685062
 30
0.0
 11
98.78201929334307
 21
55.60295641348289
 31
0.0
  0
LINE
  5
29964
330
2992D
100
AcDbEntity
  8
0
100
AcDbLine
 10
11.4543318168044
 20
-104.795378191598
 30
0.0
 11
11.45433181680444
 21
-118.1066911788908
 31
0.0
  0
LINE
  5
29965
330
2992D
100
AcDbEntity
  8
0
100
AcDbLine
 10
69.43708787410137
 20
-67.51451312284395
 30
0.0
 11
69.43708787410137
 21
70.91226730587774
 31
0.0
  0
LINE
  5
29966
330
2992D
100
AcDbEntity
  8
0
100
AcDbLine
 10
69.43708787410137
 20
70.91226730587774
 30
0.0
 11
39.73860306426635
 21
53.7658391063955
 31
0.0
  0
LINE
  5
29967
330
2992D
100
AcDbEntity
  8
0
100
AcDbLine
 10
38.32438950189326
 20
54.58233568732322
 30
0.0
 11
68.02287431172826
 21
71.72876388680546
 31
0.0
  0
LINE
  5
29968
330
2992D
100
AcDbEntity
  8
0
100
AcDbLine
 10
10.04011825443133
 20
-117.2901945979631
 30
0.0
 11
10.04011825443132
 21
-103.9788816106703
 31
0.0
  0
LINE
  5
29969
330
2992D
100
AcDbEntity
  8
0
100
AcDbLine
 10
8.625904692058231
 20
-118.1066911788908
 30
0.0
 11
8.625904692058231
 21
-119.7396843407463
 31
0.0
  0
LINE
  5
2996A
330
2992D
100
AcDbEntity
  8
0
100
AcDbLine
 10
10.04011825443133
 20
-117.2901945979631
 30
0.0
 11
11.45433181680444
 21
-118.1066911788908
 31
0.0
  0
ELLIPSE
  5
2996B
330
2992D
100
AcDbEntity
  8
0
100
AcDbEllipse
 10
8.625904692058243
 20
-116.4736980170354
 30
0.0
 11
1.000000000000001
 21
-1.732050807568879
 31
0.0
210
0.0
220
0.0
230
1.0
 40
0.5773502691896258
 41
5.497787143782142
 42
7.068583470577038
  0
LINE
  5
2996C
330
2992D
100
AcDbEntity
  8
0
100
AcDbLine
 10
72.26551499884752
 20
-67.51451312284395
 30
0.0
 11
72.26551499884755
 21
70.91226730587774
 31
0.0
  0
ELLIPSE
  5
2996D
330
2992D
100
AcDbEntity
  8
0
100
AcDbEllipse
 10
70.85130143647446
 20
70.09577072495003
 30
0.0
 11
-2.000000000000001
 21
-0.0000000000001194
 31
0.0
210
0.0
220
0.0
230
1.0
 40
0.5773502691896258
 41
3.926990816987
 42
5.497787143781896
  0
LINE
  5
2996E
330
2992D
100
AcDbEntity
  8
0
100
AcDbLine
 10
69.43708787410137
 20
70.91226730587774
 30
0.0
 11
68.02287431172826
 21
71.72876388680546
 31
0.0
  0
LINE
  5
2996F
330
2992D
100
AcDbEntity
  8
0
100
AcDbLine
 10
72.26551499884755
 20
70.91226730587774
 30
0.0
 11
73.67972856122064
 21
71.72876388680546
 31
0.0
  0
LINE
  5
29970
330
2992D
100
AcDbEntity
  8
0
100
AcDbLine
 10
98.78201929334307
 20
55.60295641348287
 30
0.0
 11
72.26551499884755
 21
70.91226730587774
 31
0.0
  0
ELLIPSE
  5
29971
330
2992D
100
AcDbEntity
  8
0
100
AcDbEllipse
 10
84.99343706020541
 20
47.23386645897369
 30
0.0
 11
-3.25
 21
5.629165124598853
 31
0.0
210
0.0
220
0.0
230
1.0
 40
0.5773502691896258
 41
0.0
 42
6.283185307179586
  0
ELLIPSE
  5
29972
330
2992D
100
AcDbEntity
  8
0
100
AcDbEllipse
 10
92.77161165325743
 20
46.82561816850982
 30
0.0
 11
-1.25
 21
2.165063509461097
 31
0.0
210
0.0
220
0.0
230
1.0
 40
0.5773502691896258
 41
0.0
 42
6.283185307179586
  0
LINE
  5
29973
330
2992D
100
AcDbEntity
  8
0
100
AcDbLine
 10
10.62590469205825
 20
-119.9377996321732
 30
0.0
 11
70.02287431172831
 21
-85.64494323320865
 31
0.0
  0
ELLIPSE
  5
29974
330
2992D
100
AcDbEntity
  8
0
100
AcDbEllipse
 10
86.40765062257848
 20
-58.094192480703
 30
0.0
 11
-3.25
 21
5.629165124598853
 31
0.0
210
0.0
220
0.0
230
1.0
 40
0.5773502691896255
 41
0.2193254863005928
 42
2.922267167289199
  0
ELLIPSE
  5
29975
330
2992D
100
AcDbEntity
  8
0
100
AcDbEllipse
 10
84.99343706020539
 20
-58.91068906163072
 30
0.0
 11
-3.25
 21
5.629165124598853
 31
0.0
210
0.0
220
0.0
230
1.0
 40
0.5773502691896258
 41
0.0
 42
6.283185307179586
  0
ELLIPSE
  5
29976
330
2992D
100
AcDbEntity
  8
0
100
AcDbEllipse
 10
86.4076506225785
 20
-0.9394318157621572
 30
0.0
 11
-3.25
 21
5.629165124598855
 31
0.0
210
0.0
220
0.0
230
1.0
 40
0.5773502691896257
 41
0.2193254863005917
 42
2.922267167289199
  0
ELLIPSE
  5
29977
330
2992D
100
AcDbEntity
  8
0
100
AcDbEllipse
 10
84.99343706020541
 20
-1.755928396689876
 30
0.0
 11
-3.25
 21
5.629165124598853
 31
0.0
210
0.0
220
0.0
230
1.0
 40
0.5773502691896258
 41
0.0
 42
6.283185307179586
  0
ELLIPSE
  5
29978
330
2992D
100
AcDbEntity
  8
0
100
AcDbEllipse
 10
78.62947602952647
 20
-49.52097838096187
 30
0.0
 11
1.250000000000129
 21
-2.165063509461022
 31
0.0
210
0.0
220
0.0
230
1.0
 40
0.5773502691896258
 41
3.742856870268576
 42
5.681921090500121
  0
ELLIPSE
  5
29979
330
2992D
100
AcDbEntity
  8
0
100
AcDbEllipse
 10
78.62947602952647
 20
-33.19104676240735
 30
0.0
 11
1.250000000000129
 21
-2.165063509461022
 31
0.0
210
0.0
220
0.0
230
1.0
 40
0.5773502691896258
 41
3.742856870268576
 42
5.681921090500121
  0
ELLIPSE
  5
2997A
330
2992D
100
AcDbEntity
  8
0
100
AcDbEllipse
 10
78.62947602952647
 20
-16.86111514385282
 30
0.0
 11
1.250000000000129
 21
-2.165063509461022
 31
0.0
210
0.0
220
0.0
230
1.0
 40
0.5773502691896258
 41
3.742856870268578
 42
5.681921090500121
  0
ELLIPSE
  5
2997B
330
2992D
100
AcDbEntity
  8
0
100
AcDbEllipse
 10
78.62947602952647
 20
-0.5311835252982977
 30
0.0
 11
1.250000000000129
 21
-2.165063509461022
 31
0.0
210
0.0
220
0.0
230
1.0
 40
0.5773502691896258
 41
3.742856870268578
 42
5.681921090500121
  0
ELLIPSE
  5
2997C
330
2992D
100
AcDbEntity
  8
0
100
AcDbEllipse
 10
78.62947602952647
 20
15.79874809325622
 30
0.0
 11
1.250000000000129
 21
-2.165063509461022
 31
0.0
210
0.0
220
0.0
230
1.0
 40
0.5773502691896258
 41
3.742856870268578
 42
5.681921090500121
  0
ELLIPSE
  5
2997D
330
2992D
100
AcDbEntity
  8
0
100
AcDbEllipse
 10
78.62947602952647
 20
32.12867971181076
 30
0.0
 11
1.250000000000129
 21
-2.165063509461022
 31
0.0
210
0.0
220
0.0
230
1.0
 40
0.5773502691896258
 41
3.742856870268576
 42
5.681921090500121
  0
ELLIPSE
  5
2997E
330
2992D
100
AcDbEntity
  8
0
100
AcDbEllipse
 10
78.62947602952647
 20
48.45861133036528
 30
0.0
 11
1.250000000000129
 21
-2.165063509461022
 31
0.0
210
0.0
220
0.0
230
1.0
 40
0.5773502691896258
 41
3.742856870268585
 42
5.681921090500116
  0
ELLIPSE
  5
2997F
330
2992D
100
AcDbEntity
  8
0
100
AcDbEllipse
 10
77.21526246715339
 20
-50.3374749618896
 30
0.0
 11
-1.25
 21
2.165063509461097
 31
0.0
210
0.0
220
0.0
230
1.0
 40
0.5773502691896258
 41
0.0
 42
6.283185307179586
  0
ELLIPSE
  5
29980
330
2992D
100
AcDbEntity
  8
0
100
AcDbEllipse
 10
77.21526246715339
 20
-34.00754334333508
 30
0.0
 11
-1.25
 21
2.165063509461097
 31
0.0
210
0.0
220
0.0
230
1.0
 40
0.5773502691896258
 41
0.0
 42
6.283185307179586
  0
ELLIPSE
  5
29981
330
2992D
100
AcDbEntity
  8
0
100
AcDbEllipse
 10
77.21526246715339
 20
-17.67761172478054
 30
0.0
 11
-1.25
 21
2.165063509461097
 31
0.0
210
0.0
220
0.0
230
1.0
 40
0.5773502691896258
 41
0.0
 42
6.283185307179586
  0
ELLIPSE
  5
29982
330
2992D
100
AcDbEntity
  8
0
100
AcDbEllipse
 10
77.21526246715339
 20
-1.347680106226016
 30
0.0
 11
-1.25
 21
2.165063509461097
 31
0.0
210
0.0
220
0.0
230
1.0
 40
0.5773502691896258
 41
0.0
 42
6.283185307179586
  0
ELLIPSE
  5
29983
330
2992D
100
AcDbEntity
  8
0
100
AcDbEllipse
 10
77.21526246715339
 20
14.98225151232851
 30
0.0
 11
-1.25
 21
2.165063509461097
 31
0.0
210
0.0
220
0.0
230
1.0
 40
0.5773502691896258
 41
0.0
 42
6.283185307179586
  0
ELLIPSE
  5
29984
330
2992D
100
AcDbEntity
  8
0
100
AcDbEllipse
 10
77.21526246715339
 20
31.31218313088304
 30
0.0
 11
-1.25
 21
2.165063509461097
 31
0.0
210
0.0
220
0.0
230
1.0
 40
0.5773502691896258
 41
0.0
 42
6.283185307179586
  0
ELLIPSE
  5
29985
330
2992D
100
AcDbEntity
  8
0
100
AcDbEllipse
 10
77.21526246715339
 20
47.64211474943755
 30
0.0
 11
-1.25
 21
2.165063509461097
 31
0.0
210
0.0
220
0.0
230
1.0
 40
0.5773502691896258
 41
0.0
 42
6.283185307179586
  0
ELLIPSE
  5
29986
330
2992D
100
AcDbEntity
  8
0
100
AcDbEllipse
 10
78.62947602952647
 20
64.7885429489198
 30
0.0
 11
1.250000000000129
 21
-2.165063509461022
 31
0.0
210
0.0
220
0.0
230
1.0
 40
0.5773502691896258
 41
3.742856870268585
 42
5.681921090500116
  0
ELLIPSE
  5
29987
330
2992D
100
AcDbEntity
  8
0
100
AcDbEllipse
 10
-19.65836655540366
 20
119.9020621615413
 30
0.0
 11
1.25
 21
-2.165063509461096
 31
0.0
210
0.0
220
0.0
230
1.0
 40
0.577350269189626
 41
0.0
 42
6.283185307179586
  0
ELLIPSE
  5
29988
330
2992D
100
AcDbEntity
  8
0
100
AcDbEllipse
 10
-18.24415299303057
 20
120.718558742469
 30
0.0
 11
1.25000000000013
 21
-2.165063509461022
 31
0.0
210
0.0
220
0.0
230
1.0
 40
0.5773502691896259
 41
3.742856870268578
 42
5.68192109050012
  0
ELLIPSE
  5
29989
330
2992D
100
AcDbEntity
  8
0
100
AcDbEllipse
 10
77.21526246715339
 20
63.97204636799209
 30
0.0
 11
-1.25
 21
2.165063509461097
 31
0.0
210
0.0
220
0.0
230
1.0
 40
0.5773502691896258
 41
0.0
 42
6.283185307179586
  0
ELLIPSE
  5
2998A
330
2992D
100
AcDbEntity
  8
0
100
AcDbEllipse
 10
94.18582521563052
 20
-66.66740658044412
 30
0.0
 11
1.250000000000129
 21
-2.165063509461022
 31
0.0
210
0.0
220
0.0
230
1.0
 40
0.5773502691896258
 41
3.742856870268573
 42
5.68192109050011
  0
ELLIPSE
  5
2998B
330
2992D
100
AcDbEntity
  8
0
100
AcDbEllipse
 10
94.18582521563052
 20
-50.3374749618896
 30
0.0
 11
1.250000000000129
 21
-2.165063509461022
 31
0.0
210
0.0
220
0.0
230
1.0
 40
0.5773502691896258
 41
3.742856870268573
 42
5.68192109050011
  0
ELLIPSE
  5
2998C
330
2992D
100
AcDbEntity
  8
0
100
AcDbEllipse
 10
94.18582521563052
 20
-34.00754334333508
 30
0.0
 11
1.250000000000129
 21
-2.165063509461022
 31
0.0
210
0.0
220
0.0
230
1.0
 40
0.5773502691896258
 41
3.742856870268575
 42
5.68192109050011
  0
ELLIPSE
  5
2998D
330
2992D
100
AcDbEntity
  8
0
100
AcDbEllipse
 10
94.18582521563052
 20
-17.67761172478054
 30
0.0
 11
1.250000000000129
 21
-2.165063509461022
 31
0.0
210
0.0
220
0.0
230
1.0
 40
0.5773502691896258
 41
3.742856870268575
 42
5.68192109050011
  0
ELLIPSE
  5
2998E
330
2992D
100
AcDbEntity
  8
0
100
AcDbEllipse
 10
94.18582521563052
 20
-1.347680106226016
 30
0.0
 11
1.250000000000129
 21
-2.165063509461022
 31
0.0
210
0.0
220
0.0
230
1.0
 40
0.5773502691896258
 41
3.742856870268575
 42
5.68192109050011
  0
ELLIPSE
  5
2998F
330
2992D
100
AcDbEntity
  8
0
100
AcDbEllipse
 10
94.18582521563052
 20
14.98225151232851
 30
0.0
 11
1.250000000000129
 21
-2.165063509461022
 31
0.0
210
0.0
220
0.0
230
1.0
 40
0.5773502691896258
 41
3.742856870268575
 42
5.68192109050011
  0
ELLIPSE
  5
29990
330
2992D
100
AcDbEntity
  8
0
100
AcDbEllipse
 10
94.18582521563052
 20
31.31218313088304
 30
0.0
 11
1.250000000000129
 21
-2.165063509461022
 31
0.0
210
0.0
220
0.0
230
1.0
 40
0.5773502691896258
 41
3.742856870268575
 42
5.68192109050011
  0
ELLIPSE
  5
29991
330
2992D
100
AcDbEntity
  8
0
100
AcDbEllipse
 10
92.77161165325743
 20
-67.48390316137184
 30
0.0
 11
-1.25
 21
2.165063509461097
 31
0.0
210
0.0
220
0.0
230
1.0
 40
0.5773502691896258
 41
0.0
 42
6.283185307179586
  0
ELLIPSE
  5
29992
330
2992D
100
AcDbEntity
  8
0
100
AcDbEllipse
 10
92.77161165325743
 20
-51.15397154281732
 30
0.0
 11
-1.25
 21
2.165063509461097
 31
0.0
210
0.0
220
0.0
230
1.0
 40
0.5773502691896258
 41
0.0
 42
6.283185307179586
  0
ELLIPSE
  5
29993
330
2992D
100
AcDbEntity
  8
0
100
AcDbEllipse
 10
92.77161165325743
 20
-34.82403992426279
 30
0.0
 11
-1.25
 21
2.165063509461097
 31
0.0
210
0.0
220
0.0
230
1.0
 40
0.5773502691896258
 41
0.0
 42
6.283185307179586
  0
ELLIPSE
  5
29994
330
2992D
100
AcDbEntity
  8
0
100
AcDbEllipse
 10
92.77161165325743
 20
-18.49410830570827
 30
0.0
 11
-1.25
 21
2.165063509461097
 31
0.0
210
0.0
220
0.0
230
1.0
 40
0.5773502691896258
 41
0.0
 42
6.283185307179586
  0
ELLIPSE
  5
29995
330
2992D
100
AcDbEntity
  8
0
100
AcDbEllipse
 10
92.77161165325743
 20
-2.164176687153744
 30
0.0
 11
-1.25
 21
2.165063509461097
 31
0.0
210
0.0
220
0.0
230
1.0
 40
0.5773502691896258
 41
0.0
 42
6.283185307179586
  0
ELLIPSE
  5
29996
330
2992D
100
AcDbEntity
  8
0
100
AcDbEllipse
 10
92.77161165325743
 20
14.16575493140078
 30
0.0
 11
-1.25
 21
2.165063509461097
 31
0.0
210
0.0
220
0.0
230
1.0
 40
0.5773502691896258
 41
0.0
 42
6.283185307179586
  0
ELLIPSE
  5
29997
330
2992D
100
AcDbEntity
  8
0
100
AcDbEllipse
 10
92.77161165325743
 20
30.4956865499553
 30
0.0
 11
-1.25
 21
2.165063509461097
 31
0.0
210
0.0
220
0.0
230
1.0
 40
0.5773502691896258
 41
0.0
 42
6.283185307179586
  0
ELLIPSE
  5
29998
330
2992D
100
AcDbEntity
  8
0
100
AcDbEllipse
 10
-27.43654114845567
 20
112.1453446427279
 30
0.0
 11
-3.250000000000005
 21
5.629165124598849
 31
0.0
210
0.0
220
0.0
230
0.9999999999999998
 40
0.577350269189626
 41
4.71238898038469
 42
7.853981633974483
  0
ELLIPSE
  5
29999
330
2992D
100
AcDbEntity
  8
0
100
AcDbEllipse
 10
-26.02232758608258
 20
112.9618412236556
 30
0.0
 11
-3.250000000000003
 21
5.629165124598854
 31
0.0
210
0.0
220
0.0
230
1.0
 40
0.5773502691896259
 41
0.2193254863005869
 42
1.570796326794897
  0
ELLIPSE
  5
2999A
330
2992D
100
AcDbEntity
  8
0
100
AcDbEllipse
 10
-35.2147157415077
 20
120.718558742469
 30
0.0
 11
1.25
 21
-2.165063509461096
 31
0.0
210
0.0
220
0.0
230
1.0
 40
0.577350269189626
 41
0.0
 42
6.283185307179586
  0
ELLIPSE
  5
2999B
330
2992D
100
AcDbEntity
  8
0
100
AcDbEllipse
 10
-33.80050217913461
 20
121.5350553233968
 30
0.0
 11
1.25000000000013
 21
-2.165063509461022
 31
0.0
210
0.0
220
0.0
230
1.0
 40
0.5773502691896259
 41
3.742856870268578
 42
5.681921090500114
  0
LINE
  5
2999C
330
2992D
100
AcDbEntity
  8
0
100
AcDbLine
 10
-14.70861908709784
 20
119.4938138710775
 30
0.0
 11
-14.70861908709782
 21
121.1268070329329
 31
0.0
  0
ELLIPSE
  5
2999D
330
2992D
100
AcDbEntity
  8
0
100
AcDbEllipse
 10
-16.12283264947092
 20
120.3103104520051
 30
0.0
 11
2.000000000000002
 21
0.0
 31
0.0
210
0.0
220
0.0
230
1.0
 40
0.5773502691896258
 41
5.497787143782129
 42
7.068583470577027
  0
LINE
  5
2999E
330
2992D
100
AcDbEntity
  8
0
100
AcDbLine
 10
-14.70861908709782
 20
119.4938138710774
 30
0.0
 11
-13.29440552472473
 21
118.6773172901497
 31
0.0
  0
ELLIPSE
  5
2999F
330
2992D
100
AcDbEntity
  8
0
100
AcDbEllipse
 10
-16.12283264947092
 20
120.3103104520051
 30
0.0
 11
4.000000000000003
 21
-0.0000000000000003
 31
0.0
210
0.0
220
0.0
230
1.0
 40
0.5773502691896258
 41
5.497787143782137
 42
7.068583470577035
  0
LINE
  5
299A0
330
2992D
100
AcDbEntity
  8
0
100
AcDbLine
 10
-13.29440552472473
 20
118.6773172901497
 30
0.0
 11
-13.29440552472473
 21
-19.74946313857195
 31
0.0
  0
LINE
  5
299A1
330
2992D
100
AcDbEntity
  8
0
100
AcDbLine
 10
-14.70861908709782
 20
121.1268070329329
 30
0.0
 11
-13.29440552472473
 21
121.9433036138606
 31
0.0
  0
LINE
  5
299A2
330
2992D
100
AcDbEntity
  8
0
100
AcDbLine
 10
-12.12283264947093
 20
-18.11646997671651
 30
0.0
 11
-12.12283264947093
 21
120.3103104520051
 31
0.0
  0
LINE
  5
299A3
330
2992D
100
AcDbEntity
  8
0
100
AcDbLine
 10
-41.22512338159339
 20
136.4361179253277
 30
0.0
 11
-14.70861908709782
 21
121.1268070329329
 31
0.0
  0
LINE
  5
299A4
330
2992D
100
AcDbEntity
  8
0
100
AcDbLine
 10
-41.22512338159338
 20
104.1845029786826
 30
0.0
 11
-41.22512338159339
 21
136.4361179253277
 31
0.0
  0
LINE
  5
299A5
330
2992D
100
AcDbEntity
  8
0
100
AcDbLine
 10
-39.81090981922028
 20
137.2526145062555
 30
0.0
 11
-41.22512338159339
 21
136.4361179253277
 31
0.0
  0
LINE
  5
299A6
330
2992D
100
AcDbEntity
  8
0
100
AcDbLine
 10
-14.70861908709782
 20
119.4938138710774
 30
0.0
 11
-44.40710389693283
 21
102.3473856715952
 31
0.0
  0
LINE
  5
299A7
330
2992D
100
AcDbEntity
  8
0
100
AcDbLine
 10
-72.69137514439477
 20
-56.21383162639826
 30
0.0
 11
-72.69137514439472
 21
-69.52514461369116
 31
0.0
  0
LINE
  5
299A8
330
2992D
100
AcDbEntity
  8
0
100
AcDbLine
 10
-42.99289033455973
 20
101.5308890906675
 30
0.0
 11
-13.29440552472473
 21
118.6773172901497
 31
0.0
  0
LINE
  5
299A9
330
2992D
100
AcDbEntity
  8
0
100
AcDbLine
 10
-13.29440552472473
 20
121.9433036138606
 30
0.0
 11
-39.81090981922028
 21
137.2526145062555
 31
0.0
  0
LINE
  5
299AA
330
2992D
100
AcDbEntity
  8
0
100
AcDbLine
 10
-71.27716158202163
 20
-70.3416411946189
 30
0.0
 11
-71.27716158202168
 21
-57.03032820732598
 31
0.0
  0
LINE
  5
299AB
330
2992D
100
AcDbEntity
  8
0
100
AcDbLine
 10
-38.26589975637647
 20
4.127666448951492
 30
0.0
 11
-37.6111741659876
 21
3.115291069683427
 31
0.0
  0
LINE
  5
299AC
330
2992D
100
AcDbEntity
  8
0
100
AcDbLine
 10
-42.99289033455976
 20
-26.20183602966603
 30
0.0
 11
-49.93671400041254
 21
-36.93878631919586
 31
0.0
  0
LINE
  5
299AD
330
2992D
100
AcDbEntity
  8
0
100
AcDbLine
 10
-44.40710389693285
 20
-25.38533944873831
 30
0.0
 11
-42.99289033455976
 21
-26.20183602966603
 31
0.0
  0
LINE
  5
299AE
330
2992D
100
AcDbEntity
  8
0
100
AcDbLine
 10
-51.35092756278563
 20
-36.12228973826813
 30
0.0
 11
-44.40710389693285
 21
-25.38533944873831
 31
0.0
  0
LINE
  5
299AF
330
2992D
100
AcDbEntity
  8
0
100
AcDbLine
 10
-51.35092756278563
 20
-36.12228973826813
 30
0.0
 11
-49.93671400041254
 21
-36.93878631919586
 31
0.0
  0
LINE
  5
299B0
330
2992D
100
AcDbEntity
  8
0
100
AcDbLine
 10
-49.93671400041254
 20
-36.93878631919586
 30
0.0
 11
-68.35556669593379
 21
-51.32308379735221
 31
0.0
  0
LINE
  5
299B1
330
2992D
100
AcDbEntity
  8
0
100
AcDbLine
 10
-69.76978025830688
 20
-50.50658721642449
 30
0.0
 11
-51.35092756278563
 21
-36.12228973826813
 31
0.0
  0
LINE
  5
299B2
330
2992D
100
AcDbEntity
  8
0
100
AcDbLine
 10
-69.76978025830688
 20
-50.50658721642449
 30
0.0
 11
-68.35556669593379
 21
-51.32308379735221
 31
0.0
  0
ELLIPSE
  5
299B3
330
2992D
100
AcDbEntity
  8
0
100
AcDbEllipse
 10
-67.74162767608894
 20
-54.98908675500667
 30
0.0
 11
-2.499999999999741
 21
-4.330127018922343
 31
0.0
210
0.0
220
0.0
230
1.0
 40
0.5773502691896258
 41
4.101523742186527
 42
5.497787143781941
  0
ELLIPSE
  5
299B4
330
2992D
100
AcDbEntity
  8
0
100
AcDbEllipse
 10
-69.15584123846203
 20
-54.17259017407894
 30
0.0
 11
2.500000000000259
 21
4.330127018922045
 31
0.0
210
0.0
220
0.0
230
0.9999999999999998
 40
0.5773502691896258
 41
0.9599310885970737
 42
2.356194490192587
  0
LINE
  5
299B5
330
2992D
100
AcDbEntity
  8
0
100
AcDbLine
 10
-71.27716158202168
 20
-57.03032820732598
 30
0.0
 11
-72.69137514439477
 21
-56.21383162639826
 31
0.0
  0
LINE
  5
299B6
330
2992D
100
AcDbEntity
  8
0
100
AcDbLine
 10
-42.99289033455973
 20
101.5308890906675
 30
0.0
 11
-42.99289033455976
 21
-26.20183602966602
 31
0.0
  0
LINE
  5
299B7
330
2992D
100
AcDbEntity
  8
0
100
AcDbLine
 10
-44.40710389693283
 20
102.3473856715952
 30
0.0
 11
-42.99289033455973
 21
101.5308890906675
 31
0.0
  0
LINE
  5
299B8
330
2992D
100
AcDbEntity
  8
0
100
AcDbLine
 10
-44.40710389693285
 20
-25.38533944873831
 30
0.0
 11
-44.40710389693283
 21
102.3473856715952
 31
0.0
  0
LINE
  5
299B9
330
2992D
100
AcDbEntity
  8
0
100
AcDbLine
 10
-69.86294801964854
 20
-72.79113093740207
 30
0.0
 11
8.625904692058234
 21
-118.1066911788908
 31
0.0
  0
ELLIPSE
  5
299BA
330
2992D
100
AcDbEntity
  8
0
100
AcDbEllipse
 10
-17.89059960243726
 20
-88.10044182979693
 30
0.0
 11
-2.5
 21
0.0000000000001492
 31
0.0
210
0.0
220
0.0
230
1.0
 40
0.5773502691896259
 41
0.0
 42
6.283185307179586
  0
ELLIPSE
  5
299BB
330
2992D
100
AcDbEntity
  8
0
100
AcDbEllipse
 10
-3.748463978706317
 20
-79.93547602051966
 30
0.0
 11
-2.5
 21
0.0000000000001492
 31
0.0
210
0.0
220
0.0
230
1.0
 40
0.5773502691896259
 41
0.0
 42
6.283185307179586
  0
ELLIPSE
  5
299BC
330
2992D
100
AcDbEntity
  8
0
100
AcDbEllipse
 10
-3.748463978706317
 20
-81.56846918237512
 30
0.0
 11
-2.5
 21
-0.0000000000001492
 31
0.0
210
0.0
220
0.0
230
1.0
 40
0.5773502691896259
 41
3.742856870268575
 42
5.68192109050012
  0
ELLIPSE
  5
299BD
330
2992D
100
AcDbEntity
  8
0
100
AcDbEllipse
 10
-17.89059960243726
 20
-89.73343499165238
 30
0.0
 11
-2.5
 21
-0.0000000000001492
 31
0.0
210
0.0
220
0.0
230
1.0
 40
0.5773502691896259
 41
3.742856870268575
 42
5.68192109050012
  0
LINE
  5
299BE
330
2992D
100
AcDbEntity
  8
0
100
AcDbLine
 10
8.625904692058231
 20
-119.7396843407463
 30
0.0
 11
-69.86294801964854
 21
-74.42412409925752
 31
0.0
  0
ELLIPSE
  5
299BF
330
2992D
100
AcDbEntity
  8
0
100
AcDbEllipse
 10
43.62769036079234
 20
-68.91277217799539
 30
0.0
 11
1.249999999999871
 21
2.165063509461171
 31
0.0
210
0.0
220
0.0
230
1.0
 40
0.5773502691896259
 41
3.742856870268584
 42
5.681921090500117
  0
ELLIPSE
  5
299C0
330
2992D
100
AcDbEntity
  8
0
100
AcDbEllipse
 10
45.04190392316544
 20
-69.72926875892311
 30
0.0
 11
-1.25
 21
-2.165063509461097
 31
0.0
210
0.0
220
0.0
230
0.9999999999999998
 40
0.577350269189626
 41
0.0
 42
6.283185307179586
  0
ELLIPSE
  5
299C1
330
2992D
100
AcDbEntity
  8
0
100
AcDbEllipse
 10
43.62769036079234
 20
-52.58284055944087
 30
0.0
 11
1.249999999999871
 21
2.165063509461171
 31
0.0
210
0.0
220
0.0
230
1.0
 40
0.5773502691896259
 41
3.742856870268584
 42
5.681921090500117
  0
ELLIPSE
  5
299C2
330
2992D
100
AcDbEntity
  8
0
100
AcDbEllipse
 10
45.04190392316544
 20
-53.3993371403686
 30
0.0
 11
-1.25
 21
-2.165063509461097
 31
0.0
210
0.0
220
0.0
230
0.9999999999999998
 40
0.577350269189626
 41
0.0
 42
6.283185307179586
  0
ELLIPSE
  5
299C3
330
2992D
100
AcDbEntity
  8
0
100
AcDbEllipse
 10
43.62769036079234
 20
-36.25290894088634
 30
0.0
 11
1.249999999999871
 21
2.165063509461171
 31
0.0
210
0.0
220
0.0
230
1.0
 40
0.5773502691896259
 41
3.742856870268584
 42
5.68192109050012
  0
ELLIPSE
  5
299C4
330
2992D
100
AcDbEntity
  8
0
100
AcDbEllipse
 10
45.04190392316544
 20
-37.06940552181407
 30
0.0
 11
-1.25
 21
-2.165063509461097
 31
0.0
210
0.0
220
0.0
230
0.9999999999999998
 40
0.577350269189626
 41
0.0
 42
6.283185307179586
  0
ELLIPSE
  5
299C5
330
2992D
100
AcDbEntity
  8
0
100
AcDbEllipse
 10
43.62769036079234
 20
-19.92297732233181
 30
0.0
 11
1.249999999999871
 21
2.165063509461171
 31
0.0
210
0.0
220
0.0
230
1.0
 40
0.5773502691896259
 41
3.742856870268584
 42
5.681921090500121
  0
ELLIPSE
  5
299C6
330
2992D
100
AcDbEntity
  8
0
100
AcDbEllipse
 10
45.04190392316544
 20
-20.73947390325955
 30
0.0
 11
-1.25
 21
-2.165063509461097
 31
0.0
210
0.0
220
0.0
230
0.9999999999999998
 40
0.577350269189626
 41
0.0
 42
6.283185307179586
  0
ELLIPSE
  5
299C7
330
2992D
100
AcDbEntity
  8
0
100
AcDbEllipse
 10
43.62769036079234
 20
-3.593045703777288
 30
0.0
 11
1.249999999999871
 21
2.165063509461171
 31
0.0
210
0.0
220
0.0
230
1.0
 40
0.5773502691896259
 41
3.742856870268584
 42
5.68192109050012
  0
ELLIPSE
  5
299C8
330
2992D
100
AcDbEntity
  8
0
100
AcDbEllipse
 10
45.04190392316544
 20
-4.409542284705016
 30
0.0
 11
-1.25
 21
-2.165063509461097
 31
0.0
210
0.0
220
0.0
230
0.9999999999999998
 40
0.577350269189626
 41
0.0
 42
6.283185307179586
  0
ELLIPSE
  5
299C9
330
2992D
100
AcDbEntity
  8
0
100
AcDbEllipse
 10
43.62769036079234
 20
12.73688591477723
 30
0.0
 11
1.249999999999871
 21
2.165063509461171
 31
0.0
210
0.0
220
0.0
230
1.0
 40
0.5773502691896259
 41
3.742856870268584
 42
5.681921090500121
  0
ELLIPSE
  5
299CA
330
2992D
100
AcDbEntity
  8
0
100
AcDbEllipse
 10
45.04190392316544
 20
11.92038933384951
 30
0.0
 11
-1.25
 21
-2.165063509461097
 31
0.0
210
0.0
220
0.0
230
0.9999999999999998
 40
0.577350269189626
 41
0.0
 42
6.283185307179586
  0
ELLIPSE
  5
299CB
330
2992D
100
AcDbEntity
  8
0
100
AcDbEllipse
 10
43.62769036079234
 20
29.06681753333175
 30
0.0
 11
1.249999999999871
 21
2.165063509461171
 31
0.0
210
0.0
220
0.0
230
1.0
 40
0.5773502691896259
 41
3.742856870268584
 42
5.68192109050012
  0
ELLIPSE
  5
299CC
330
2992D
100
AcDbEntity
  8
0
100
AcDbEllipse
 10
45.04190392316544
 20
28.25032095240403
 30
0.0
 11
-1.25
 21
-2.165063509461097
 31
0.0
210
0.0
220
0.0
230
0.9999999999999998
 40
0.577350269189626
 41
0.0
 42
6.283185307179586
  0
ELLIPSE
  5
299CD
330
2992D
100
AcDbEntity
  8
0
100
AcDbEllipse
 10
-39.10380303803373
 20
-12.98275638444611
 30
0.0
 11
1.24999999999987
 21
2.165063509461172
 31
0.0
210
0.0
220
0.0
230
1.0
 40
0.5773502691896258
 41
3.742856870268578
 42
5.681921090500114
  0
ELLIPSE
  5
299CE
330
2992D
100
AcDbEntity
  8
0
100
AcDbEllipse
 10
-37.68958947566063
 20
-13.79925296537384
 30
0.0
 11
1.25
 21
2.165063509461097
 31
0.0
210
0.0
220
0.0
230
1.0
 40
0.5773502691896258
 41
0.0
 42
6.283185307179586
  0
ELLIPSE
  5
299CF
330
2992D
100
AcDbEntity
  8
0
100
AcDbEllipse
 10
-39.10380303803373
 20
3.347175234108412
 30
0.0
 11
1.24999999999987
 21
2.165063509461172
 31
0.0
210
0.0
220
0.0
230
1.0
 40
0.5773502691896258
 41
3.742856870268578
 42
5.681921090500114
  0
ELLIPSE
  5
299D0
330
2992D
100
AcDbEntity
  8
0
100
AcDbEllipse
 10
-37.68958947566063
 20
2.530678653180684
 30
0.0
 11
1.25
 21
2.165063509461097
 31
0.0
210
0.0
220
0.0
230
1.0
 40
0.5773502691896258
 41
0.0
 42
6.283185307179586
  0
ELLIPSE
  5
299D1
330
2992D
100
AcDbEntity
  8
0
100
AcDbEllipse
 10
-39.10380303803373
 20
19.67710685266293
 30
0.0
 11
1.24999999999987
 21
2.165063509461172
 31
0.0
210
0.0
220
0.0
230
1.0
 40
0.5773502691896258
 41
3.742856870268578
 42
5.681921090500117
  0
ELLIPSE
  5
299D2
330
2992D
100
AcDbEntity
  8
0
100
AcDbEllipse
 10
-37.68958947566063
 20
18.86061027173521
 30
0.0
 11
1.25
 21
2.165063509461097
 31
0.0
210
0.0
220
0.0
230
1.0
 40
0.5773502691896258
 41
0.0
 42
6.283185307179586
  0
ELLIPSE
  5
299D3
330
2992D
100
AcDbEntity
  8
0
100
AcDbEllipse
 10
-39.10380303803373
 20
36.00703847121746
 30
0.0
 11
1.24999999999987
 21
2.165063509461172
 31
0.0
210
0.0
220
0.0
230
1.0
 40
0.5773502691896258
 41
3.742856870268578
 42
5.681921090500117
  0
ELLIPSE
  5
299D4
330
2992D
100
AcDbEntity
  8
0
100
AcDbEllipse
 10
-37.68958947566063
 20
35.19054189028974
 30
0.0
 11
1.25
 21
2.165063509461097
 31
0.0
210
0.0
220
0.0
230
1.0
 40
0.5773502691896258
 41
0.0
 42
6.283185307179586
  0
ELLIPSE
  5
299D5
330
2992D
100
AcDbEntity
  8
0
100
AcDbEllipse
 10
-39.10380303803373
 20
52.33697008977198
 30
0.0
 11
1.24999999999987
 21
2.165063509461172
 31
0.0
210
0.0
220
0.0
230
1.0
 40
0.5773502691896258
 41
3.742856870268578
 42
5.681921090500117
  0
ELLIPSE
  5
299D6
330
2992D
100
AcDbEntity
  8
0
100
AcDbEllipse
 10
-37.68958947566063
 20
51.52047350884426
 30
0.0
 11
1.25
 21
2.165063509461097
 31
0.0
210
0.0
220
0.0
230
1.0
 40
0.5773502691896258
 41
0.0
 42
6.283185307179586
  0
ELLIPSE
  5
299D7
330
2992D
100
AcDbEntity
  8
0
100
AcDbEllipse
 10
-39.10380303803373
 20
68.66690170832651
 30
0.0
 11
1.24999999999987
 21
2.165063509461172
 31
0.0
210
0.0
220
0.0
230
1.0
 40
0.5773502691896258
 41
3.742856870268578
 42
5.681921090500117
  0
ELLIPSE
  5
299D8
330
2992D
100
AcDbEntity
  8
0
100
AcDbEllipse
 10
-37.68958947566063
 20
67.85040512739879
 30
0.0
 11
1.25
 21
2.165063509461097
 31
0.0
210
0.0
220
0.0
230
1.0
 40
0.5773502691896258
 41
0.0
 42
6.283185307179586
  0
ELLIPSE
  5
299D9
330
2992D
100
AcDbEntity
  8
0
100
AcDbEllipse
 10
-39.10380303803373
 20
84.99683332688105
 30
0.0
 11
1.24999999999987
 21
2.165063509461172
 31
0.0
210
0.0
220
0.0
230
1.0
 40
0.5773502691896258
 41
3.742856870268578
 42
5.681921090500103
  0
ELLIPSE
  5
299DA
330
2992D
100
AcDbEntity
  8
0
100
AcDbEllipse
 10
-37.68958947566063
 20
84.18033674595333
 30
0.0
 11
1.25
 21
2.165063509461097
 31
0.0
210
0.0
220
0.0
230
1.0
 40
0.5773502691896258
 41
0.0
 42
6.283185307179586
  0
ELLIPSE
  5
299DB
330
2992D
100
AcDbEntity
  8
0
100
AcDbEllipse
 10
-39.10380303803373
 20
101.3267649454355
 30
0.0
 11
1.24999999999987
 21
2.165063509461172
 31
0.0
210
0.0
220
0.0
230
1.0
 40
0.5773502691896258
 41
3.742856870268578
 42
5.681921090500103
  0
ELLIPSE
  5
299DC
330
2992D
100
AcDbEntity
  8
0
100
AcDbEllipse
 10
-37.68958947566063
 20
100.5102683645078
 30
0.0
 11
1.25
 21
2.165063509461097
 31
0.0
210
0.0
220
0.0
230
1.0
 40
0.5773502691896258
 41
0.0
 42
6.283185307179586
  0
ENDBLK
  5
2992F
330
2992D
100
AcDbEntity
  8
0
100
AcDbBlockEnd
  0
ENDSEC
  0
SECTION
  2
ENTITIES
  0
INSERT
  5
299DD
330
1F
100
AcDbEntity
  8
0
100
AcDbBlockReference
  2
SAEL500_115_2-Front
 10
0.0
 20
0.0
 30
0.0
  0
INSERT
  5
299DE
330
1F
100
AcDbEntity
  8
0
100
AcDbBlockReference
  2
SAEL500_115_2-Left
 10
157.35
 20
0.0
 30
0.0
  0
INSERT
  5
299DF
330
1F
100
AcDbEntity
  8
0
100
AcDbBlockReference
  2
SAEL500_115_2-Right
 10
-157.35
 20
0.0
 30
0.0
  0
INSERT
  5
299E0
330
1F
100
AcDbEntity
  8
0
100
AcDbBlockReference
  2
SAEL500_115_2-Top
 10
0.0
 20
-60.35
 30
0.0
  0
INSERT
  5
299E1
330
1F
100
AcDbEntity
  8
0
100
AcDbBlockReference
  2
SAEL500_115_2-Bottom
 10
0.0
 20
250.85
 30
0.0
  0
INSERT
  5
299E2
330
1F
100
AcDbEntity
  8
0
100
AcDbBlockReference
  2
SAEL500_115_2-ISO
 10
230.0413751443949
 20
-197.6026145062555
 30
0.0
  0
MTEXT
  5
299E3
330
1F
100
AcDbEntity
  8
0
100
AcDbMText
 10
0.0
 20
-204.7000000000001
 30
0.0
 40
16.56315789473685
 41
0.0
 71
     5
 72
     5
  1
SAEL500/115/2
 73
     1
 44
1.0
1001
ACAD
1000
MTEXTBEGIN
1070
    73
1070
     1
1070
    44
1040
1.0
1070
    74
1070
     0
1000
MTEXTEND
  0
ENDSEC
  0
SECTION
  2
OBJECTS
  0
DICTIONARY
  5
C
330
0
100
AcDbDictionary
281
     1
  3
ACAD_CIP_PREVIOUS_PRODUCT_INFO
350
216
  3
ACAD_COLOR
350
6B
  3
ACAD_DETAILVIEWSTYLE
350
21B
  3
ACAD_GROUP
350
D
  3
ACAD_LAYOUT
350
1A
  3
ACAD_MATERIAL
350
6A
  3
ACAD_MLEADERSTYLE
350
12D
  3
ACAD_MLINESTYLE
350
17
  3
ACAD_PLOTSETTINGS
350
19
  3
ACAD_PLOTSTYLENAME
350
E
  3
ACAD_SCALELIST
350
10C
  3
ACAD_SECTIONVIEWSTYLE
350
219
  3
ACAD_TABLESTYLE
350
7E
  3
ACAD_VISUALSTYLE
350
EF
  3
ACDB_RECOMPOSE_DATA
350
29AE4
  3
AcDbVariableDictionary
350
5E
  3
DWGPROPS
350
29AE5
  0
DICTIONARY
  5
29A34
330
8
100
AcDbDictionary
280
     1
281
     1
  0
DICTIONARY
  5
1FF
330
2
100
AcDbDictionary
280
     1
281
     1
  3
ACAD_LAYERSTATES
360
200
  0
DICTIONARY
  5
13C
330
10
100
AcDbDictionary
280
     1
281
     1
  0
DICTIONARY
  5
1CE
330
1F
100
AcDbDictionary
280
     1
281
     1
  3
ACAD_LAYOUTSELFREF
360
29A3C
  0
DICTIONARY
  5
299E7
330
D2
100
AcDbDictionary
280
     1
281
     1
  3
ACAD_LAYOUTSELFREF
360
29A45
  0
DICTIONARY
  5
299E9
330
D6
100
AcDbDictionary
280
     1
281
     1
  3
ACAD_LAYOUTSELFREF
360
29A48
  0
XRECORD
  5
216
102
{ACAD_REACTORS
330
C
102
}
330
C
100
AcDbXrecord
280
     1
300
ACD
300
2021
300
87393ACD_2021_0F
  0
DICTIONARY
  5
6B
102
{ACAD_REACTORS
330
C
102
}
330
C
100
AcDbDictionary
281
     1
  0
DICTIONARY
  5
21B
102
{ACAD_REACTORS
330
C
102
}
330
C
100
AcDbDictionary
281
     1
  3
Metric50
350
21C
  0
DICTIONARY
  5
D
102
{ACAD_REACTORS
330
C
102
}
330
C
100
AcDbDictionary
281
     1
  0
DICTIONARY
  5
1A
102
{ACAD_REACTORS
330
C
102
}
330
C
100
AcDbDictionary
281
     1
  3
Layout1
350
D3
  3
Layout2
350
D7
  3
Model
350
22
  0
DICTIONARY
  5
6A
102
{ACAD_REACTORS
330
C
102
}
330
C
100
AcDbDictionary
281
     1
  3
ByBlock
350
ED
  3
ByLayer
350
EC
  3
Global
350
EE
  0
DICTIONARY
  5
12D
102
{ACAD_REACTORS
330
C
102
}
330
C
100
AcDbDictionary
281
     1
  3
Standard
350
12E
  0
DICTIONARY
  5
17
102
{ACAD_REACTORS
330
C
102
}
330
C
100
AcDbDictionary
281
     1
  3
Standard
350
18
  0
DICTIONARY
  5
19
102
{ACAD_REACTORS
330
C
102
}
330
C
100
AcDbDictionary
281
     1
  0
ACDBDICTIONARYWDFLT
  5
E
102
{ACAD_REACTORS
330
C
102
}
330
C
100
AcDbDictionary
281
     1
  3
Normal
350
F
100
AcDbDictionaryWithDefault
340
F
  0
DICTIONARY
  5
10C
102
{ACAD_REACTORS
330
C
102
}
330
C
100
AcDbDictionary
281
     1
  3
A0
350
10D
  3
A1
350
1BE
  3
A2
350
1BF
  3
A3
350
1C0
  3
A4
350
1C1
  3
A5
350
1C2
  3
A6
350
1C3
  3
A7
350
1C4
  3
A8
350
1C5
  3
A9
350
1C6
  3
B0
350
1C7
  3
B1
350
1C8
  3
B2
350
1C9
  3
B3
350
1CA
  3
B4
350
1CB
  3
B5
350
1CC
  3
B6
350
1CD
  0
DICTIONARY
  5
219
102
{ACAD_REACTORS
330
C
102
}
330
C
100
AcDbDictionary
281
     1
  3
Metric50
350
21A
  0
DICTIONARY
  5
7E
102
{ACAD_REACTORS
330
C
102
}
330
C
100
AcDbDictionary
281
     1
  3
Standard
350
7F
  0
DICTIONARY
  5
EF
102
{ACAD_REACTORS
330
C
102
}
330
C
100
AcDbDictionary
281
     1
  3
2dWireframe
350
F5
  3
Basic
350
F4
  3
Brighten
350
FB
  3
ColorChange
350
FF
  3
Conceptual
350
F8
  3
Dim
350
FA
  3
EdgeColorOff
350
1E6
  3
Facepattern
350
FE
  3
Flat
350
F0
  3
FlatWithEdges
350
F1
  3
Gouraud
350
F2
  3
GouraudWithEdges
350
F3
  3
Hidden
350
F7
  3
JitterOff
350
1E4
  3
Linepattern
350
FD
  3
OverhangOff
350
1E5
  3
Realistic
350
F9
  3
Shaded
350
1F3
  3
Shaded with edges
350
1F2
  3
Shades of Gray
350
1EF
  3
Sketchy
350
1F0
  3
Thicken
350
FC
  3
Wireframe
350
F6
  3
X-Ray
350
1F1
  0
XRECORD
  5
29AE4
102
{ACAD_REACTORS
330
C
102
}
330
C
100
AcDbXrecord
280
     1
 90
        1
330
7F
  0
DICTIONARY
  5
5E
102
{ACAD_REACTORS
330
C
102
}
330
C
100
AcDbDictionary
281
     1
  3
CANNOSCALE
350
146
  3
CENTEREXE
350
259
  3
CENTERLTYPEFILE
350
25A
  3
CMLEADERSTYLE
350
145
  3
CTABLESTYLE
350
84
  3
CVIEWDETAILSTYLE
350
227
  3
CVIEWSECTIONSTYLE
350
228
  3
DIMASSOC
350
5F
  3
HIDETEXT
350
63
  3
INDEXCTL
350
29A91
  3
LAYEREVAL
350
1AE
  3
LAYERNOTIFY
350
1AF
  3
LIGHTINGUNITS
350
29A8F
  3
MSLTSCALE
350
29A8E
  3
PSOLHEIGHT
350
29AE1
  3
PSOLWIDTH
350
29AE0
  3
SORTENTS
350
29A90
  3
XCLIPFRAME
350
29AE2
  0
XRECORD
  5
29AE5
102
{ACAD_REACTORS
330
C
102
}
330
C
100
AcDbXrecord
280
     1
  1
DWGPROPS COOKIE
  2

  3

  4

  6

  7

  8
truole
  9

300
=
301
=
302
=
303
=
304
=
305
=
306
=
307
=
308
=
309
=
 40
0.0102083333333333
 41
2460398.356956019
 42
2460398.391342593
  1

 90
        0
  0
DICTIONARY
  5
200
102
{ACAD_REACTORS
330
1FF
102
}
330
1FF
100
AcDbDictionary
281
     1
  0
XRECORD
  5
29A3C
102
{ACAD_REACTORS
330
1CE
102
}
330
1CE
100
AcDbXrecord
280
     1
340
1F
  0
XRECORD
  5
29A45
102
{ACAD_REACTORS
330
299E7
102
}
330
299E7
100
AcDbXrecord
280
     1
340
D2
  0
XRECORD
  5
29A48
102
{ACAD_REACTORS
330
299E9
102
}
330
299E9
100
AcDbXrecord
280
     1
340
D6
  0
ACDBDETAILVIEWSTYLE
  5
21C
102
{ACAD_XDICTIONARY
360
29B24
102
}
102
{ACAD_REACTORS
330
21B
102
}
330
21B
100
AcDbModelDocViewStyle
 70
     0
  3
Metric50
290
     0
100
AcDbDetailViewStyle
 70
     0
 71
     0
 90
        3
 71
     1
340
11
 40
5.0
340
0
 40
5.0
300

 40
0.0
280
     1
 71
     2
340
16
 90
       25
 71
     3
340
11
 40
5.0
 90
        0
 40
15.0
 90
        1
300
%<\AcVar ViewDetailId>% (%<\AcVar ViewScale \f "%sn">%)
 71
     4
340
16
 90
       25
340
16
 90
       25
280
     0
  0
LAYOUT
  5
D3
102
{ACAD_XDICTIONARY
360
29AE9
102
}
102
{ACAD_REACTORS
330
1A
102
}
330
1A
100
AcDbPlotSettings
  1

  2
C:\Documents and Settings\basas\Application Data\Autodesk\AutoCAD 2005\R16.1\enu\plotters\Default Windows System Printer.pc3
  4

  6

 40
0.0
 41
0.0
 42
0.0
 43
0.0
 44
0.0
 45
0.0
 46
0.0
 47
0.0
 48
0.0
 49
0.0
140
0.0
141
0.0
142
1.0
143
1.0
 70
   688
 72
     0
 73
     0
 74
     5
  7

 75
    16
147
1.0
148
0.0
149
0.0
100
AcDbLayout
  1
Layout1
 70
     1
 71
     1
 10
0.0
 20
0.0
 11
12.0
 21
9.0
 12
0.0
 22
0.0
 32
0.0
 14
0.0
 24
0.0
 34
0.0
 15
0.0
 25
0.0
 35
0.0
146
0.0
 13
0.0
 23
0.0
 33
0.0
 16
1.0
 26
0.0
 36
0.0
 17
0.0
 27
1.0
 37
0.0
 76
     0
330
D2
  0
LAYOUT
  5
D7
102
{ACAD_XDICTIONARY
360
29AEB
102
}
102
{ACAD_REACTORS
330
1A
102
}
330
1A
100
AcDbPlotSettings
  1

  2
C:\Documents and Settings\basas\Application Data\Autodesk\AutoCAD 2005\R16.1\enu\plotters\Default Windows System Printer.pc3
  4

  6

 40
0.0
 41
0.0
 42
0.0
 43
0.0
 44
0.0
 45
0.0
 46
0.0
 47
0.0
 48
0.0
 49
0.0
140
0.0
141
0.0
142
1.0
143
1.0
 70
   688
 72
     0
 73
     0
 74
     5
  7

 75
    16
147
1.0
148
0.0
149
0.0
100
AcDbLayout
  1
Layout2
 70
     1
 71
     2
 10
0.0
 20
0.0
 11
12.0
 21
9.0
 12
0.0
 22
0.0
 32
0.0
 14
0.0
 24
0.0
 34
0.0
 15
0.0
 25
0.0
 35
0.0
146
0.0
 13
0.0
 23
0.0
 33
0.0
 16
1.0
 26
0.0
 36
0.0
 17
0.0
 27
1.0
 37
0.0
 76
     0
330
D6
  0
LAYOUT
  5
22
102
{ACAD_XDICTIONARY
360
29AE6
102
}
102
{ACAD_REACTORS
330
1A
102
}
330
1A
100
AcDbPlotSettings
  1

  2
none_device
  4
ISO_A4_(210.00_x_297.00_MM)
  6

 40
7.5
 41
20.0
 42
7.5
 43
20.0
 44
210.0
 45
297.0
 46
11.54999923706054
 47
-13.65000009536743
 48
0.0
 49
0.0
140
0.0
141
0.0
142
1.0
143
8.704084754739808
 70
 11952
 72
     1
 73
     0
 74
     0
  7

 75
     0
147
0.1148885871608098
148
0.0
149
0.0
100
AcDbLayout
  1
Model
 70
     1
 71
     0
 10
0.0
 20
0.0
 11
12.0
 21
9.0
 12
0.0
 22
0.0
 32
0.0
 14
0.0
 24
0.0
 34
0.0
 15
0.0
 25
0.0
 35
0.0
146
0.0
 13
0.0
 23
0.0
 33
0.0
 16
1.0
 26
0.0
 36
0.0
 17
0.0
 27
1.0
 37
0.0
 76
     0
330
1F
331
EA
1001
ACAD_PSEXT
1000
None
1000
None
1000
Not applicable
1000
The layout will not be plotted unless a new plotter configuration name is selected.
1070
     0
  0
MATERIAL
  5
ED
102
{ACAD_XDICTIONARY
360
1F9
102
}
102
{ACAD_REACTORS
330
6A
102
}
330
6A
100
AcDbMaterial
  1
ByBlock
  0
MATERIAL
  5
EC
102
{ACAD_XDICTIONARY
360
1F7
102
}
102
{ACAD_REACTORS
330
6A
102
}
330
6A
100
AcDbMaterial
  1
ByLayer
  0
MATERIAL
  5
EE
102
{ACAD_XDICTIONARY
360
173
102
}
102
{ACAD_REACTORS
330
6A
102
}
330
6A
100
AcDbMaterial
  1
Global
 43
0.0007999999797903
 43
0.0
 43
0.0
 43
0.0
 43
0.0
 43
0.0007999999797903
 43
0.0
 43
0.0
 43
0.0
 43
0.0
 43
1.0
 43
0.0
 43
0.0
 43
0.0
 43
0.0
 43
1.0
 49
0.0007999999797903
 49
0.0
 49
0.0
 49
0.0
 49
0.0
 49
0.0007999999797903
 49
0.0
 49
0.0
 49
0.0
 49
0.0
 49
1.0
 49
0.0
 49
0.0
 49
0.0
 49
0.0
 49
1.0
142
0.0007999999797903
142
0.0
142
0.0
142
0.0
142
0.0
142
0.0007999999797903
142
0.0
142
0.0
142
0.0
142
0.0
142
1.0
142
0.0
142
0.0
142
0.0
142
0.0
142
1.0
144
0.0007999999797903
144
0.0
144
0.0
144
0.0
144
0.0
144
0.0007999999797903
144
0.0
144
0.0
144
0.0
144
0.0
144
1.0
144
0.0
144
0.0
144
0.0
144
0.0
144
1.0
1001
ACAD
1070
    -1
1070
     3
1070
     0
1000

1071
        0
1070
     0
  0
MLEADERSTYLE
  5
12E
102
{ACAD_XDICTIONARY
360
29B10
102
}
102
{ACAD_REACTORS
330
12D
102
}
330
12D
100
AcDbMLeaderStyle
170
     2
171
     1
172
     0
 90
        2
 40
0.0
 41
0.0
173
     1
 91
-1056964608
340
14
 92
       -2
290
     1
 42
2.0
291
     1
 43
8.0
  3
Standard
 44
4.0
300

342
11
174
     1
178
     1
175
     1
176
     0
 93
-1056964608
 45
4.0
292
     0
297
     0
 46
4.0
 94
-1056964608
 47
1.0
 49
1.0
140
1.0
293
     1
141
0.0
294
     1
177
     0
142
1.0
295
     0
296
     0
143
3.75
1001
ACAD_MLEADERVER
1070
     2
  0
MLINESTYLE
  5
18
102
{ACAD_REACTORS
330
17
102
}
330
17
100
AcDbMlineStyle
  2
STANDARD
 70
     0
  3

 62
   256
 51
90.0
 52
90.0
 71
     2
 49
0.5
 62
   256
  6
BYLAYER
 49
-0.5
 62
   256
  6
BYLAYER
  0
ACDBPLACEHOLDER
  5
F
102
{ACAD_REACTORS
330
E
102
}
330
E
  0
SCALE
  5
10D
102
{ACAD_REACTORS
330
10C
102
}
330
10C
100
AcDbScale
 70
     0
300
1:1
140
1.0
141
1.0
290
     1
  0
SCALE
  5
1BE
102
{ACAD_REACTORS
330
10C
102
}
330
10C
100
AcDbScale
 70
     0
300
1:2
140
1.0
141
2.0
290
     0
  0
SCALE
  5
1BF
102
{ACAD_REACTORS
330
10C
102
}
330
10C
100
AcDbScale
 70
     0
300
1:4
140
1.0
141
4.0
290
     0
  0
SCALE
  5
1C0
102
{ACAD_REACTORS
330
10C
102
}
330
10C
100
AcDbScale
 70
     0
300
1:5
140
1.0
141
5.0
290
     0
  0
SCALE
  5
1C1
102
{ACAD_REACTORS
330
10C
102
}
330
10C
100
AcDbScale
 70
     0
300
1:8
140
1.0
141
8.0
290
     0
  0
SCALE
  5
1C2
102
{ACAD_REACTORS
330
10C
102
}
330
10C
100
AcDbScale
 70
     0
300
1:10
140
1.0
141
10.0
290
     0
  0
SCALE
  5
1C3
102
{ACAD_REACTORS
330
10C
102
}
330
10C
100
AcDbScale
 70
     0
300
1:16
140
1.0
141
16.0
290
     0
  0
SCALE
  5
1C4
102
{ACAD_REACTORS
330
10C
102
}
330
10C
100
AcDbScale
 70
     0
300
1:20
140
1.0
141
20.0
290
     0
  0
SCALE
  5
1C5
102
{ACAD_REACTORS
330
10C
102
}
330
10C
100
AcDbScale
 70
     0
300
1:30
140
1.0
141
30.0
290
     0
  0
SCALE
  5
1C6
102
{ACAD_REACTORS
330
10C
102
}
330
10C
100
AcDbScale
 70
     0
300
1:40
140
1.0
141
40.0
290
     0
  0
SCALE
  5
1C7
102
{ACAD_REACTORS
330
10C
102
}
330
10C
100
AcDbScale
 70
     0
300
1:50
140
1.0
141
50.0
290
     0
  0
SCALE
  5
1C8
102
{ACAD_REACTORS
330
10C
102
}
330
10C
100
AcDbScale
 70
     0
300
1:100
140
1.0
141
100.0
290
     0
  0
SCALE
  5
1C9
102
{ACAD_REACTORS
330
10C
102
}
330
10C
100
AcDbScale
 70
     0
300
2:1
140
2.0
141
1.0
290
     0
  0
SCALE
  5
1CA
102
{ACAD_REACTORS
330
10C
102
}
330
10C
100
AcDbScale
 70
     0
300
4:1
140
4.0
141
1.0
290
     0
  0
SCALE
  5
1CB
102
{ACAD_REACTORS
330
10C
102
}
330
10C
100
AcDbScale
 70
     0
300
8:1
140
8.0
141
1.0
290
     0
  0
SCALE
  5
1CC
102
{ACAD_REACTORS
330
10C
102
}
330
10C
100
AcDbScale
 70
     0
300
10:1
140
10.0
141
1.0
290
     0
  0
SCALE
  5
1CD
102
{ACAD_REACTORS
330
10C
102
}
330
10C
100
AcDbScale
 70
     0
300
100:1
140
100.0
141
1.0
290
     0
  0
ACDBSECTIONVIEWSTYLE
  5
21A
102
{ACAD_XDICTIONARY
360
29B22
102
}
102
{ACAD_REACTORS
330
219
102
}
330
219
100
AcDbModelDocViewStyle
 70
     0
  3
Metric50
290
     0
100
AcDbSectionViewStyle
 70
     0
 71
     0
 90
      102
 71
     1
340
11
 40
5.0
340
0
340
0
 40
5.0
300
I, O, Q, S, X, Z
 40
10.0
 90
        0
 40
2.5
 90
        0
 71
     2
340
16
 90
       25
340
16
 90
       50
 40
5.0
 40
2.5
 40
5.0
 71
     3
340
11
 40
5.0
 90
        0
 40
15.0
 90
        1
300
%<\AcVar ViewSectionStartId>%-%<\AcVar ViewSectionEndId>% (%<\AcVar ViewScale \f "%sn">%)
 71
     4
300
ANSI31
 40
1.0
 90
        0
290
     0
290
     0
 90
        6
 40
0.0
 40
1.570796326794896
 40
0.2617993877991494
 40
1.308996938995747
 40
-0.2617993877991494
 40
1.832595714594046
  0
TABLESTYLE
  5
7F
102
{ACAD_XDICTIONARY
360
162
102
}
102
{ACAD_REACTORS
330
7E
102
}
330
7E
100
AcDbTableStyle
  3
Standard
 70
     0
 71
     0
 40
1.5
 41
1.5
280
     0
281
     0
  7
Standard
140
4.5
170
     2
 62
     0
 63
     7
283
     0
274
    -2
284
     1
 64
     0
275
    -2
285
     1
 65
     0
276
    -2
286
     1
 66
     0
277
    -2
287
     1
 67
     0
278
    -2
288
     1
 68
     0
279
    -2
289
     1
 69
     0
  7
Standard
140
6.0
170
     5
 62
     0
 63
     7
283
     0
274
    -2
284
     1
 64
     0
275
    -2
285
     1
 65
     0
276
    -2
286
     1
 66
     0
277
    -2
287
     1
 67
     0
278
    -2
288
     1
 68
     0
279
    -2
289
     1
 69
     0
  7
Standard
140
4.5
170
     5
 62
     0
 63
     7
283
     0
274
    -2
284
     1
 64
     0
275
    -2
285
     1
 65
     0
276
    -2
286
     1
 66
     0
277
    -2
287
     1
 67
     0
278
    -2
288
     1
 68
     0
279
    -2
289
     1
 69
     0
  0
VISUALSTYLE
  5
F5
102
{ACAD_XDICTIONARY
360
29AFA
102
}
102
{ACAD_REACTORS
330
EF
102
}
330
EF
100
AcDbVisualStyle
  2
2dWireframe
 70
     4
 71
     0
 72
     2
 73
     1
 90
        0
 40
-0.6
 41
-30.0
 62
     5
 63
     7
 74
     1
 91
        4
 64
     7
 65
   257
 75
     1
175
     1
 42
1.0
 92
        0
 66
   257
 43
1.0
 76
     1
 77
     6
 78
     2
 67
     7
 79
     5
170
     0
171
     0
290
     0
174
     0
 93
        1
 44
0.0
173
     0
291
     0
 45
0.0
1001
ACAD
1000
AcDbSavedByObjectVersion
1070
     0
  0
VISUALSTYLE
  5
F4
102
{ACAD_XDICTIONARY
360
29AF8
102
}
102
{ACAD_REACTORS
330
EF
102
}
330
EF
100
AcDbVisualStyle
  2
Basic
 70
     7
 71
     1
 72
     0
 73
     1
 90
        0
 40
-0.6
 41
-30.0
 62
     5
 63
     7
 74
     0
 91
        4
 64
     7
 65
   257
 75
     1
175
     1
 42
1.0
 92
        8
 66
     7
 43
1.0
 76
     1
 77
     6
 78
     2
 67
     7
 79
     5
170
     0
171
     0
290
     0
174
     0
 93
        1
 44
0.0
173
     0
291
     1
 45
0.0
1001
ACAD
1000
AcDbSavedByObjectVersion
1070
     0
  0
VISUALSTYLE
  5
FB
102
{ACAD_XDICTIONARY
360
29B06
102
}
102
{ACAD_REACTORS
330
EF
102
}
330
EF
100
AcDbVisualStyle
  2
Brighten
 70
    12
 71
     2
 72
     2
 73
     1
 90
        0
 40
-0.6
 41
-30.0
 62
     5
 63
     7
 74
     1
 91
        4
 64
     7
 65
   257
 75
     1
175
     1
 42
1.0
 92
        8
 66
     7
 43
1.0
 76
     1
 77
     6
 78
     2
 67
     7
 79
     5
170
     0
171
     0
290
     0
174
     0
 93
        1
 44
50.0
173
     0
291
     1
 45
0.0
1001
ACAD
1000
AcDbSavedByObjectVersion
1070
     0
  0
VISUALSTYLE
  5
FF
102
{ACAD_XDICTIONARY
360
29B0E
102
}
102
{ACAD_REACTORS
330
EF
102
}
330
EF
100
AcDbVisualStyle
  2
ColorChange
 70
    16
 71
     2
 72
     2
 73
     3
 90
        0
 40
-0.6
 41
-30.0
 62
     5
 63
     8
 74
     1
 91
        4
 64
     7
 65
   257
 75
     1
175
     1
 42
1.0
 92
        8
 66
     8
 43
1.0
 76
     1
 77
     6
 78
     2
 67
     7
 79
     5
170
     0
171
     0
290
     0
174
     0
 93
        1
 44
0.0
173
     0
291
     1
 45
0.0
1001
ACAD
1000
AcDbSavedByObjectVersion
1070
     0
  0
VISUALSTYLE
  5
F8
102
{ACAD_XDICTIONARY
360
29B00
102
}
102
{ACAD_REACTORS
330
EF
102
}
330
EF
100
AcDbVisualStyle
  2
Conceptual
 70
     9
 71
     3
 72
     2
 73
     1
 90
        0
 40
-0.6
 41
-30.0
 62
     5
 63
     7
 74
     2
 91
        2
 64
     7
 65
   257
 75
     1
175
     1
 42
40.0
 92
        8
 66
     7
 43
1.0
 76
     1
 77
     6
 78
     2
 67
     7
 79
     3
170
     0
171
     0
290
     0
174
     0
 93
        1
 44
0.0
173
     0
291
     0
 45
0.0
1001
ACAD
1000
AcDbSavedByObjectVersion
1070
     0
  0
VISUALSTYLE
  5
FA
102
{ACAD_XDICTIONARY
360
29B04
102
}
102
{ACAD_REACTORS
330
EF
102
}
330
EF
100
AcDbVisualStyle
  2
Dim
 70
    11
 71
     2
 72
     2
 73
     1
 90
        0
 40
-0.6
 41
-30.0
 62
     5
 63
     7
 74
     1
 91
        4
 64
     7
 65
   257
 75
     1
175
     1
 42
1.0
 92
        8
 66
     7
 43
1.0
 76
     1
 77
     6
 78
     2
 67
     7
 79
     5
170
     0
171
     0
290
     0
174
     0
 93
        1
 44
-50.0
173
     0
291
     1
 45
0.0
1001
ACAD
1000
AcDbSavedByObjectVersion
1070
     0
  0
VISUALSTYLE
  5
1E6
102
{ACAD_XDICTIONARY
360
29B16
102
}
102
{ACAD_REACTORS
330
EF
102
}
330
EF
100
AcDbVisualStyle
  2
EdgeColorOff
 70
    22
 71
     2
 72
     2
 73
     0
 90
        0
 40
-0.6
 41
-30.0
 62
     5
 63
     7
 74
     1
 91
        4
 64
     7
 65
   257
 75
     1
175
     1
 42
1.0
 92
        8
 66
     7
 43
1.0
 76
     1
 77
     6
 78
     2
 67
     7
 79
     5
170
     0
171
     0
290
     0
174
     0
 93
        1
 44
0.0
173
     0
291
     1
 45
0.0
1001
ACAD
1000
AcDbSavedByObjectVersion
1070
     0
  0
VISUALSTYLE
  5
FE
102
{ACAD_XDICTIONARY
360
29B0C
102
}
102
{ACAD_REACTORS
330
EF
102
}
330
EF
100
AcDbVisualStyle
  2
Facepattern
 70
    15
 71
     2
 72
     2
 73
     1
 90
        0
 40
-0.6
 41
-30.0
 62
     5
 63
     7
 74
     1
 91
        4
 64
     7
 65
   257
 75
     1
175
     1
 42
1.0
 92
        8
 66
     7
 43
1.0
 76
     1
 77
     6
 78
     2
 67
     7
 79
     5
170
     0
171
     0
290
     0
174
     0
 93
        1
 44
0.0
173
     0
291
     1
 45
0.0
1001
ACAD
1000
AcDbSavedByObjectVersion
1070
     0
  0
VISUALSTYLE
  5
F0
102
{ACAD_XDICTIONARY
360
29AF0
102
}
102
{ACAD_REACTORS
330
EF
102
}
330
EF
100
AcDbVisualStyle
  2
Flat
 70
     0
 71
     2
 72
     1
 73
     1
 90
        2
 40
-0.6
 41
30.0
 62
     5
 63
     7
 74
     0
 91
        0
 64
     7
 65
   257
 75
     1
175
     1
 42
1.0
 92
        8
 66
     7
 43
1.0
 76
     1
 77
     6
 78
     2
 67
     7
 79
     5
170
     0
171
     0
290
     0
174
     0
 93
       13
 44
0.0
173
     0
291
     1
 45
0.0
1001
ACAD
1000
AcDbSavedByObjectVersion
1070
     0
  0
VISUALSTYLE
  5
F1
102
{ACAD_XDICTIONARY
360
29AF2
102
}
102
{ACAD_REACTORS
330
EF
102
}
330
EF
100
AcDbVisualStyle
  2
FlatWithEdges
 70
     1
 71
     2
 72
     1
 73
     1
 90
        2
 40
-0.6
 41
30.0
 62
     5
 63
     7
 74
     1
 91
        0
 64
     7
 65
   257
 75
     1
175
     1
 42
1.0
 92
        0
 66
   257
 43
1.0
 76
     1
 77
     6
 78
     2
 67
     7
 79
     5
170
     0
171
     0
290
     0
174
     0
 93
       13
 44
0.0
173
     0
291
     1
 45
0.0
1001
ACAD
1000
AcDbSavedByObjectVersion
1070
     0
  0
VISUALSTYLE
  5
F2
102
{ACAD_XDICTIONARY
360
29AF4
102
}
102
{ACAD_REACTORS
330
EF
102
}
330
EF
100
AcDbVisualStyle
  2
Gouraud
 70
     2
 71
     2
 72
     2
 73
     1
 90
        2
 40
-0.6
 41
30.0
 62
     5
 63
     7
 74
     0
 91
        0
 64
     7
 65
   257
 75
     1
175
     1
 42
1.0
 92
        0
 66
     7
 43
1.0
 76
     1
 77
     6
 78
     2
 67
     7
 79
     5
170
     0
171
     0
290
     0
174
     0
 93
       13
 44
0.0
173
     0
291
     1
 45
0.0
1001
ACAD
1000
AcDbSavedByObjectVersion
1070
     0
  0
VISUALSTYLE
  5
F3
102
{ACAD_XDICTIONARY
360
29AF6
102
}
102
{ACAD_REACTORS
330
EF
102
}
330
EF
100
AcDbVisualStyle
  2
GouraudWithEdges
 70
     3
 71
     2
 72
     2
 73
     1
 90
        2
 40
-0.6
 41
30.0
 62
     5
 63
     7
 74
     1
 91
        0
 64
     7
 65
   257
 75
     1
175
     1
 42
1.0
 92
        0
 66
   257
 43
1.0
 76
     1
 77
     6
 78
     2
 67
     7
 79
     5
170
     0
171
     0
290
     0
174
     0
 93
       13
 44
0.0
173
     0
291
     1
 45
0.0
1001
ACAD
1000
AcDbSavedByObjectVersion
1070
     0
  0
VISUALSTYLE
  5
F7
102
{ACAD_XDICTIONARY
360
29AFE
102
}
102
{ACAD_REACTORS
330
EF
102
}
330
EF
100
AcDbVisualStyle
  2
Hidden
 70
     6
 71
     1
 72
     2
 73
     2
 90
        0
 40
-0.6
 41
-30.0
 62
     5
 63
     7
 74
     2
 91
        2
 64
     7
 65
   257
 75
     2
175
     1
 42
40.0
 92
        0
 66
   257
 43
1.0
 76
     1
 77
     6
 78
     2
 67
     7
 79
     3
170
     0
171
     0
290
     0
174
     0
 93
        1
 44
0.0
173
     0
291
     0
 45
0.0
1001
ACAD
1000
AcDbSavedByObjectVersion
1070
     0
  0
VISUALSTYLE
  5
1E4
102
{ACAD_XDICTIONARY
360
29B12
102
}
102
{ACAD_REACTORS
330
EF
102
}
330
EF
100
AcDbVisualStyle
  2
JitterOff
 70
    20
 71
     2
 72
     2
 73
     0
 90
        0
 40
-0.6
 41
-30.0
 62
     5
 63
     7
 74
     1
 91
        4
 64
     7
 65
   257
 75
     1
175
     1
 42
1.0
 92
       10
 66
     7
 43
1.0
 76
     1
 77
     6
 78
     2
 67
     7
 79
     5
170
     0
171
     0
290
     0
174
     0
 93
        1
 44
0.0
173
     0
291
     1
 45
0.0
1001
ACAD
1000
AcDbSavedByObjectVersion
1070
     0
  0
VISUALSTYLE
  5
FD
102
{ACAD_XDICTIONARY
360
29B0A
102
}
102
{ACAD_REACTORS
330
EF
102
}
330
EF
100
AcDbVisualStyle
  2
Linepattern
 70
    14
 71
     2
 72
     2
 73
     1
 90
        0
 40
-0.6
 41
-30.0
 62
     5
 63
     7
 74
     1
 91
        4
 64
     7
 65
   257
 75
     7
175
     7
 42
1.0
 92
        8
 66
     7
 43
1.0
 76
     1
 77
     6
 78
     2
 67
     7
 79
     5
170
     0
171
     0
290
     0
174
     0
 93
        1
 44
0.0
173
     0
291
     1
 45
0.0
1001
ACAD
1000
AcDbSavedByObjectVersion
1070
     0
  0
VISUALSTYLE
  5
1E5
102
{ACAD_XDICTIONARY
360
29B14
102
}
102
{ACAD_REACTORS
330
EF
102
}
330
EF
100
AcDbVisualStyle
  2
OverhangOff
 70
    21
 71
     2
 72
     2
 73
     0
 90
        0
 40
-0.6
 41
-30.0
 62
     5
 63
     7
 74
     1
 91
        4
 64
     7
 65
   257
 75
     1
175
     1
 42
1.0
 92
        9
 66
     7
 43
1.0
 76
     1
 77
     6
 78
     2
 67
     7
 79
     5
170
     0
171
     0
290
     0
174
     0
 93
        1
 44
0.0
173
     0
291
     1
 45
0.0
1001
ACAD
1000
AcDbSavedByObjectVersion
1070
     0
  0
VISUALSTYLE
  5
F9
102
{ACAD_XDICTIONARY
360
29B02
102
}
102
{ACAD_REACTORS
330
EF
102
}
330
EF
100
AcDbVisualStyle
  2
Realistic
 70
     8
 71
     2
 72
     2
 73
     0
 90
        2
 40
-0.6
 41
30.0
 62
     5
 63
     7
 74
     0
 91
        0
 64
     7
 65
   257
 75
     1
175
     1
 42
1.0
 92
        8
 66
   257
 43
1.0
 76
     1
 77
     6
 78
     2
 67
     7
 79
     3
170
     0
171
     0
290
     0
174
     0
 93
       13
 44
0.0
173
     0
291
     0
 45
0.0
1001
ACAD
1000
AcDbSavedByObjectVersion
1070
     0
  0
VISUALSTYLE
  5
1F3
102
{ACAD_XDICTIONARY
360
29B20
102
}
102
{ACAD_REACTORS
330
EF
102
}
330
EF
100
AcDbVisualStyle
  2
Shaded
 70
    27
 71
     2
 72
     2
 73
     1
 90
        2
 40
-0.6
 41
30.0
 62
     5
 63
     7
 74
     0
 91
        4
 64
     7
 65
   257
 75
     1
175
     1
 42
1.0
 92
        8
 66
   257
 43
1.0
 76
     1
 77
     6
 78
     2
 67
     8
 79
     3
170
     0
171
     0
290
     0
174
     0
 93
        5
 44
0.0
173
     0
291
     0
 45
0.0
1001
ACAD
1000
AcDbSavedByObjectVersion
1070
     0
  0
VISUALSTYLE
  5
1F2
102
{ACAD_XDICTIONARY
360
29B1E
102
}
102
{ACAD_REACTORS
330
EF
102
}
330
EF
100
AcDbVisualStyle
  2
Shaded with edges
 70
    26
 71
     2
 72
     2
 73
     1
 90
        2
 40
-0.6
 41
30.0
 62
     5
 63
     7
 74
     1
 91
        2
 64
     7
 65
   257
 75
     2
175
     1
 42
1.0
 92
        8
 66
   257
 43
1.0
 76
     1
 77
     6
 78
     2
 67
     7
 79
     3
170
     0
171
     0
290
     0
174
     0
 93
        5
 44
0.0
173
     0
291
     0
 45
0.0
1001
ACAD
1000
AcDbSavedByObjectVersion
1070
     0
  0
VISUALSTYLE
  5
1EF
102
{ACAD_XDICTIONARY
360
29B18
102
}
102
{ACAD_REACTORS
330
EF
102
}
330
EF
100
AcDbVisualStyle
  2
Shades of Gray
 70
    23
 71
     2
 72
     2
 73
     3
 90
        0
 40
-0.6
 41
-30.0
 62
     5
 63
     7
 74
     2
 91
        2
 64
     7
 65
     7
 75
     1
175
     1
 42
40.0
 92
        8
 66
     7
 43
1.0
 76
     1
 77
     6
 78
     2
 67
     7
 79
     3
170
     0
171
     0
290
     0
174
     0
 93
        1
 44
0.0
173
     0
291
     0
 45
0.0
1001
ACAD
1000
AcDbSavedByObjectVersion
1070
     0
  0
VISUALSTYLE
  5
1F0
102
{ACAD_XDICTIONARY
360
29B1A
102
}
102
{ACAD_REACTORS
330
EF
102
}
330
EF
100
AcDbVisualStyle
  2
Sketchy
 70
    24
 71
     1
 72
     2
 73
     2
 90
        0
 40
-0.6
 41
-30.0
 62
     5
 63
     7
 74
     2
 91
        2
 64
     7
 65
     7
 75
     1
175
     1
 42
40.0
 92
       11
 66
     7
 43
1.0
 76
     1
 77
     6
 78
     2
 67
     7
 79
     6
170
     0
171
     0
290
     0
174
     0
 93
        1
 44
0.0
173
     0
291
     0
 45
0.0
1001
ACAD
1000
AcDbSavedByObjectVersion
1070
     0
  0
VISUALSTYLE
  5
FC
102
{ACAD_XDICTIONARY
360
29B08
102
}
102
{ACAD_REACTORS
330
EF
102
}
330
EF
100
AcDbVisualStyle
  2
Thicken
 70
    13
 71
     2
 72
     2
 73
     1
 90
        0
 40
-0.6
 41
-30.0
 62
     5
 63
     7
 74
     1
 91
        4
 64
     7
 65
   257
 75
     1
175
     1
 42
1.0
 92
       12
 66
     7
 43
1.0
 76
     1
 77
     6
 78
     2
 67
     7
 79
     5
170
     0
171
     0
290
     0
174
     0
 93
        1
 44
0.0
173
     0
291
     1
 45
0.0
1001
ACAD
1000
AcDbSavedByObjectVersion
1070
     0
  0
VISUALSTYLE
  5
F6
102
{ACAD_XDICTIONARY
360
29AFC
102
}
102
{ACAD_REACTORS
330
EF
102
}
330
EF
100
AcDbVisualStyle
  2
Wireframe
 70
     5
 71
     0
 72
     2
 73
     0
 90
        0
 40
-0.6
 41
-30.0
 62
     5
 63
     7
 74
     1
 91
        4
 64
     7
 65
   257
 75
     1
175
     1
 42
1.0
 92
        0
 66
   257
 43
1.0
 76
     1
 77
     6
 78
     2
 67
     7
 79
     3
170
     0
171
     0
290
     0
174
     0
 93
        1
 44
0.0
173
     0
291
     0
 45
0.0
1001
ACAD
1000
AcDbSavedByObjectVersion
1070
     0
  0
VISUALSTYLE
  5
1F1
102
{ACAD_XDICTIONARY
360
29B1C
102
}
102
{ACAD_REACTORS
330
EF
102
}
330
EF
100
AcDbVisualStyle
  2
X-Ray
 70
    25
 71
     2
 72
     2
 73
     1
 90
        1
 40
0.5
 41
-30.0
 62
     5
 63
     7
 74
     1
 91
        0
 64
     7
 65
   257
 75
     1
175
     1
 42
1.0
 92
        8
 66
     7
 43
1.0
 76
     1
 77
     6
 78
     2
 67
     7
 79
     3
170
     0
171
     0
290
     0
174
     0
 93
       13
 44
0.0
173
     0
291
     0
 45
0.0
1001
ACAD
1000
AcDbSavedByObjectVersion
1070
     0
  0
DICTIONARYVAR
  5
146
102
{ACAD_REACTORS
330
5E
102
}
330
5E
100
DictionaryVariables
280
     0
  1
1:1
  0
DICTIONARYVAR
  5
259
102
{ACAD_REACTORS
330
5E
102
}
330
5E
100
DictionaryVariables
280
     0
  1
3.500000
  0
DICTIONARYVAR
  5
25A
102
{ACAD_REACTORS
330
5E
102
}
330
5E
100
DictionaryVariables
280
     0
  1
acadiso.lin
  0
DICTIONARYVAR
  5
145
102
{ACAD_REACTORS
330
5E
102
}
330
5E
100
DictionaryVariables
280
     0
  1
STANDARD
  0
DICTIONARYVAR
  5
84
102
{ACAD_REACTORS
330
5E
102
}
330
5E
100
DictionaryVariables
280
     0
  1
STANDARD
  0
DICTIONARYVAR
  5
227
102
{ACAD_REACTORS
330
5E
102
}
330
5E
100
DictionaryVariables
280
     0
  1
Metric50
  0
DICTIONARYVAR
  5
228
102
{ACAD_REACTORS
330
5E
102
}
330
5E
100
DictionaryVariables
280
     0
  1
Metric50
  0
DICTIONARYVAR
  5
5F
102
{ACAD_REACTORS
330
5E
102
}
330
5E
100
DictionaryVariables
280
     0
  1
2
  0
DICTIONARYVAR
  5
63
102
{ACAD_REACTORS
330
5E
102
}
330
5E
100
DictionaryVariables
280
     0
  1
1
  0
DICTIONARYVAR
  5
29A91
102
{ACAD_REACTORS
330
5E
102
}
330
5E
100
DictionaryVariables
280
     0
  1
0
  0
DICTIONARYVAR
  5
1AE
102
{ACAD_REACTORS
330
5E
102
}
330
5E
100
DictionaryVariables
280
     0
  1
0
  0
DICTIONARYVAR
  5
1AF
102
{ACAD_REACTORS
330
5E
102
}
330
5E
100
DictionaryVariables
280
     0
  1
0
  0
DICTIONARYVAR
  5
29A8F
102
{ACAD_REACTORS
330
5E
102
}
330
5E
100
DictionaryVariables
280
     0
  1
2
  0
DICTIONARYVAR
  5
29A8E
102
{ACAD_REACTORS
330
5E
102
}
330
5E
100
DictionaryVariables
280
     0
  1
1
  0
DICTIONARYVAR
  5
29AE1
102
{ACAD_REACTORS
330
5E
102
}
330
5E
100
DictionaryVariables
280
     0
  1
80.000000
  0
DICTIONARYVAR
  5
29AE0
102
{ACAD_REACTORS
330
5E
102
}
330
5E
100
DictionaryVariables
280
     0
  1
5.000000
  0
DICTIONARYVAR
  5
29A90
102
{ACAD_REACTORS
330
5E
102
}
330
5E
100
DictionaryVariables
280
     0
  1
127
  0
DICTIONARYVAR
  5
29AE2
102
{ACAD_REACTORS
330
5E
102
}
330
5E
100
DictionaryVariables
280
     0
  1
2
  0
DICTIONARY
  5
29B24
330
21C
100
AcDbDictionary
280
     1
281
     1
  3
ACAD_XREC_ROUNDTRIP
360
29B25
  0
DICTIONARY
  5
29AE9
330
D3
100
AcDbDictionary
280
     1
281
     1
  3
ACAD_XREC_ROUNDTRIP
360
29AEA
  0
DICTIONARY
  5
29AEB
330
D7
100
AcDbDictionary
280
     1
281
     1
  3
ACAD_XREC_ROUNDTRIP
360
29AEC
  0
DICTIONARY
  5
29AE6
330
22
100
AcDbDictionary
280
     1
281
     1
  3
ACAD_XREC_ROUNDTRIP
360
29AE7
  0
DICTIONARY
  5
1F9
330
ED
100
AcDbDictionary
280
     1
281
     1
  3
ACAD_XREC_ROUNDTRIP
360
29AEE
  3
FBXASSET
360
1FA
  0
DICTIONARY
  5
1F7
330
EC
100
AcDbDictionary
280
     1
281
     1
  3
ACAD_XREC_ROUNDTRIP
360
29AED
  3
FBXASSET
360
1F8
  0
DICTIONARY
  5
173
330
EE
100
AcDbDictionary
280
     1
281
     1
  3
ACAD_XREC_ROUNDTRIP
360
29AEF
  3
BUMPTILE
360
175
  3
DIFFUSETILE
360
174
  3
FBXASSET
360
1FB
  3
OPACITYTILE
360
176
  3
REFLECTIONTILE
360
177
  0
DICTIONARY
  5
29B10
330
12E
100
AcDbDictionary
280
     1
281
     1
  3
ACAD_XREC_ROUNDTRIP
360
29B11
  0
DICTIONARY
  5
29B22
330
21A
100
AcDbDictionary
280
     1
281
     1
  3
ACAD_XREC_ROUNDTRIP
360
29B23
  0
DICTIONARY
  5
162
330
7F
100
AcDbDictionary
280
     1
281
     1
  3
ACAD_ROUNDTRIP_2008_TABLESTYLE_CELLSTYLEMAP
360
29AE3
  3
ACAD_XREC_ROUNDTRIP
360
29AE8
  0
DICTIONARY
  5
29AFA
330
F5
100
AcDbDictionary
280
     1
281
     1
  3
ACAD_XREC_ROUNDTRIP
360
29AFB
  0
DICTIONARY
  5
29AF8
330
F4
100
AcDbDictionary
280
     1
281
     1
  3
ACAD_XREC_ROUNDTRIP
360
29AF9
  0
DICTIONARY
  5
29B06
330
FB
100
AcDbDictionary
280
     1
281
     1
  3
ACAD_XREC_ROUNDTRIP
360
29B07
  0
DICTIONARY
  5
29B0E
330
FF
100
AcDbDictionary
280
     1
281
     1
  3
ACAD_XREC_ROUNDTRIP
360
29B0F
  0
DICTIONARY
  5
29B00
330
F8
100
AcDbDictionary
280
     1
281
     1
  3
ACAD_XREC_ROUNDTRIP
360
29B01
  0
DICTIONARY
  5
29B04
330
FA
100
AcDbDictionary
280
     1
281
     1
  3
ACAD_XREC_ROUNDTRIP
360
29B05
  0
DICTIONARY
  5
29B16
330
1E6
100
AcDbDictionary
280
     1
281
     1
  3
ACAD_XREC_ROUNDTRIP
360
29B17
  0
DICTIONARY
  5
29B0C
330
FE
100
AcDbDictionary
280
     1
281
     1
  3
ACAD_XREC_ROUNDTRIP
360
29B0D
  0
DICTIONARY
  5
29AF0
330
F0
100
AcDbDictionary
280
     1
281
     1
  3
ACAD_XREC_ROUNDTRIP
360
29AF1
  0
DICTIONARY
  5
29AF2
330
F1
100
AcDbDictionary
280
     1
281
     1
  3
ACAD_XREC_ROUNDTRIP
360
29AF3
  0
DICTIONARY
  5
29AF4
330
F2
100
AcDbDictionary
280
     1
281
     1
  3
ACAD_XREC_ROUNDTRIP
360
29AF5
  0
DICTIONARY
  5
29AF6
330
F3
100
AcDbDictionary
280
     1
281
     1
  3
ACAD_XREC_ROUNDTRIP
360
29AF7
  0
DICTIONARY
  5
29AFE
330
F7
100
AcDbDictionary
280
     1
281
     1
  3
ACAD_XREC_ROUNDTRIP
360
29AFF
  0
DICTIONARY
  5
29B12
330
1E4
100
AcDbDictionary
280
     1
281
     1
  3
ACAD_XREC_ROUNDTRIP
360
29B13
  0
DICTIONARY
  5
29B0A
330
FD
100
AcDbDictionary
280
     1
281
     1
  3
ACAD_XREC_ROUNDTRIP
360
29B0B
  0
DICTIONARY
  5
29B14
330
1E5
100
AcDbDictionary
280
     1
281
     1
  3
ACAD_XREC_ROUNDTRIP
360
29B15
  0
DICTIONARY
  5
29B02
330
F9
100
AcDbDictionary
280
     1
281
     1
  3
ACAD_XREC_ROUNDTRIP
360
29B03
  0
DICTIONARY
  5
29B20
330
1F3
100
AcDbDictionary
280
     1
281
     1
  3
ACAD_XREC_ROUNDTRIP
360
29B21
  0
DICTIONARY
  5
29B1E
330
1F2
100
AcDbDictionary
280
     1
281
     1
  3
ACAD_XREC_ROUNDTRIP
360
29B1F
  0
DICTIONARY
  5
29B18
330
1EF
100
AcDbDictionary
280
     1
281
     1
  3
ACAD_XREC_ROUNDTRIP
360
29B19
  0
DICTIONARY
  5
29B1A
330
1F0
100
AcDbDictionary
280
     1
281
     1
  3
ACAD_XREC_ROUNDTRIP
360
29B1B
  0
DICTIONARY
  5
29B08
330
FC
100
AcDbDictionary
280
     1
281
     1
  3
ACAD_XREC_ROUNDTRIP
360
29B09
  0
DICTIONARY
  5
29AFC
330
F6
100
AcDbDictionary
280
     1
281
     1
  3
ACAD_XREC_ROUNDTRIP
360
29AFD
  0
DICTIONARY
  5
29B1C
330
1F1
100
AcDbDictionary
280
     1
281
     1
  3
ACAD_XREC_ROUNDTRIP
360
29B1D
  0
XRECORD
  5
29B25
102
{ACAD_REACTORS
330
29B24
102
}
330
29B24
100
AcDbXrecord
280
     1
102
DISPLAYNAME
  1
Metric50
102
FLAGS
 90
        0
  0
XRECORD
  5
29AEA
102
{ACAD_REACTORS
330
29AE9
102
}
330
29AE9
100
AcDbXrecord
280
     1
102
SHADEPLOT
 70
     0
102
SHADEPLOTRESLEVEL
 70
     2
102
SHADEPLOTCUSTOMDPI
 70
   300
  0
XRECORD
  5
29AEC
102
{ACAD_REACTORS
330
29AEB
102
}
330
29AEB
100
AcDbXrecord
280
     1
102
SHADEPLOT
 70
     0
102
SHADEPLOTRESLEVEL
 70
     2
102
SHADEPLOTCUSTOMDPI
 70
   300
  0
XRECORD
  5
29AE7
102
{ACAD_REACTORS
330
29AE6
102
}
330
29AE6
100
AcDbXrecord
280
     1
102
SHADEPLOT
 70
     0
102
SHADEPLOTRESLEVEL
 70
     2
102
SHADEPLOTCUSTOMDPI
 70
   300
  0
XRECORD
  5
29AEE
102
{ACAD_REACTORS
330
1F9
102
}
330
1F9
100
AcDbXrecord
280
     1
102
MATERIAL
148
0.0
149
0.0
149
0.0
 93
        0
 94
       63
282
     0
 72
     1
 77
     1
171
     1
175
     1
179
     1
273
     0
  0
XRECORD
  5
1FA
102
{ACAD_REACTORS
330
1F9
102
}
330
1F9
100
AcDbXrecord
280
     1
 70
     1
 90
429727718
  1
D62C5603-E3A1-4AEA-B7FB-FE5D8D0755AF
310
504B03040A0000080000CC70623B3DEE336E79000000790000001B0000006175746F6465736B2D64657369676E2D7061636B6167652E786D6C3C3F786D6C2076657273696F6E3D22312E302220656E636F64696E673D227574662D3822203F3E3C666F726D6174733E3C666F726D61743E687474703A2F2F736368656D612E
310
6175746F6465736B2E636F6D2F64657369676E2D7061636B6167652F323030393C2F666F726D61743E3C2F666F726D6174733E504B0304140006080800CC70623BD486FD9CA0000000F4000000130000005B436F6E74656E745F54797065735D2E786D6C7D8EC10E82300C865F65E91D8A1E8C310C0EEA1BF002731658846E
310
D98AC1B77784ABF1D8FE5FBFBF75BBCE937A534CCEB38643598122B6FEE978D0B0485F9C41B54DDD7D022595594E1A469170414C76A4D9A4D207E29CF43ECE46F218070CC6BECC4078ACAA135ACF422C856C0E68EA1BF5669944DDD7BCDE7B1F8E415D77AECB980613C2E4AC91FC167A2B244592486606FC29C8FD7F045B9A
310
EF7053A7E60B504B0304140006080800CC70623B853B8169EB0000007C01000008000000636F72652E786D6C8D90416EC3201045AF62CDB6C206821CC7C244919D9CA01740401C94182C03558F5F9C3852BBEB6A467FFE9B197D7EFC9E1EC5975982F5AE035262288C535E5B377690E21535501C055FBC8FBF6C503839990E
310
5619041F179FE64D52DE45E362569DD7661365082642A11EB9E920A89B99642953CC8E702F67A9EE7234257977194EC9EAE275C4EABCCF5EAD5940D4AC6F0E35A568B8F43562CD7046CD199FD07E60174276A7BE677B5EADB0E0D14EEFFB6A31321A0D82627C4084204C3F096B71DD52F6819B16635EADF63F509AF53FA164
310
5DDCD1EDDD17164090FCC8732078B56691CB33A85CD7DCC40F504B0304140006080800CC70623B55019EA25F0000007C00000007000000636E782E786D6C4DCB3B0E80201045D1AD90E915ED2CF8AC45050C11660C8261F98AB1B07AC9C97D42D718D865D3E909258CFD00CCE24AC6E326A164D74DC0B4128928FF32603847
310
2BA13128B1252AC747C6BAB984FC68F0B87FE8960A5C09FE86CFB69FBA01504B0304140006080800CC70623BDBABAAF470010000D40300000C0000006662782F636F72652E786D6CC553D16E823014FD95A6AF4B694182CC941A83FA05FB810A9511A125A5257EFE2E82712ECEB8A7F100CD39F7F69E734AF9FADC366850B6
310
AF8DCE7018308C942E4C59EB2AC3DE1D498AD15A706B8CFB56869196ADCAF00863C12B6B7C374385D14E6907A836A59A41D9F7CA615434B0C8705F7CAA5606D23BA8E84F41278B93AC54100640439DE0BDB320004D43C63716C7C399D30917DCFBBA9CD9BA8469F5B156168B24CED3F7248AC8769F27244EB73B92EED8862C
310
B7F13E0C179B3C8F979C8ECD82BBBABDAA2BAC924E9558448CBD9330242CFA08E3154B5651FCC6D215639C8EE5774DBE2B5F6CF2B5768B68963BB5F5588420E442FC700B1139D4CB01F450C1E918227C2E09DF070D8140C84E1E9AAB8F1340832A9CB13130A5F1376A908D57309505ECF2A0DF179C4E9D30F5B239B87E3823
310
7A79C6F31DE1A8A5AEC08474B03C7837EAE4938639B44E5932B833D2C6B6B279CDC613877FA26EE21F4A2A4C63EC7F29A2F301D1F9F7A0E37D145F504B0304140006080800CC70623B9C113CC27E0000009D0000000B0000006662782F636E782E786D6C4DCCDF0A83201C86E15B91DFB94BFB330DD428C8FB886521330DA7
310
6397BF1A1DECE883878F57749FCDA1B7892F1BBC047A23808C7F84D9FA55424E0BE6803A256208E9EF06C84F9B91703228B1C690F78B66B34CD9A5439DF5CF0BFBF65E35BCA1B8D6A5C6F540381E886698B5741C695F9503EBA150A2F8958E3DC3EA0B504B0304140006080800CC70623B7DF2F77C2A010000120200003100
310
00006662782F41393633353835312D344632462D344230382D423046372D3739314545314133324237412F636F72652E786D6C8D51DB8EC22014FC15C2939B0D2DB4B45643319AE817EC0F6041255A68B86CFCFC856D4D76DF7CE190393373060EDB3DC707F856CE6B6B7A480A0C81328395DA5C7B18C3057510EC3873D686
310
3F34088C18550F330C39BB3A1BA7051AAC09CA84841A2BD5020AEF55806078A44B0FFD7053A328440C89E1EFC52486BBB8AA8214A99D789CF9E05200300FC927E4FB4D5B375D43103D5527440FB843077C5AA3F5861C8F645F5787F59E95B390B318B55CE45AA638FAA2957BD7248B390B7A7CC51F9C124149C82B8C378810
310
84AB2F42B7B8DD56F413775B8C5999E9FF4471926F8AA236A1AE96B8B3CC434E5839373893369E1FAF30EA395917409EB7F26AF8801C171837A4A6AC9C89E9F9C9B1A58BA30FD6A5EF5DDDCF894B9AD9B6A59C957943A9FCAE2FD5BC4DFE03504B0304140006080800CC70623BAD7543B64E01000033030000300000006662
310
782F41393633353835312D344632462D344230382D423046372D3739314545314133324237412F636E782E786D6CD593CD6EC32010845F0571AD6CE3D48AD20813A9873E410FBD12D82434182C7EAAE6EDBB2424CD25871E7B41D6EC30B3FA84F9E67BB2E40B4234DE8DB46F1925E094D7C6ED479AD3AE5951B2113C789FEE
310
6C943839C1488B4C05DF079FE72A69D8C96C13AAD6B8631503449F83828872B949AC57D26200B826A308D316B4064D6E46FCDA41C05550DC9E483A00797BFD207EFB092A45DE9514C1BBD22178396BD39D891265658C238DEA00936C654E5E433CB65A26D9F6EDB5EBC14EBF49A45CB856E66048291F6939A9A81BB5C89177
310
38143CA680F4AA299D66A042CEB3354A2684DC9D8D178FE0D9B8B41CAAD720F880EE7EF93C0C18769E099ECC04D5A102C8049A8A05632F4DDF376CF1DE0F6BB65C2F8627B65A33C6BB62177CEBBDAD973006829F89F22E814B54F4BC2BE347F8AA8F681390B50FA73F804400B5F542E796F19FF974E7F78DB802FE05E20750
310
4B0304140006080800CC70623BE75B7789680500003C100000340000006662782F41393633353835312D344632462D344230382D423046372D3739314545314133324237412F6F626A656374732E786D6CAD575B8F9B3818FD2B887D06C22499CB8AA1CA655245D5B455A356FB305264C061D8018C6C3393D95FBFC7600890
310
A4CD5EF210B0B1BFEBF98E3F7B1FF6596ABC522E1296DF9BAE3D320D9A872C4AF2F8DE2CE5CEBA358D0FBEC719939D65A691938CDE9B6ADAF4BD98B3B2D05311DD91329583D9D5FC0F438434A7A611A644887B5384CF34233629258BA878B12322891DEFF6B66BD70BFB62634E8AE781D082709A4B588AF91C528CDA28B73F
310
1C998EEF39EABBEFA97FBD6A7C7E9553F9D3D79FE442923C3C523610337627CB87ABE99D359D4CC6D6E4FACAB5E6ABF9D2726FC6A3C5F56271377BB88362213924694B38DD99FE47C48627A1E7D49F5A8BB5E1A74C0A599ED3B0F21F1E56366B89112D681E218F0915D0D6F17AD41FBA2A369DCF6335D62ABBD39779D5DDD1
310
11D4D8DE3CBB96B2E04FB8202E41051754A1AA8E8F76B4C6DFE810B580B1547F4B84911149794252234D024EF8BBE963A95AE27B3D310A9D5C215C7960FAEE415ED75694C6AFB17BCACA5D99A60A9AA65F217B0BFC53292ACB92BF283FAD0D3621576592CB5BED907C2FA8E9DF794E35E97BEA31BED21FEB401ABB94C44839
310
DCACBF0E1C5DA8DA5B2F4DFFD32AD86F543D9E565E7056502E157C00AD2671CD534549AB752FCA9CDA00677A313F04E51B22FF19E57B300579E3C97EB29F682D92935CEC18CF901B7B54FD8C51F362B56FC72FE0B3C1EAE335EDCCBF5AEC39ADB17DC238973F804BA5E6F6BFE7AF1FB32E523BE9F3BD571418E3631DCA4D48
310
5250CF639223210A9446CA30052EDF057BD35F8329C1ECD84552BF0DC8D18BE7BCE23BFE6BD960AB4A7DE79923A103BEBD80F911CBAA2C60DB19B01CF164A5583B772EE6D3FFA56666CBCDA74DC97724A48F9A58967497E489C4D979006FD7A05E227A1EBDD0F737C623387A9C844D3709995625106D157315F8B8392CD4E0
310
A0B9A720C4BE9829CEF37EA1E13111214D53925356365ADA634861B52519DD27A00AEB808EAF0628E6F435519D446F45CF2C9CF5214F0A15B2F6D06B79DA3EE3CBF7F56780D2F4E7EF73A0F5E5B02A38D07DC852C6B7C1FBB6664213E0C39E3EBA7FF4E1AD23EA2829407C85E586727488B751B2DB9502BC7B228A3FD68B6E
310
A65A22397E690AA8D158D7E404EC8CDA235CC3B7D1898680131CEC2CDF2638C65196279577750F15884AEE19F94199155B92B13297978469D4F8D358DF0AEF7631E28DC8F0D9F437D5D39A83B2231A1D52D543813A824EF8D44BCFF2FA6A31BD1E8DAD87F1CCB526B3879935BF59CDADD5C37479BB1CDD4CA7B3556B516589
310
EF352754B706114D9C885EC9131DE6EFEB43D99AFE2391C2F958179413D7CFEF6B1B6DB1E7600F00DE6E5C67454A339A4BA2E0FBA85ED26F045D454F463DBFCE484C2F90F2E5E3666003662ED8F755951A7D1BECD5B30B550B2785C8E7320B7292A4838DDA71BBC863ED7613CAF659337A3354231D4FF4A182A54904C2898C
310
98B28C4AD0CE056CCF332A80986E571EE9DBC305BB5FEB7E509220A58D25CF042D712A806AC0AD0C657FDEF80D2D9CEAA2EE4D1C76F60BFE74219A06527D6F82DF6412526107381E55E353090704D085B52408A8913C4ED159D79BDA71BB4BC506F4831350EB6F975CD22D69BF7AC49B91A2C0A9DDA3D5CA36AD20FC478E37
310
E61844E2352865EBCB61A275A65283CAAA9DD27703B4102F5AF51EF5F573B75CBB5AD38BC845F7A49F82A0966A49C2E3EA5EA0ECD326CD965F1DB402C6FA8B51A4658C5C5E2EC9E214602E55810345408596591009A82E7E7FFACA19EEA299B14A0081A705CB3296EBC14CDF658DCD336EA6D1136881AAEB87B81AB9EE53D5
310
F5EB8BC8362082DA24122F98680A4E7930C01A0079749CEA14382A0783E5EBA5A10F8C098456A03D6A4AEB6BB881E2513747552A5DB22C7EDAF83BD5528081A365F7FF06504B0304140006080000CC70623B000000000000000000000000350000006662782F41393633353835312D344632462D344230382D423046372D37
310
39314545314133324237412F76657274696365732E62696E504B0304140006080800CC70623BF270F1330600000004000000360000006662782F41393633353835312D344632462D344230382D423046372D3739314545314133324237412F747269616E676C65732E62696E636660600000504B0304140006080000CC7062
310
3B000000000000000000000000370000006662782F41393633353835312D344632462D344230382D423046372D3739314545314133324237412F617474726962757465732E62696E504B0304140006080800CC70623B08DA0BD19000000041010000360000006662782F41393633353835312D344632462D344230382D4230
310
46372D3739314545314133324237412F6469726563746F72792E786D6C858F410AC3201045AF22B36F53E9A60B35CBEEBAE80D244E44489C6234F4F835464A48035D0DF398FF9F8AF63D0E6CC63039F212F8F9020C7D47C6792B21C5FE7403D62A1188E2E60C98D7234A5830286103A55745067B9D86B8A3CF9C7F90C11DE6
310
07FB144396D7B6A82D282E9A152AD114D5EF2CB866EEE831B8EEA07A7BB5A8D7D61A2BAAEB7FD5F70921FF497D00504B0304140006080800CC70623BEDD1DC58FD000000A00100003B0000006662782F41393633353835312D344632462D344230382D423046372D3739314545314133324237412F7265736F75726365732F
310
636F72652E786D6C8D504B6E833010BD0A9A6D65B00922041947112427E8052C33A156828DFCA97AFC9A40A576D7CDCCE87D344F8F9FBFE667F689CE6B6B3A6039850C8DB2A336530731DC4903D95970676DF82583CCC8193B5861107C72362E3BA4AC096842428D1D7107A5F7182053CF7474E0D507CE32973124857FE48B
310
540F3961CEF244279DE03EB81420DB9EAC1384436FA353E879B1B182C7A8C75DA3C7F453DF353A1075D537A7BA6464B8F535A99AE14A9A2BBD90E350DD183B5CFABE3AF262350B1EF4FC9351399401471025A527C218A1E53BAB5A5AB765F5469B96525EACF23FA6B88CFF34456DC2A1DCE36E360F82A5202F42F062ED2BAD
310
579969AFDD8A6F504B010214000A0000080000CC70623B3DEE336E79000000790000001B00000000000000000000000000000000006175746F6465736B2D64657369676E2D7061636B6167652E786D6C504B01021400140006080800CC70623BD486FD9CA0000000F40000001300000000000000000000000000B20000005B
310
436F6E74656E745F54797065735D2E786D6C504B01021400140006080800CC70623B853B8169EB0000007C010000080000000000000000000000000083010000636F72652E786D6C504B01021400140006080800CC70623B55019EA25F0000007C000000070000000000000000000000000094020000636E782E786D6C504B
310
01021400140006080800CC70623BDBABAAF470010000D40300000C00000000000000000000000000180300006662782F636F72652E786D6C504B01021400140006080800CC70623B9C113CC27E0000009D0000000B00000000000000000000000000B20400006662782F636E782E786D6C504B01021400140006080800CC70
310
623B7DF2F77C2A010000120200003100000000000000000000000000590500006662782F41393633353835312D344632462D344230382D423046372D3739314545314133324237412F636F72652E786D6C504B01021400140006080800CC70623BAD7543B64E010000330300003000000000000000000000000000D2060000
310
6662782F41393633353835312D344632462D344230382D423046372D3739314545314133324237412F636E782E786D6C504B01021400140006080800CC70623BE75B7789680500003C10000034000000000000000000000000006E0800006662782F41393633353835312D344632462D344230382D423046372D3739314545
310
314133324237412F6F626A656374732E786D6C504B01021400140006080000CC70623B0000000000000000000000003500000000000000000000000000280E00006662782F41393633353835312D344632462D344230382D423046372D3739314545314133324237412F76657274696365732E62696E504B01021400140006
310
080800CC70623BF270F133060000000400000036000000000000000000000000007B0E00006662782F41393633353835312D344632462D344230382D423046372D3739314545314133324237412F747269616E676C65732E62696E504B01021400140006080000CC70623B0000000000000000000000003700000000000000
310
000000000000D50E00006662782F41393633353835312D344632462D344230382D423046372D3739314545314133324237412F617474726962757465732E62696E504B01021400140006080800CC70623B08DA0BD1900000004101000036000000000000000000000000002A0F00006662782F41393633353835312D344632
310
462D344230382D423046372D3739314545314133324237412F6469726563746F72792E786D6C504B01021400140006080800CC70623BEDD1DC58FD000000A00100003B000000000000000000000000000E1000006662782F41393633353835312D344632462D344230382D423046372D3739314545314133324237412F7265
310
736F75726365732F636F72652E786D6C504B0506000000000E000E0080040000641100000000
  0
XRECORD
  5
29AED
102
{ACAD_REACTORS
330
1F7
102
}
330
1F7
100
AcDbXrecord
280
     1
102
MATERIAL
148
0.0
149
0.0
149
0.0
 93
        0
 94
       63
282
     0
 72
     1
 77
     1
171
     1
175
     1
179
     1
273
     0
  0
XRECORD
  5
1F8
102
{ACAD_REACTORS
330
1F7
102
}
330
1F7
100
AcDbXrecord
280
     1
 70
     1
 90
429727718
  1
30362254-06B7-45E0-A893-8CFA70E3D6BC
310
504B03040A0000080000CC70623B3DEE336E79000000790000001B0000006175746F6465736B2D64657369676E2D7061636B6167652E786D6C3C3F786D6C2076657273696F6E3D22312E302220656E636F64696E673D227574662D3822203F3E3C666F726D6174733E3C666F726D61743E687474703A2F2F736368656D612E
310
6175746F6465736B2E636F6D2F64657369676E2D7061636B6167652F323030393C2F666F726D61743E3C2F666F726D6174733E504B0304140006080800CC70623BD486FD9CA0000000F4000000130000005B436F6E74656E745F54797065735D2E786D6C7D8EC10E82300C865F65E91D8A1E8C310C0EEA1BF002731658846E
310
D98AC1B77784ABF1D8FE5FBFBF75BBCE937A534CCEB38643598122B6FEE978D0B0485F9C41B54DDD7D022595594E1A469170414C76A4D9A4D207E29CF43ECE46F218070CC6BECC4078ACAA135ACF422C856C0E68EA1BF5669944DDD7BCDE7B1F8E415D77AECB980613C2E4AC91FC167A2B244592486606FC29C8FD7F045B9A
310
EF7053A7E60B504B0304140006080800CC70623B1EC5D7A3EB0000007C01000008000000636F72652E786D6C8D90416EC3201045AF82665B6103C6756C6122AB4D4ED00B204C5C94182C03558F5F9C3852BBEB6A467FFE9B197D71FC9E6FE8CBACC17AD7032D0820E3B41FAD9B7A48F1820F808E52ACDEC75F36404ECDA687
310
4D0629A6D5A76597B477D1B89855E747B38B2A041301E95B6E7A08FAD3CCAA50296647B8168BD2573599823EBB0CA76447F43862C7BCCF5EAC59410E4DDD9C7973C2755553CCCFA4C603E3040F1565ED3B1FDE4E432BCA0D9622DAF9795FAF464533826484B498524CD807E51D79ED187F21878E10516EF63F505AC67F42C9
310
BA58B1FDDD071640D2FCC87D2045B96591CB3DA85CB7DCE40F504B0304140006080800CC70623B55019EA25F0000007C00000007000000636E782E786D6C4DCB3B0E80201045D1AD90E915ED2CF8AC45050C11660C8261F98AB1B07AC9C97D42D718D865D3E909258CFD00CCE24AC6E326A164D74DC0B4128928FF32603847
310
2BA13128B1252AC747C6BAB984FC68F0B87FE8960A5C09FE86CFB69FBA01504B0304140006080800CC70623B8C9102E971010000D40300000C0000006662782F636F72652E786D6CC5535B6E833010BC8AE5DF0A6C08340F1947A84D4ED00B38C6A128602363A31CBFCB234A53A551FA553EC09AD9F5CE8C31DB9E9B1AF5CA
310
7695D1198E428A91D2D214952E33ECDD315861B4E5CC1AE3BE9561A445A3323CC098B3D21ADFCE9034DA29ED00D5A6503328BA4E398C640D8B0C77F253352214DE4145770A5B214FA2546114020D759C75CE8200340D19DE981F0F6746269C33EFAB6266AB02A655C74A59CCF365BADC27CB5D902ED22848F6340DF238A141
310
BE88E2F57B92BFEDF23523433367AE6A2EEAA455C2A902F398D2751045018D3FA264435F3771F242571B4A1919CA6F9A7C5B3CD9E42BED16F12C776AEB308F40C848FC700B1139D4891EF410CEC810227CC6846F8386402064270EF5C5C709A05E49676C024C61FC95EA45ED154CA5211D1FF4FB8291A913A68E9B83EBBB33
310
E2A7673CDE118E5AE8124C0807CB8377834E366998436B950D7A7746DAD846D4CFD978E0F04FD455FC5D49D2D4C6FE9722321F10997F0F32DC47FE05504B0304140006080800CC70623BFFEA85907E0000009D0000000B0000006662782F636E782E786D6C4DCCD10A83201886E15B91FFDC95D95A811AB6F23E625948A6C3
310
E9D8E5AF46073BFAE0E1E365ED67B3E8ADC3CB78C7815C7240DA3DFC64DCC221C519D7805AC182F7F1EF06C88D9BE6703008B6049F9E274D7A1E938DBB5AE3D6131B2589BA0D3D965551E0B2EA732C9B9A624AAEB41E3A557677029960D9AFB4EF11165F504B0304140006080800CC70623B4FEEA4082C0100001202000031
310
0000006662782F39464131463745442D413632322D343644302D413938332D3331353338454246344243312F636F72652E786D6C8D515B6EC32010BC0AE2AB55850DD871ED0813254D72825EC00192A2C460F1A872FC42ED48ED5F7E00CDCECCCEB26C731F6FE05B39AFADE921293004CA082BB5B9F43086336A21D870E6AC
310
0D7F68109861543DCC30E4ECE26C9C164858139409093556AA051CBC570102714B8F1E7AF1A5C6A11862480C7F2DA6415C878B2A4891CA89C7990F2E050073937C42DE1DB7E4F87ED8A36D4329AA9B3D46DBAEAD504556557BD81DEBDD0761E52CE42C462D17B996298E3E6BE59E35C962CE821E1FF18553435012728A7187
310
0841987E927A8D9B35ADDF70BBC6989599FE4F1427F9A4286A132ABAC49D651EF234CD5CE04CDA78BA3DC2A8FB645D00B9DF8B57E215725C60BCA2A463E54C4CE327C7A65E1C7DB02E7DEFCBF594B864C5CA6CDBD49C957943E9FA5D5FBAF336F90F504B0304140006080800CC70623BAD7543B64E01000033030000300000
310
006662782F39464131463745442D413632322D343644302D413938332D3331353338454246344243312F636E782E786D6CD593CD6EC32010845F0571AD6CE3D48AD20813A9873E410FBD12D82434182C7EAAE6EDBB2424CD25871E7B41D6EC30B3FA84F9E67BB2E40B4234DE8DB46F1925E094D7C6ED479AD3AE5951B2113C
310
789FEE6C943839C1488B4C05DF079FE72A69D8C96C13AAD6B8631503449F83828872B949AC57D26200B826A308D316B4064D6E46FCDA41C05550DC9E483A00797BFD207EFB092A45DE9514C1BBD22178396BD39D891265658C238DEA00936C654E5E433CB65A26D9F6EDB5EBC14EBF49A45CB856E66048291F6939A9A81BB5
310
C8917738143CA680F4AA299D66A042CEB3354A2684DC9D8D178FE0D9B8B41CAAD720F880EE7EF93C0C18769E099ECC04D5A102C8049A8A05632F4DDF376CF1DE0F6BB65C2F8627B65A33C6BB62177CEBBDAD973006829F89F22E814B54F4BC2BE347F8AA8F681390B50FA73F804400B5F542E796F19FF974E7F78DB802FE05
310
E207504B0304140006080800CC70623B16AB87BA640500003C100000340000006662782F39464131463745442D413632322D343644302D413938332D3331353338454246344243312F6F626A656374732E786D6CAD575B6FA33818FD2B887DE6924B3BED8A326A92B68A663B534DD4D13E548A0C38942D60649B369D5FBFC7
310
600890A493BDE42160637FD7F31D7FF63E6FB3D478A55C242CBF3247B66B1A340F5994E4F19559CA8D75611A9F7D8F33263BCB4C232719BD32D5B4E97B316765A1A722BA21652A07B3B7B33F0D11D29C9A46981221AE4C113ED38CD8A4942CA2E2C58E882476BCD9DA23BB5ED8171B73523C0F841684D35CC252CCE79062D4
310
468DFA43D7747CCF51DF7D4FFDEB5593E3AB9CCA9FBEFE241792E4E19EB28198C968BAB8199F5D5A67D3E9C49A9E8F47D6EC76B6B0469F26EEFC7C3EBFBCBEB98462213924694B38DD98FE1D62C393D073EA4FADC5DAF04326852CCF6958F90F0F2B9BB5C48816348F90C7840A68EB78EDF68723159BCEE7891A6B95DDE9D3
310
BCEAEEE8086A6C6F9E5D4B59F0175C10A7A0820BAA5055C7473B5AE3CFDD452D602CD5DF12616444529E90D448938013FE6EFA58AA96F85E4F8C42275708571E98FE6827AF6B2B4AE3D7D83D64E5A64C53054DD3AF90BD06FEA9149565C94FCA0F6B834DC85599E4F2423B24DF0B6AFA979E534DFA9E7A4CC6FA631D486393
310
921829879BF5D781A373557BCB85E97FB90DB62B558F8795179C15944B051F40AB495CF35451D26A4727654E6D8033BD98EF82F21D91FF8AF2DD9982BCF1643BDD4EB516C9492E368C67C88DED563FC36D5EACF66DFF057C3658BDBFA69DF9578B3DA735B64F18C7F20770A9D45CFCF7FCF563D6456A277DBEF78A02637CA2
310
43B90A490AEAB94F72244481D24819A6C0E59B606BFA4B3025981DBB48EAB701D97BF19C577CC77F2D1B6C55A9EF3C732474C0B727303F625995056C3B02963D9EAC146BE78EC5FCEC7FA999EBC5EACBAAE41B12D27B4D2C0BBA49F244E2ECDC81B76B502F113D8F5EE8FB1BE3111CDD4FC2AA9B844CAB1288B68AB90A7CDC
310
1C166AB0D3DC5310625FCC14E779BFD0709F8890A629C9292B1B2DED31A4B0DA928CEE135085754027E3018A397D4D5427D15BD1330B677DC8934285AC3DF45A9EB68FF8F2B8FC0A509AFEECFD0FF2DE25CC6047F7214B195F07EFEB9A094D800F7BFAE8FED187B78EA8A3A400F115961BCAD1215E47C966530AF0EE8128FE
310
58CEBB996A8964FFA529A046635D9353B0336A8F700DDF46271A024E70B0B37C9DE01847591E54DED53D54202AB947E4076556AC49C6CA5C9E1226B7F1A7B1BE15DEED62C41B91E1B3E9AFAAA735036547343A925075041DF0A9979E893B391F8FCFA6967B3EFB644DCF6E5CEBFAE272625DCC6FAF3FB93793C5F90CE1EF57
310
407342756B10D1C489E8953CD1617E5CEECAD6F4EF8914CE5D5D504E5C3F1F9736DA62CFC11E00BCDDB8CC8A9466349744C1F75EBDA4DF09BA8A9E8C7A7E9991989E20E5DBDD6A6003664ED8F7A04A8DBE0DF6EAD9B9AA858342E47399053949D2C146EDB85DE4B176BB0965FBAC19BD19AA918E27FA50C1D22402E144464C
310
59462568E704B6E71915404CB72B8FF4EDE184DDAF753F284990D2C6926782963815403548A70C657FDEF80D2D9CEAA2AE4C1C76F60BFE74219A06527D6582DF6412526107381E55E353090704D085B52408D0933C4ED159D79BDA71BB4BC506F4831350EB6F979CD22D69BF7AC49B91A2C0A9DDA3D5CA36AD20FC478E37E6
310
1844E2352865EBCB6EA275A652E3836BE04EFB400BF1A2556F515F1FBB35B2AB35BD889C744FFA1004B5544B121E57F70215746DD2F5E2C1412B602CBF19455AC6C8E5E9922C4E01E65215385004546899059180EAFCF7A707CE7017CD8CDB0410789AB32C63B91E5CEBBBACB17AC6CD347A022D5075FD106377347AAABA7E
310
7D11590744509B44E205134DC1290F06580320F78E537D3D73540E06CB970B431F185308AD40BBD794D6D77003C5A36E8EAA54BA64597CD8F83BD552A080A365F7FF06504B0304140006080000CC70623B000000000000000000000000350000006662782F39464131463745442D413632322D343644302D413938332D3331
310
353338454246344243312F76657274696365732E62696E504B0304140006080800CC70623BF270F1330600000004000000360000006662782F39464131463745442D413632322D343644302D413938332D3331353338454246344243312F747269616E676C65732E62696E636660600000504B0304140006080000CC70623B
310
000000000000000000000000370000006662782F39464131463745442D413632322D343644302D413938332D3331353338454246344243312F617474726962757465732E62696E504B0304140006080800CC70623B08DA0BD19000000041010000360000006662782F39464131463745442D413632322D343644302D413938
310
332D3331353338454246344243312F6469726563746F72792E786D6C858F410AC3201045AF22B36F53E9A60B35CBEEBAE80D244E44489C6234F4F835464A48035D0DF398FF9F8AF63D0E6CC63039F212F8F9020C7D47C6792B21C5FE7403D62A1188E2E60C98D7234A5830286103A55745067B9D86B8A3CF9C7F90C11DE607
310
FB144396D7B6A82D282E9A152AD114D5EF2CB866EEE831B8EEA07A7BB5A8D7D61A2BAAEB7FD5F70921FF497D00504B0304140006080800CC70623B0D6EF93BFE000000A00100003B0000006662782F39464131463745442D413632322D343644302D413938332D3331353338454246344243312F7265736F75726365732F63
310
6F72652E786D6C8D50596E833010BD0A9ADFCA60B334011947A8694ED00B586642AC041B79A97AFC9A40A5F6AF3F33A3B7689E1E3F7DCD8FEC139DD7D6F4C0720A191A65476DA61E62B892236427C19DB5E1970C322367EC618541F0C9D9B8EC90B226A009093576C41D94DE63804C3DD2D18357379C652E63480A7FCF17A9
310
EE72C29CE5894E3AC17D702940B63D59270887DE46A7D0F36263058F518FBB468FE9A7BE6A7420864373B8D4873369AA8691FA421B3294352543C5CAF65C0F6FEF43CB8BD52C78D0F34F46E550061C419494B6843142CB0F5677F4B52BEB177AEC28E5C52AFF638ACBF84F53D42654E51E77B379102C05791282176B5F693D
310
CB4C7BED567C03504B010214000A0000080000CC70623B3DEE336E79000000790000001B00000000000000000000000000000000006175746F6465736B2D64657369676E2D7061636B6167652E786D6C504B01021400140006080800CC70623BD486FD9CA0000000F40000001300000000000000000000000000B20000005B
310
436F6E74656E745F54797065735D2E786D6C504B01021400140006080800CC70623B1EC5D7A3EB0000007C010000080000000000000000000000000083010000636F72652E786D6C504B01021400140006080800CC70623B55019EA25F0000007C000000070000000000000000000000000094020000636E782E786D6C504B
310
01021400140006080800CC70623B8C9102E971010000D40300000C00000000000000000000000000180300006662782F636F72652E786D6C504B01021400140006080800CC70623BFFEA85907E0000009D0000000B00000000000000000000000000B30400006662782F636E782E786D6C504B01021400140006080800CC70
310
623B4FEEA4082C0100001202000031000000000000000000000000005A0500006662782F39464131463745442D413632322D343644302D413938332D3331353338454246344243312F636F72652E786D6C504B01021400140006080800CC70623BAD7543B64E010000330300003000000000000000000000000000D5060000
310
6662782F39464131463745442D413632322D343644302D413938332D3331353338454246344243312F636E782E786D6C504B01021400140006080800CC70623B16AB87BA640500003C1000003400000000000000000000000000710800006662782F39464131463745442D413632322D343644302D413938332D3331353338
310
454246344243312F6F626A656374732E786D6C504B01021400140006080000CC70623B0000000000000000000000003500000000000000000000000000270E00006662782F39464131463745442D413632322D343644302D413938332D3331353338454246344243312F76657274696365732E62696E504B01021400140006
310
080800CC70623BF270F133060000000400000036000000000000000000000000007A0E00006662782F39464131463745442D413632322D343644302D413938332D3331353338454246344243312F747269616E676C65732E62696E504B01021400140006080000CC70623B0000000000000000000000003700000000000000
310
000000000000D40E00006662782F39464131463745442D413632322D343644302D413938332D3331353338454246344243312F617474726962757465732E62696E504B01021400140006080800CC70623B08DA0BD190000000410100003600000000000000000000000000290F00006662782F39464131463745442D413632
310
322D343644302D413938332D3331353338454246344243312F6469726563746F72792E786D6C504B01021400140006080800CC70623B0D6EF93BFE000000A00100003B000000000000000000000000000D1000006662782F39464131463745442D413632322D343644302D413938332D3331353338454246344243312F7265
310
736F75726365732F636F72652E786D6C504B0506000000000E000E0080040000641100000000
  0
XRECORD
  5
29AEF
102
{ACAD_REACTORS
330
173
102
}
330
173
100
AcDbXrecord
280
     1
102
MATERIAL
148
0.0
149
0.0
149
0.0
 93
        0
 94
       63
282
     0
 72
     1
 77
     1
171
     1
175
     1
179
     1
273
     0
  0
XRECORD
  5
175
102
{ACAD_REACTORS
330
173
102
}
330
173
100
AcDbXrecord
280
     1
270
     1
271
     1
  0
XRECORD
  5
174
102
{ACAD_REACTORS
330
173
102
}
330
173
100
AcDbXrecord
280
     1
270
     1
271
     1
  0
XRECORD
  5
1FB
102
{ACAD_REACTORS
330
173
102
}
330
173
100
AcDbXrecord
280
     1
 70
     0
 90
1673772943
  1
ECE7A1D2-D628-4531-984C-D00F80459256
310
504B03040A0000080000CC70623B3DEE336E79000000790000001B0000006175746F6465736B2D64657369676E2D7061636B6167652E786D6C3C3F786D6C2076657273696F6E3D22312E302220656E636F64696E673D227574662D3822203F3E3C666F726D6174733E3C666F726D61743E687474703A2F2F736368656D612E
310
6175746F6465736B2E636F6D2F64657369676E2D7061636B6167652F323030393C2F666F726D61743E3C2F666F726D6174733E504B0304140006080800CC70623BD486FD9CA0000000F4000000130000005B436F6E74656E745F54797065735D2E786D6C7D8EC10E82300C865F65E91D8A1E8C310C0EEA1BF002731658846E
310
D98AC1B77784ABF1D8FE5FBFBF75BBCE937A534CCEB38643598122B6FEE978D0B0485F9C41B54DDD7D022595594E1A469170414C76A4D9A4D207E29CF43ECE46F218070CC6BECC4078ACAA135ACF422C856C0E68EA1BF5669944DDD7BCDE7B1F8E415D77AECB980613C2E4AC91FC167A2B244592486606FC29C8FD7F045B9A
310
EF7053A7E60B504B0304140006080800CC70623BD9DDAED0EC0000007C01000008000000636F72652E786D6C8D90416EC3201045AF82665B61836D9CD8C2444DD39CA01740405C94182C03558F5F9C3852BBEB6A467FFE9B197D7EF89E6EE8CB2CC17A37002D0820E394D7D68D03A478C17B4007C117EFE32F1B20272733C0
310
2A83E0E3E2D3BC49CABB685CCCAAF3DA6CA20CC14440EA969B0182FA34932C648AD911AEC52CD5558EA6A0CF2EC329598D1E47ACCEFBECC59A050463A7EA5833865FEBDD0E37353BE3EE8DBDE3F6786A48D375FBF6CC78B9C282473B3DEFABC5C86834888A900E538A49F5419B9EB47DD5BC907D4F082F57FB1F28CDFA9F50
310
B22ED6D5F6EE030B20687EE43E10BC5CB3C8E51E54AE6B6EE207504B0304140006080800CC70623B55019EA25F0000007C00000007000000636E782E786D6C4DCB3B0E80201045D1AD90E915ED2CF8AC45050C11660C8261F98AB1B07AC9C97D42D718D865D3E909258CFD00CCE24AC6E326A164D74DC0B4128928FF326038
310
472BA13128B1252AC747C6BAB984FC68F0B87FE8960A5C09FE86CFB69FBA01504B0304140006080800CC70623BA24EB22D72010000D40300000C0000006662782F636F72652E786D6CC5535B6E833010BC8AE5DF0A6C5E49888CA3A6694ED00B38E05014B091B1518EDFE511A5A9D228FD2A1F60CDEC7A67C6986DCE4D8D7A
310
69BA4AAB0C073EC548AA5C17952A33ECECD15B61B4E1CC686DBF9561A44423333CC098B3D268D7CE50AE9595CA02AA74216750749DB418E5352C32DCE59FB211BE70162ABA93DF8AFC244AE9073ED050C759670D0840D390E18DF9F1706664C23973AE2A66B62A605A75ACA4C13C4976E1364A12EF355A2EBD384AF65EFA96
310
BC7B8BED2EA6719AAE16FB8491A199335B351775B991C2CA02F390D2D40B028F861F41BCA68B7518BFD0D59A524686F29B26D7164F36B94AD9289CE54E6D1DE6010819891F6E21228B3AD1831EC219194284CF98F06DD01008846CC5A1BEF83801D4CBDC6A1303536877A57A513B0953A94FC707FDBE6064EA84A9E3E6E0FA
310
EE8CF0E9198F7784A316AA0413C2C2F2E0ECA0934D1AE6D05A69BCDE9E91D2A611F573361E38FC1375157F5752AE6B6DFE4B11990F88CCBF0719EE23FF02504B0304140006080800CC70623B408A7D3B7C0000009D0000000B0000006662782F636E782E786D6C4DCCD10A83201886E15B91FFDC552A92A0064DBC8F581632
310
D3703A76F9ABD1C18E3E78F878E5F0D9027ABBFCF2292AE86E2D20171F69F6715550CB827B40839639A5F2770314A7CD293819B45C73AAFB45B35BA61ACAA1C1C7E7855C58C15BC331339661262CC762340413D68D77DA5B42298546CBE6573AF60CEB2F504B0304140006080800CC70623B449FB9BD290100001202000031
310
0000006662782F36394639363044362D344446342D343946362D394244322D3234314243333846323333332F636F72652E786D6C8D515B6EC32010BC0AE22B55850D98B871848994463E412FE002495162B07854397EA176A4F62F3F2C9A9D991D587EB84F37F0AD7D30CEF6905418026DA553C65E7A98E219ED203808EE9D
310
8B7F6810D871D23D2C3014FCE25D9A57483A1BB58D19B54EE9151C43D0110279CB971E06F9A5A7B11A53CC8C70ADE6515EC78BAE4895DB992778883E0700CB907242D17643D7E2538BD869608875438BBAE38922CAC8F1BDD90DB4691A5E2F42C153326A951B95E398B3D1FE599322163C9AE9115F7A3D46ADA0A018778810
310
84E907617BDCEE297BC5BB3DC6BC2EF47FA234AB2745C9D8D8D035EE220B50105E2F0DC1954B9FB747187D9F9D8FA0CCDB042D5FA0C015C65B42DF78BD10F3F3B363CB56C7109DCFDFBBB97E662ED92EB62D13BC2E1BCAE5777DB9966D8A1F504B0304140006080800CC70623BAD7543B64E01000033030000300000006662
310
782F36394639363044362D344446342D343946362D394244322D3234314243333846323333332F636E782E786D6CD593CD6EC32010845F0571AD6CE3D48AD20813A9873E410FBD12D82434182C7EAAE6EDBB2424CD25871E7B41D6EC30B3FA84F9E67BB2E40B4234DE8DB46F1925E094D7C6ED479AD3AE5951B2113C789FEE
310
6C943839C1488B4C05DF079FE72A69D8C96C13AAD6B8631503449F83828872B949AC57D26200B826A308D316B4064D6E46FCDA41C05550DC9E483A00797BFD207EFB092A45DE9514C1BBD22178396BD39D891265658C238DEA00936C654E5E433CB65A26D9F6EDB5EBC14EBF49A45CB856E66048291F6939A9A81BB5C89177
310
38143CA680F4AA299D66A042CEB3354A2684DC9D8D178FE0D9B8B41CAAD720F880EE7EF93C0C18769E099ECC04D5A102C8049A8A05632F4DDF376CF1DE0F6BB65C2F8627B65A33C6BB62177CEBBDAD973006829F89F22E814B54F4BC2BE347F8AA8F681390B50FA73F804400B5F542E796F19FF974E7F78DB802FE05E20750
310
4B0304140006080800CC70623B8D05915C650500003B100000340000006662782F36394639363044362D344446342D343946362D394244322D3234314243333846323333332F6F626A656374732E786D6CAD575B6FA33814FE2B887D06429276DA1565D4266D158D3A339A6846FB502932E050B66023DB74D2FDF5FB190C01
310
9276B2973C046C8ECFF53B17071F77456EBD502133CEAE6CDF9DD81665314F32965ED995DA3A17B6F5310C04E7AA47665B8C14F4CAD6DB7618A48257A5D94AE89654B91AEDDEDDFC61C998326A5B714EA4BCB265FC440BE2924AF184CA6737218AB8E976E7FA6E4338649B0A523E8D98964450A6A029F619B8588D52FE7039
310
B1BD30F0F4F730D0FF866AF6369557DB33949F31A9088B0F848DD8CCFCF9F2767A76E99CCDE733677E3EF59D9BBB9BA5E37F984D16E78BC5E5F5ED25044B25C0C96822E8D60EEFE11B91C581D77CEA34368A1F5329E68CD1B8B61F16D63A1B8E092D294B10C78C4A48EB593D192E7DED9BDEE7995E1B91FDEDD3ACEA9FE831
310
6A756F9F7D4D79F4274C90A7A04248AA51D5F8C718DAE06FB2F75AC4796EBE65D22A88A22223B995679120E2D50E41AA49C260C046A35368846B0BECD0DFF3EBEB8AD4F835768F69B9ADF25C43D30E6B646F807FAA64AD59F61715C7A54127C4AACA98BA3006A9D792DAE165E0D59B61A01FB3A9F9D838D2DAE62445C86166
310
F37564E842E7DE6A69879FEEA2DD5AE7E371E1A5E025154AC307D06A03D73EB5978C58FFA4C8E9033066E0F3BD53BEC1F39F91BE7B55103791EDE6BBB991A2046172CB4581D8B893FA674DDA17A77B3B7C413D1B511FD2743BFF8A38F03A658705E3ADF8015C3A3417FF3D7E439FF591DA0B5F18BC20C1B8981957AE6392A3
310
F43C640C01D1A0B4728E2DD4F26DB4B3C3152A252A3B4E913CEC1C72F012782FF88EFF8637AA552DBEF76408E8A8DE9E50F9E1CB3A2DA0DB1B6039A893B56063DC5B3E3FFB5F72E67AB9FEB4AEC496C4F4C1149625DD662C53E89D7BF0F6151A046260D1337DFDC94502430F83B0EE07A130A224BCAD7DAE1D9FB6CD422FF6
310
920702629C4BB9AE79C12F243C6432A6794E18E5552BA56B431AAB5D91317302B2B071E86C3A42B1A02F999E24061403B5D0EB639195DA655DD3EBEAB4FB862DDF579F014AD0E73C22F99E28DA57FB98E75C6CA2D74D53086D600F4786E0FE3144B771A8A7B900F03594DB8A633CBC49B2EDB69228BB479CF863B5E807AAAB
310
23872F6DFEB4129B949CA33823F58830E86D65621E10047D9DB34D862E8EAC3C2ABC2F7B2C40D67CDFE01F5545B92105AF983AC54D93D69E56FB8E797F88913F898A9FEC705D3F9D1B54EC8426FB500D40A03BD0119B06E1B95DDC7EB8F6975367793EBD70E66733DFB9BC982F9CE564727731999F5D4ECFCE3B8D6A4DC2A0
310
6D50FD148437D110834A64C6CDDF57FBACB5C307A2A477DFE4939736CFEF2B175371E0E10CF0DD1D5C15654E0BCA14D1E87DD02FF93782A162C0A3D95F1524A52770F972BF1EE9809D13CE7DD599467F8ECE9ADD85CE85A34CD45355448C64F9E8A031DC2D596ACC6E5DD93D9B82DE2EF5CAF81363A8E47996A0DE24564A79
310
4115AACE09C55E14540231FDA13C319787134EBF34E3A022514E5B4D9E0826E25C02D5805B15ABE1BEF51B26383D445DD9E875EE33FE4C22DA16427D65A3BCA92CA6D28DD01DF5DC53330704308475351050232CCD31583787BA75774AFB06E5070DD0C8EF484E19968C5D83BA5B90B244D31E54D55A372320FE4786B7EA58
310
44E135AA5467CB7EA333A61683CC6A8C3257034C10CF46F40EF9F5BE59BE5BD30C3C72D235E95D10345C1D45445A5F0BB47E46A5EBE5570F9380B5FA629579952296A773720405982B9DE04011506178964401AA8BDF1FBF0A8EAB6861DD6580C0E38217056766716DAEB2D6FA0917D3E4116581EADB879C4E7CFFB11EFACD
310
3D641311495D92C8676CB409A72D18610D803CE8A626049E8EC1887CB5B44CC39883690DDA8399B4B9855B481E7D71D4A9D22F96E5BB73BF5793020C02137BF837504B0304140006080000CC70623B000000000000000000000000350000006662782F36394639363044362D344446342D343946362D394244322D32343142
310
43333846323333332F76657274696365732E62696E504B0304140006080800CC70623BF270F1330600000004000000360000006662782F36394639363044362D344446342D343946362D394244322D3234314243333846323333332F747269616E676C65732E62696E636660600000504B0304140006080000CC70623B0000
310
00000000000000000000370000006662782F36394639363044362D344446342D343946362D394244322D3234314243333846323333332F617474726962757465732E62696E504B0304140006080800CC70623B08DA0BD19000000041010000360000006662782F36394639363044362D344446342D343946362D394244322D
310
3234314243333846323333332F6469726563746F72792E786D6C858F410AC3201045AF22B36F53E9A60B35CBEEBAE80D244E44489C6234F4F835464A48035D0DF398FF9F8AF63D0E6CC63039F212F8F9020C7D47C6792B21C5FE7403D62A1188E2E60C98D7234A5830286103A55745067B9D86B8A3CF9C7F90C11DE607FB14
310
4396D7B6A82D282E9A152AD114D5EF2CB866EEE831B8EEA07A7BB5A8D7D61A2BAAEB7FD5F70921FF497D00504B0304140006080800CC70623BCA768048FE000000A00100003B0000006662782F36394639363044362D344446342D343946362D394244322D3234314243333846323333332F7265736F75726365732F636F72
310
652E786D6C8D50596E833010BD0A9ADFCA60D600328E9AA639412F609909B1126CE4A5EAF16B0295DABFFECC8CDEA2797AECF8353F924FB44E193D409E5248504B332A3D0D10FC95B4901C39B3C6F85F3248B49871801506CE266BC2B243D2688FDA47549B11775038871E12F988C7004EDE7016A9083E2ADC3D5D84BC8B09
310
D33C8D74D471E6BC8D0192EDC93A815B742658898E651BCB59086ADC356A8C3FD555A1055ED7E7E254D615792D0F075295F585746FF53B694EE78A565DD736979A65AB9933AFE69F8CD2A2F038022F28ED489E135A7CE4554F9BBEA85E68DB53CAB255FEC71496F19FA6A0B42F8B3DEE6673C0F318E4497096AD7DC5F52C33
310
EEB55BFE0D504B010214000A0000080000CC70623B3DEE336E79000000790000001B00000000000000000000000000000000006175746F6465736B2D64657369676E2D7061636B6167652E786D6C504B01021400140006080800CC70623BD486FD9CA0000000F40000001300000000000000000000000000B20000005B436F
310
6E74656E745F54797065735D2E786D6C504B01021400140006080800CC70623BD9DDAED0EC0000007C010000080000000000000000000000000083010000636F72652E786D6C504B01021400140006080800CC70623B55019EA25F0000007C000000070000000000000000000000000095020000636E782E786D6C504B0102
310
1400140006080800CC70623BA24EB22D72010000D40300000C00000000000000000000000000190300006662782F636F72652E786D6C504B01021400140006080800CC70623B408A7D3B7C0000009D0000000B00000000000000000000000000B50400006662782F636E782E786D6C504B01021400140006080800CC70623B
310
449FB9BD290100001202000031000000000000000000000000005A0500006662782F36394639363044362D344446342D343946362D394244322D3234314243333846323333332F636F72652E786D6C504B01021400140006080800CC70623BAD7543B64E010000330300003000000000000000000000000000D20600006662
310
782F36394639363044362D344446342D343946362D394244322D3234314243333846323333332F636E782E786D6C504B01021400140006080800CC70623B8D05915C650500003B10000034000000000000000000000000006E0800006662782F36394639363044362D344446342D343946362D394244322D32343142433338
310
46323333332F6F626A656374732E786D6C504B01021400140006080000CC70623B0000000000000000000000003500000000000000000000000000250E00006662782F36394639363044362D344446342D343946362D394244322D3234314243333846323333332F76657274696365732E62696E504B010214001400060808
310
00CC70623BF270F13306000000040000003600000000000000000000000000780E00006662782F36394639363044362D344446342D343946362D394244322D3234314243333846323333332F747269616E676C65732E62696E504B01021400140006080000CC70623B00000000000000000000000037000000000000000000
310
00000000D20E00006662782F36394639363044362D344446342D343946362D394244322D3234314243333846323333332F617474726962757465732E62696E504B01021400140006080800CC70623B08DA0BD190000000410100003600000000000000000000000000270F00006662782F36394639363044362D344446342D
310
343946362D394244322D3234314243333846323333332F6469726563746F72792E786D6C504B01021400140006080800CC70623BCA768048FE000000A00100003B000000000000000000000000000B1000006662782F36394639363044362D344446342D343946362D394244322D3234314243333846323333332F7265736F
310
75726365732F636F72652E786D6C504B0506000000000E000E0080040000621100000000
  0
XRECORD
  5
176
102
{ACAD_REACTORS
330
173
102
}
330
173
100
AcDbXrecord
280
     1
270
     1
271
     1
  0
XRECORD
  5
177
102
{ACAD_REACTORS
330
173
102
}
330
173
100
AcDbXrecord
280
     1
270
     1
271
     1
  0
XRECORD
  5
29B11
102
{ACAD_REACTORS
330
29B10
102
}
330
29B10
100
AcDbXrecord
280
     1
102
ACAD_ROUNDTRIP_2012_MLEADER_STYLE
298
     1
  0
XRECORD
  5
29B23
102
{ACAD_REACTORS
330
29B22
102
}
330
29B22
100
AcDbXrecord
280
     1
102
DISPLAYNAME
  1
Metric50
102
FLAGS
 90
        0
  0
CELLSTYLEMAP
  5
29AE3
102
{ACAD_REACTORS
330
162
102
}
330
162
100
AcDbCellStyleMap
 90
        3
300
CELLSTYLE
  1
TABLEFORMAT_BEGIN
 90
        5
170
     1
 91
        0
 92
    32768
 62
   257
 93
        1
300
CONTENTFORMAT
  1
CONTENTFORMAT_BEGIN
 90
        0
 91
        0
 92
      512
 93
        0
300

 40
0.0
140
1.0
 94
        5
 62
     0
340
11
144
6.0
309
CONTENTFORMAT_END
171
     1
301
MARGIN
  1
CELLMARGIN_BEGIN
 40
1.5
 40
1.5
 40
1.5
 40
1.5
 40
4.5
 40
4.5
309
CELLMARGIN_END
 94
        6
 95
        1
302
GRIDFORMAT
  1
GRIDFORMAT_BEGIN
 90
        0
 91
        1
 62
     0
 92
       -2
340
14
 93
        0
 40
1.125
309
GRIDFORMAT_END
 95
        2
302
GRIDFORMAT
  1
GRIDFORMAT_BEGIN
 90
        0
 91
        1
 62
     0
 92
       -2
340
14
 93
        0
 40
1.125
309
GRIDFORMAT_END
 95
        4
302
GRIDFORMAT
  1
GRIDFORMAT_BEGIN
 90
        0
 91
        1
 62
     0
 92
       -2
340
14
 93
        0
 40
1.125
309
GRIDFORMAT_END
 95
        8
302
GRIDFORMAT
  1
GRIDFORMAT_BEGIN
 90
        0
 91
        1
 62
     0
 92
       -2
340
14
 93
        0
 40
1.125
309
GRIDFORMAT_END
 95
       16
302
GRIDFORMAT
  1
GRIDFORMAT_BEGIN
 90
        0
 91
        1
 62
     0
 92
       -2
340
14
 93
        0
 40
1.125
309
GRIDFORMAT_END
 95
       32
302
GRIDFORMAT
  1
GRIDFORMAT_BEGIN
 90
        0
 91
        1
 62
     0
 92
       -2
340
14
 93
        0
 40
1.125
309
GRIDFORMAT_END
309
TABLEFORMAT_END
  1
CELLSTYLE_BEGIN
 90
        1
 91
        1
300
_TITLE
309
CELLSTYLE_END
300
CELLSTYLE
  1
TABLEFORMAT_BEGIN
 90
        5
170
     1
 91
        0
 92
        0
 62
   257
 93
        1
300
CONTENTFORMAT
  1
CONTENTFORMAT_BEGIN
 90
        0
 91
        0
 92
      512
 93
        0
300

 40
0.0
140
1.0
 94
        5
 62
     0
340
11
144
4.5
309
CONTENTFORMAT_END
171
     1
301
MARGIN
  1
CELLMARGIN_BEGIN
 40
1.5
 40
1.5
 40
1.5
 40
1.5
 40
4.5
 40
4.5
309
CELLMARGIN_END
 94
        6
 95
        1
302
GRIDFORMAT
  1
GRIDFORMAT_BEGIN
 90
        0
 91
        1
 62
     0
 92
       -2
340
14
 93
        0
 40
1.125
309
GRIDFORMAT_END
 95
        2
302
GRIDFORMAT
  1
GRIDFORMAT_BEGIN
 90
        0
 91
        1
 62
     0
 92
       -2
340
14
 93
        0
 40
1.125
309
GRIDFORMAT_END
 95
        4
302
GRIDFORMAT
  1
GRIDFORMAT_BEGIN
 90
        0
 91
        1
 62
     0
 92
       -2
340
14
 93
        0
 40
1.125
309
GRIDFORMAT_END
 95
        8
302
GRIDFORMAT
  1
GRIDFORMAT_BEGIN
 90
        0
 91
        1
 62
     0
 92
       -2
340
14
 93
        0
 40
1.125
309
GRIDFORMAT_END
 95
       16
302
GRIDFORMAT
  1
GRIDFORMAT_BEGIN
 90
        0
 91
        1
 62
     0
 92
       -2
340
14
 93
        0
 40
1.125
309
GRIDFORMAT_END
 95
       32
302
GRIDFORMAT
  1
GRIDFORMAT_BEGIN
 90
        0
 91
        1
 62
     0
 92
       -2
340
14
 93
        0
 40
1.125
309
GRIDFORMAT_END
309
TABLEFORMAT_END
  1
CELLSTYLE_BEGIN
 90
        2
 91
        1
300
_HEADER
309
CELLSTYLE_END
300
CELLSTYLE
  1
TABLEFORMAT_BEGIN
 90
        5
170
     1
 91
        0
 92
        0
 62
   257
 93
        1
300
CONTENTFORMAT
  1
CONTENTFORMAT_BEGIN
 90
        0
 91
        0
 92
      512
 93
        0
300

 40
0.0
140
1.0
 94
        2
 62
     0
340
11
144
4.5
309
CONTENTFORMAT_END
171
     1
301
MARGIN
  1
CELLMARGIN_BEGIN
 40
1.5
 40
1.5
 40
1.5
 40
1.5
 40
4.5
 40
4.5
309
CELLMARGIN_END
 94
        6
 95
        1
302
GRIDFORMAT
  1
GRIDFORMAT_BEGIN
 90
        0
 91
        1
 62
     0
 92
       -2
340
14
 93
        0
 40
1.125
309
GRIDFORMAT_END
 95
        2
302
GRIDFORMAT
  1
GRIDFORMAT_BEGIN
 90
        0
 91
        1
 62
     0
 92
       -2
340
14
 93
        0
 40
1.125
309
GRIDFORMAT_END
 95
        4
302
GRIDFORMAT
  1
GRIDFORMAT_BEGIN
 90
        0
 91
        1
 62
     0
 92
       -2
340
14
 93
        0
 40
1.125
309
GRIDFORMAT_END
 95
        8
302
GRIDFORMAT
  1
GRIDFORMAT_BEGIN
 90
        0
 91
        1
 62
     0
 92
       -2
340
14
 93
        0
 40
1.125
309
GRIDFORMAT_END
 95
       16
302
GRIDFORMAT
  1
GRIDFORMAT_BEGIN
 90
        0
 91
        1
 62
     0
 92
       -2
340
14
 93
        0
 40
1.125
309
GRIDFORMAT_END
 95
       32
302
GRIDFORMAT
  1
GRIDFORMAT_BEGIN
 90
        0
 91
        1
 62
     0
 92
       -2
340
14
 93
        0
 40
1.125
309
GRIDFORMAT_END
309
TABLEFORMAT_END
  1
CELLSTYLE_BEGIN
 90
        3
 91
        2
300
_DATA
309
CELLSTYLE_END
  0
XRECORD
  5
29AE8
102
{ACAD_REACTORS
330
162
102
}
330
162
100
AcDbXrecord
280
     1
102
ACAD_ROUNDTRIP_PRE2007_TABLESTYLE
 90
      512
 91
        0
  1

 92
      512
 93
        0
  2

 94
      512
 95
        0
  3

  0
XRECORD
  5
29AFB
102
{ACAD_REACTORS
330
29AFA
102
}
330
29AFA
100
AcDbXrecord
280
     1
102
RTVSPost2010Prop28
280
     1
102
RTVSPost2010PropOp28
 70
     1
102
RTVSPost2010Prop29
280
     1
102
RTVSPost2010PropOp29
 70
     1
102
RTVSPost2010Prop30
280
     0
102
RTVSPost2010PropOp30
 70
     1
102
RTVSPost2010Prop31
280
     0
102
RTVSPost2010PropOp31
 70
     1
102
RTVSPost2010Prop32
280
     0
102
RTVSPost2010PropOp32
 70
     1
102
RTVSPost2010Prop33
280
     0
102
RTVSPost2010PropOp33
 70
     1
102
RTVSPost2010Prop34
280
     0
102
RTVSPost2010PropOp34
 70
     1
102
RTVSPost2010Prop35
280
     0
102
RTVSPost2010PropOp35
 70
     1
102
RTVSPost2010Prop36
280
     0
102
RTVSPost2010PropOp36
 70
     1
102
RTVSPost2010Prop37
 90
       50
102
RTVSPost2010PropOp37
 70
     1
102
RTVSPost2010Prop38
140
0.0
102
RTVSPost2010PropOp38
 70
     1
102
RTVSPost2010Prop39
140
1.0
102
RTVSPost2010PropOp39
 70
     1
102
RTVSPost2010Prop40
 90
        0
102
RTVSPost2010PropOp40
 70
     1
102
RTVSPost2010Prop41ColorIndex
 90
       18
102
RTVSPost2010Prop41ColorRGB
 90
        0
102
RTVSPost2010PropOp41
 70
     1
102
RTVSPost2010Prop42
 90
       50
102
RTVSPost2010PropOp42
 70
     1
102
RTVSPost2010Prop43
 90
        3
102
RTVSPost2010PropOp43
 70
     1
102
RTVSPost2010Prop44ColorIndex
 90
        5
102
RTVSPost2010Prop44ColorRGB
 90
      255
102
RTVSPost2010PropOp44
 70
     1
102
RTVSPost2010Prop45
280
     0
102
RTVSPost2010PropOp45
 70
     1
102
RTVSPost2010Prop46
 90
       50
102
RTVSPost2010PropOp46
 70
     1
102
RTVSPost2010Prop47
 90
       50
102
RTVSPost2010PropOp47
 70
     1
102
RTVSPost2010Prop48
 90
       50
102
RTVSPost2010PropOp48
 70
     1
102
RTVSPost2010Prop49
280
     0
102
RTVSPost2010PropOp49
 70
     1
102
RTVSPost2010Prop50
 90
       50
102
RTVSPost2010PropOp50
 70
     1
102
RTVSPost2010Prop51ColorIndex
 90
      256
102
RTVSPost2010Prop51ColorRGB
 90
-16777216
102
RTVSPost2010PropOp51
 70
     0
102
RTVSPost2010Prop52
140
1.0
102
RTVSPost2010PropOp52
 70
     0
102
RTVSPost2010Prop53
 90
        2
102
RTVSPost2010PropOp53
 70
     1
102
RTVSPost2010Prop54
  1
strokes_ogs.tif
102
RTVSPost2010PropOp54
 70
     1
102
RTVSPost2010Prop55
280
     0
102
RTVSPost2010PropOp55
 70
     1
102
RTVSPost2010Prop56
140
1.0
102
RTVSPost2010PropOp56
 70
     1
102
RTVSPost2010Prop57
140
1.0
102
RTVSPost2010PropOp57
 70
     1
102
RTVSPropertyOp0
 70
     1
102
RTVSPropertyOp1
 70
     1
102
RTVSPropertyOp2
 70
     1
102
RTVSPropertyOp3
 70
     1
102
RTVSPropertyOp4
 70
     1
102
RTVSPropertyOp5
 70
     1
102
RTVSPropertyOp6
 70
     1
102
RTVSPropertyOp7
 70
     1
102
RTVSPropertyOp8
 70
     1
102
RTVSPropertyOp9
 70
     1
102
RTVSPropertyOp10
 70
     1
102
RTVSPropertyOp11
 70
     1
102
RTVSPropertyOp12
 70
     1
102
RTVSPropertyOp13
 70
     1
102
RTVSPropertyOp14
 70
     1
102
RTVSPropertyOp15
 70
     1
102
RTVSPropertyOp16
 70
     1
102
RTVSPropertyOp17
 70
     1
102
RTVSPropertyOp18
 70
     1
102
RTVSPropertyOp19
 70
     1
102
RTVSPropertyOp20
 70
     1
102
RTVSPropertyOp21
 70
     1
102
RTVSPropertyOp22
 70
     1
102
RTVSPropertyOp23
 70
     1
102
RTVSPropertyOp24
 70
     1
102
RTVSPropertyOp25
 70
     1
102
RTVSPropertyOp26
 70
     1
102
RTVSPropertyOp27
 70
     1
102
RTVSPropertyOp28
 70
     1
102
RTVSPropertyOp29
 70
     1
102
RTVSPropertyOp30
 70
     1
102
RTVSPropertyOp31
 70
     1
102
RTVSPropertyOp32
 70
     1
102
RTVSPropertyOp33
 70
     1
102
RTVSPropertyOp34
 70
     1
102
RTVSPropertyOp35
 70
     1
102
RTVSPropertyOp36
 70
     1
102
RTVSPropertyOp37
 70
     1
102
RTVSPropertyOp38
 70
     1
102
RTVSPropertyOp39
 70
     1
102
RTVSPropertyOp40
 70
     1
102
RTVSPropertyOp41
 70
     1
102
RTVSPropertyOp42
 70
     1
102
RTVSPropertyOp43
 70
     1
102
RTVSPropertyOp44
 70
     1
102
RTVSPropertyOp45
 70
     1
102
RTVSPropertyOp46
 70
     1
102
RTVSPropertyOp47
 70
     1
102
RTVSPropertyOp48
 70
     1
102
RTVSPropertyOp49
 70
     1
102
RTVSPropertyOp50
 70
     1
102
RTVSPropertyOp51
 70
     0
102
RTVSPropertyOp52
 70
     0
102
RTVSPropertyOp53
 70
     1
102
RTVSPropertyOp54
 70
     1
102
RTVSPropertyOp55
 70
     1
102
RTVSPropertyOp56
 70
     1
102
RTVSPropertyOp57
 70
     1
102
RTVSPropertyOp58
 70
     1
102
RTVSPropertyOp59
 70
     1
102
RTVSPropertyOp60
 70
     1
102
RTVSPropertyOp61
 70
     1
102
RTVSPropertyOp62
 70
     1
  0
XRECORD
  5
29AF9
102
{ACAD_REACTORS
330
29AF8
102
}
330
29AF8
100
AcDbXrecord
280
     1
102
RTVSPost2010Prop28
280
     0
102
RTVSPost2010PropOp28
 70
     1
102
RTVSPost2010Prop29
280
     1
102
RTVSPost2010PropOp29
 70
     1
102
RTVSPost2010Prop30
280
     1
102
RTVSPost2010PropOp30
 70
     1
102
RTVSPost2010Prop31
280
     0
102
RTVSPost2010PropOp31
 70
     1
102
RTVSPost2010Prop32
280
     0
102
RTVSPost2010PropOp32
 70
     1
102
RTVSPost2010Prop33
280
     0
102
RTVSPost2010PropOp33
 70
     1
102
RTVSPost2010Prop34
280
     0
102
RTVSPost2010PropOp34
 70
     1
102
RTVSPost2010Prop35
280
     0
102
RTVSPost2010PropOp35
 70
     1
102
RTVSPost2010Prop36
280
     0
102
RTVSPost2010PropOp36
 70
     1
102
RTVSPost2010Prop37
 90
       50
102
RTVSPost2010PropOp37
 70
     1
102
RTVSPost2010Prop38
140
0.0
102
RTVSPost2010PropOp38
 70
     1
102
RTVSPost2010Prop39
140
1.0
102
RTVSPost2010PropOp39
 70
     1
102
RTVSPost2010Prop40
 90
        0
102
RTVSPost2010PropOp40
 70
     1
102
RTVSPost2010Prop41ColorIndex
 90
       18
102
RTVSPost2010Prop41ColorRGB
 90
        0
102
RTVSPost2010PropOp41
 70
     1
102
RTVSPost2010Prop42
 90
       50
102
RTVSPost2010PropOp42
 70
     1
102
RTVSPost2010Prop43
 90
        3
102
RTVSPost2010PropOp43
 70
     1
102
RTVSPost2010Prop44ColorIndex
 90
        5
102
RTVSPost2010Prop44ColorRGB
 90
      255
102
RTVSPost2010PropOp44
 70
     1
102
RTVSPost2010Prop45
280
     0
102
RTVSPost2010PropOp45
 70
     1
102
RTVSPost2010Prop46
 90
       50
102
RTVSPost2010PropOp46
 70
     1
102
RTVSPost2010Prop47
 90
       50
102
RTVSPost2010PropOp47
 70
     1
102
RTVSPost2010Prop48
 90
       50
102
RTVSPost2010PropOp48
 70
     1
102
RTVSPost2010Prop49
280
     0
102
RTVSPost2010PropOp49
 70
     1
102
RTVSPost2010Prop50
 90
       50
102
RTVSPost2010PropOp50
 70
     1
102
RTVSPost2010Prop51ColorIndex
 90
      256
102
RTVSPost2010Prop51ColorRGB
 90
-16777216
102
RTVSPost2010PropOp51
 70
     0
102
RTVSPost2010Prop52
140
1.0
102
RTVSPost2010PropOp52
 70
     0
102
RTVSPost2010Prop53
 90
        2
102
RTVSPost2010PropOp53
 70
     1
102
RTVSPost2010Prop54
  1
strokes_ogs.tif
102
RTVSPost2010PropOp54
 70
     1
102
RTVSPost2010Prop55
280
     0
102
RTVSPost2010PropOp55
 70
     1
102
RTVSPost2010Prop56
140
1.0
102
RTVSPost2010PropOp56
 70
     1
102
RTVSPost2010Prop57
140
1.0
102
RTVSPost2010PropOp57
 70
     1
102
RTVSPropertyOp0
 70
     1
102
RTVSPropertyOp1
 70
     1
102
RTVSPropertyOp2
 70
     1
102
RTVSPropertyOp3
 70
     1
102
RTVSPropertyOp4
 70
     1
102
RTVSPropertyOp5
 70
     1
102
RTVSPropertyOp6
 70
     1
102
RTVSPropertyOp7
 70
     1
102
RTVSPropertyOp8
 70
     1
102
RTVSPropertyOp9
 70
     1
102
RTVSPropertyOp10
 70
     1
102
RTVSPropertyOp11
 70
     1
102
RTVSPropertyOp12
 70
     1
102
RTVSPropertyOp13
 70
     1
102
RTVSPropertyOp14
 70
     1
102
RTVSPropertyOp15
 70
     1
102
RTVSPropertyOp16
 70
     1
102
RTVSPropertyOp17
 70
     1
102
RTVSPropertyOp18
 70
     1
102
RTVSPropertyOp19
 70
     1
102
RTVSPropertyOp20
 70
     1
102
RTVSPropertyOp21
 70
     1
102
RTVSPropertyOp22
 70
     1
102
RTVSPropertyOp23
 70
     1
102
RTVSPropertyOp24
 70
     1
102
RTVSPropertyOp25
 70
     1
102
RTVSPropertyOp26
 70
     1
102
RTVSPropertyOp27
 70
     1
102
RTVSPropertyOp28
 70
     1
102
RTVSPropertyOp29
 70
     1
102
RTVSPropertyOp30
 70
     1
102
RTVSPropertyOp31
 70
     1
102
RTVSPropertyOp32
 70
     1
102
RTVSPropertyOp33
 70
     1
102
RTVSPropertyOp34
 70
     1
102
RTVSPropertyOp35
 70
     1
102
RTVSPropertyOp36
 70
     1
102
RTVSPropertyOp37
 70
     1
102
RTVSPropertyOp38
 70
     1
102
RTVSPropertyOp39
 70
     1
102
RTVSPropertyOp40
 70
     1
102
RTVSPropertyOp41
 70
     1
102
RTVSPropertyOp42
 70
     1
102
RTVSPropertyOp43
 70
     1
102
RTVSPropertyOp44
 70
     1
102
RTVSPropertyOp45
 70
     1
102
RTVSPropertyOp46
 70
     1
102
RTVSPropertyOp47
 70
     1
102
RTVSPropertyOp48
 70
     1
102
RTVSPropertyOp49
 70
     1
102
RTVSPropertyOp50
 70
     1
102
RTVSPropertyOp51
 70
     0
102
RTVSPropertyOp52
 70
     0
102
RTVSPropertyOp53
 70
     1
102
RTVSPropertyOp54
 70
     1
102
RTVSPropertyOp55
 70
     1
102
RTVSPropertyOp56
 70
     1
102
RTVSPropertyOp57
 70
     1
102
RTVSPropertyOp58
 70
     1
102
RTVSPropertyOp59
 70
     1
102
RTVSPropertyOp60
 70
     1
102
RTVSPropertyOp61
 70
     1
102
RTVSPropertyOp62
 70
     1
  0
XRECORD
  5
29B07
102
{ACAD_REACTORS
330
29B06
102
}
330
29B06
100
AcDbXrecord
280
     1
102
RTVSPost2010Prop28
280
     0
102
RTVSPost2010PropOp28
 70
     1
102
RTVSPost2010Prop29
280
     1
102
RTVSPost2010PropOp29
 70
     1
102
RTVSPost2010Prop30
280
     1
102
RTVSPost2010PropOp30
 70
     1
102
RTVSPost2010Prop31
280
     0
102
RTVSPost2010PropOp31
 70
     1
102
RTVSPost2010Prop32
280
     0
102
RTVSPost2010PropOp32
 70
     1
102
RTVSPost2010Prop33
280
     0
102
RTVSPost2010PropOp33
 70
     1
102
RTVSPost2010Prop34
280
     0
102
RTVSPost2010PropOp34
 70
     1
102
RTVSPost2010Prop35
280
     0
102
RTVSPost2010PropOp35
 70
     1
102
RTVSPost2010Prop36
280
     0
102
RTVSPost2010PropOp36
 70
     1
102
RTVSPost2010Prop37
 90
       50
102
RTVSPost2010PropOp37
 70
     1
102
RTVSPost2010Prop38
140
0.0
102
RTVSPost2010PropOp38
 70
     1
102
RTVSPost2010Prop39
140
1.0
102
RTVSPost2010PropOp39
 70
     1
102
RTVSPost2010Prop40
 90
        0
102
RTVSPost2010PropOp40
 70
     1
102
RTVSPost2010Prop41ColorIndex
 90
       18
102
RTVSPost2010Prop41ColorRGB
 90
        0
102
RTVSPost2010PropOp41
 70
     1
102
RTVSPost2010Prop42
 90
       50
102
RTVSPost2010PropOp42
 70
     1
102
RTVSPost2010Prop43
 90
        3
102
RTVSPost2010PropOp43
 70
     1
102
RTVSPost2010Prop44ColorIndex
 90
        5
102
RTVSPost2010Prop44ColorRGB
 90
      255
102
RTVSPost2010PropOp44
 70
     1
102
RTVSPost2010Prop45
280
     0
102
RTVSPost2010PropOp45
 70
     1
102
RTVSPost2010Prop46
 90
       50
102
RTVSPost2010PropOp46
 70
     1
102
RTVSPost2010Prop47
 90
       50
102
RTVSPost2010PropOp47
 70
     1
102
RTVSPost2010Prop48
 90
       50
102
RTVSPost2010PropOp48
 70
     1
102
RTVSPost2010Prop49
280
     0
102
RTVSPost2010PropOp49
 70
     1
102
RTVSPost2010Prop50
 90
       50
102
RTVSPost2010PropOp50
 70
     1
102
RTVSPost2010Prop51ColorIndex
 90
      256
102
RTVSPost2010Prop51ColorRGB
 90
-16777216
102
RTVSPost2010PropOp51
 70
     0
102
RTVSPost2010Prop52
140
1.0
102
RTVSPost2010PropOp52
 70
     0
102
RTVSPost2010Prop53
 90
        2
102
RTVSPost2010PropOp53
 70
     1
102
RTVSPost2010Prop54
  1
strokes_ogs.tif
102
RTVSPost2010PropOp54
 70
     1
102
RTVSPost2010Prop55
280
     0
102
RTVSPost2010PropOp55
 70
     1
102
RTVSPost2010Prop56
140
1.0
102
RTVSPost2010PropOp56
 70
     1
102
RTVSPost2010Prop57
140
1.0
102
RTVSPost2010PropOp57
 70
     1
102
RTVSPropertyOp0
 70
     1
102
RTVSPropertyOp1
 70
     1
102
RTVSPropertyOp2
 70
     1
102
RTVSPropertyOp3
 70
     1
102
RTVSPropertyOp4
 70
     1
102
RTVSPropertyOp5
 70
     1
102
RTVSPropertyOp6
 70
     1
102
RTVSPropertyOp7
 70
     1
102
RTVSPropertyOp8
 70
     1
102
RTVSPropertyOp9
 70
     1
102
RTVSPropertyOp10
 70
     1
102
RTVSPropertyOp11
 70
     1
102
RTVSPropertyOp12
 70
     1
102
RTVSPropertyOp13
 70
     1
102
RTVSPropertyOp14
 70
     1
102
RTVSPropertyOp15
 70
     1
102
RTVSPropertyOp16
 70
     1
102
RTVSPropertyOp17
 70
     1
102
RTVSPropertyOp18
 70
     1
102
RTVSPropertyOp19
 70
     1
102
RTVSPropertyOp20
 70
     1
102
RTVSPropertyOp21
 70
     1
102
RTVSPropertyOp22
 70
     1
102
RTVSPropertyOp23
 70
     1
102
RTVSPropertyOp24
 70
     1
102
RTVSPropertyOp25
 70
     1
102
RTVSPropertyOp26
 70
     1
102
RTVSPropertyOp27
 70
     1
102
RTVSPropertyOp28
 70
     1
102
RTVSPropertyOp29
 70
     1
102
RTVSPropertyOp30
 70
     1
102
RTVSPropertyOp31
 70
     1
102
RTVSPropertyOp32
 70
     1
102
RTVSPropertyOp33
 70
     1
102
RTVSPropertyOp34
 70
     1
102
RTVSPropertyOp35
 70
     1
102
RTVSPropertyOp36
 70
     1
102
RTVSPropertyOp37
 70
     1
102
RTVSPropertyOp38
 70
     1
102
RTVSPropertyOp39
 70
     1
102
RTVSPropertyOp40
 70
     1
102
RTVSPropertyOp41
 70
     1
102
RTVSPropertyOp42
 70
     1
102
RTVSPropertyOp43
 70
     1
102
RTVSPropertyOp44
 70
     1
102
RTVSPropertyOp45
 70
     1
102
RTVSPropertyOp46
 70
     1
102
RTVSPropertyOp47
 70
     1
102
RTVSPropertyOp48
 70
     1
102
RTVSPropertyOp49
 70
     1
102
RTVSPropertyOp50
 70
     1
102
RTVSPropertyOp51
 70
     0
102
RTVSPropertyOp52
 70
     0
102
RTVSPropertyOp53
 70
     1
102
RTVSPropertyOp54
 70
     1
102
RTVSPropertyOp55
 70
     1
102
RTVSPropertyOp56
 70
     1
102
RTVSPropertyOp57
 70
     1
102
RTVSPropertyOp58
 70
     1
102
RTVSPropertyOp59
 70
     1
102
RTVSPropertyOp60
 70
     1
102
RTVSPropertyOp61
 70
     1
102
RTVSPropertyOp62
 70
     1
  0
XRECORD
  5
29B0F
102
{ACAD_REACTORS
330
29B0E
102
}
330
29B0E
100
AcDbXrecord
280
     1
102
RTVSPost2010Prop28
280
     0
102
RTVSPost2010PropOp28
 70
     1
102
RTVSPost2010Prop29
280
     1
102
RTVSPost2010PropOp29
 70
     1
102
RTVSPost2010Prop30
280
     1
102
RTVSPost2010PropOp30
 70
     1
102
RTVSPost2010Prop31
280
     0
102
RTVSPost2010PropOp31
 70
     1
102
RTVSPost2010Prop32
280
     0
102
RTVSPost2010PropOp32
 70
     1
102
RTVSPost2010Prop33
280
     0
102
RTVSPost2010PropOp33
 70
     1
102
RTVSPost2010Prop34
280
     0
102
RTVSPost2010PropOp34
 70
     1
102
RTVSPost2010Prop35
280
     0
102
RTVSPost2010PropOp35
 70
     1
102
RTVSPost2010Prop36
280
     0
102
RTVSPost2010PropOp36
 70
     1
102
RTVSPost2010Prop37
 90
       50
102
RTVSPost2010PropOp37
 70
     1
102
RTVSPost2010Prop38
140
0.0
102
RTVSPost2010PropOp38
 70
     1
102
RTVSPost2010Prop39
140
1.0
102
RTVSPost2010PropOp39
 70
     1
102
RTVSPost2010Prop40
 90
        0
102
RTVSPost2010PropOp40
 70
     1
102
RTVSPost2010Prop41ColorIndex
 90
       18
102
RTVSPost2010Prop41ColorRGB
 90
        0
102
RTVSPost2010PropOp41
 70
     1
102
RTVSPost2010Prop42
 90
       50
102
RTVSPost2010PropOp42
 70
     1
102
RTVSPost2010Prop43
 90
        3
102
RTVSPost2010PropOp43
 70
     1
102
RTVSPost2010Prop44ColorIndex
 90
        5
102
RTVSPost2010Prop44ColorRGB
 90
      255
102
RTVSPost2010PropOp44
 70
     1
102
RTVSPost2010Prop45
280
     0
102
RTVSPost2010PropOp45
 70
     1
102
RTVSPost2010Prop46
 90
       50
102
RTVSPost2010PropOp46
 70
     1
102
RTVSPost2010Prop47
 90
       50
102
RTVSPost2010PropOp47
 70
     1
102
RTVSPost2010Prop48
 90
       50
102
RTVSPost2010PropOp48
 70
     1
102
RTVSPost2010Prop49
280
     0
102
RTVSPost2010PropOp49
 70
     1
102
RTVSPost2010Prop50
 90
       50
102
RTVSPost2010PropOp50
 70
     1
102
RTVSPost2010Prop51ColorIndex
 90
      256
102
RTVSPost2010Prop51ColorRGB
 90
-16777216
102
RTVSPost2010PropOp51
 70
     0
102
RTVSPost2010Prop52
140
1.0
102
RTVSPost2010PropOp52
 70
     0
102
RTVSPost2010Prop53
 90
        2
102
RTVSPost2010PropOp53
 70
     1
102
RTVSPost2010Prop54
  1
strokes_ogs.tif
102
RTVSPost2010PropOp54
 70
     1
102
RTVSPost2010Prop55
280
     0
102
RTVSPost2010PropOp55
 70
     1
102
RTVSPost2010Prop56
140
1.0
102
RTVSPost2010PropOp56
 70
     1
102
RTVSPost2010Prop57
140
1.0
102
RTVSPost2010PropOp57
 70
     1
102
RTVSPropertyOp0
 70
     1
102
RTVSPropertyOp1
 70
     1
102
RTVSPropertyOp2
 70
     1
102
RTVSPropertyOp3
 70
     1
102
RTVSPropertyOp4
 70
     1
102
RTVSPropertyOp5
 70
     1
102
RTVSPropertyOp6
 70
     1
102
RTVSPropertyOp7
 70
     1
102
RTVSPropertyOp8
 70
     1
102
RTVSPropertyOp9
 70
     1
102
RTVSPropertyOp10
 70
     1
102
RTVSPropertyOp11
 70
     1
102
RTVSPropertyOp12
 70
     1
102
RTVSPropertyOp13
 70
     1
102
RTVSPropertyOp14
 70
     1
102
RTVSPropertyOp15
 70
     1
102
RTVSPropertyOp16
 70
     1
102
RTVSPropertyOp17
 70
     1
102
RTVSPropertyOp18
 70
     1
102
RTVSPropertyOp19
 70
     1
102
RTVSPropertyOp20
 70
     1
102
RTVSPropertyOp21
 70
     1
102
RTVSPropertyOp22
 70
     1
102
RTVSPropertyOp23
 70
     1
102
RTVSPropertyOp24
 70
     1
102
RTVSPropertyOp25
 70
     1
102
RTVSPropertyOp26
 70
     1
102
RTVSPropertyOp27
 70
     1
102
RTVSPropertyOp28
 70
     1
102
RTVSPropertyOp29
 70
     1
102
RTVSPropertyOp30
 70
     1
102
RTVSPropertyOp31
 70
     1
102
RTVSPropertyOp32
 70
     1
102
RTVSPropertyOp33
 70
     1
102
RTVSPropertyOp34
 70
     1
102
RTVSPropertyOp35
 70
     1
102
RTVSPropertyOp36
 70
     1
102
RTVSPropertyOp37
 70
     1
102
RTVSPropertyOp38
 70
     1
102
RTVSPropertyOp39
 70
     1
102
RTVSPropertyOp40
 70
     1
102
RTVSPropertyOp41
 70
     1
102
RTVSPropertyOp42
 70
     1
102
RTVSPropertyOp43
 70
     1
102
RTVSPropertyOp44
 70
     1
102
RTVSPropertyOp45
 70
     1
102
RTVSPropertyOp46
 70
     1
102
RTVSPropertyOp47
 70
     1
102
RTVSPropertyOp48
 70
     1
102
RTVSPropertyOp49
 70
     1
102
RTVSPropertyOp50
 70
     1
102
RTVSPropertyOp51
 70
     0
102
RTVSPropertyOp52
 70
     0
102
RTVSPropertyOp53
 70
     1
102
RTVSPropertyOp54
 70
     1
102
RTVSPropertyOp55
 70
     1
102
RTVSPropertyOp56
 70
     1
102
RTVSPropertyOp57
 70
     1
102
RTVSPropertyOp58
 70
     1
102
RTVSPropertyOp59
 70
     1
102
RTVSPropertyOp60
 70
     1
102
RTVSPropertyOp61
 70
     1
102
RTVSPropertyOp62
 70
     1
  0
XRECORD
  5
29B01
102
{ACAD_REACTORS
330
29B00
102
}
330
29B00
100
AcDbXrecord
280
     1
102
RTVSPost2010Prop28
280
     0
102
RTVSPost2010PropOp28
 70
     1
102
RTVSPost2010Prop29
280
     1
102
RTVSPost2010PropOp29
 70
     1
102
RTVSPost2010Prop30
280
     1
102
RTVSPost2010PropOp30
 70
     1
102
RTVSPost2010Prop31
280
     0
102
RTVSPost2010PropOp31
 70
     1
102
RTVSPost2010Prop32
280
     0
102
RTVSPost2010PropOp32
 70
     1
102
RTVSPost2010Prop33
280
     0
102
RTVSPost2010PropOp33
 70
     1
102
RTVSPost2010Prop34
280
     0
102
RTVSPost2010PropOp34
 70
     1
102
RTVSPost2010Prop35
280
     0
102
RTVSPost2010PropOp35
 70
     1
102
RTVSPost2010Prop36
280
     0
102
RTVSPost2010PropOp36
 70
     1
102
RTVSPost2010Prop37
 90
       50
102
RTVSPost2010PropOp37
 70
     1
102
RTVSPost2010Prop38
140
0.0
102
RTVSPost2010PropOp38
 70
     1
102
RTVSPost2010Prop39
140
1.0
102
RTVSPost2010PropOp39
 70
     1
102
RTVSPost2010Prop40
 90
        0
102
RTVSPost2010PropOp40
 70
     1
102
RTVSPost2010Prop41ColorIndex
 90
       18
102
RTVSPost2010Prop41ColorRGB
 90
        0
102
RTVSPost2010PropOp41
 70
     1
102
RTVSPost2010Prop42
 90
       50
102
RTVSPost2010PropOp42
 70
     1
102
RTVSPost2010Prop43
 90
        3
102
RTVSPost2010PropOp43
 70
     1
102
RTVSPost2010Prop44ColorIndex
 90
        5
102
RTVSPost2010Prop44ColorRGB
 90
      255
102
RTVSPost2010PropOp44
 70
     1
102
RTVSPost2010Prop45
280
     0
102
RTVSPost2010PropOp45
 70
     1
102
RTVSPost2010Prop46
 90
       50
102
RTVSPost2010PropOp46
 70
     1
102
RTVSPost2010Prop47
 90
       50
102
RTVSPost2010PropOp47
 70
     1
102
RTVSPost2010Prop48
 90
       50
102
RTVSPost2010PropOp48
 70
     1
102
RTVSPost2010Prop49
280
     0
102
RTVSPost2010PropOp49
 70
     1
102
RTVSPost2010Prop50
 90
       50
102
RTVSPost2010PropOp50
 70
     1
102
RTVSPost2010Prop51ColorIndex
 90
      256
102
RTVSPost2010Prop51ColorRGB
 90
-16777216
102
RTVSPost2010PropOp51
 70
     0
102
RTVSPost2010Prop52
140
1.0
102
RTVSPost2010PropOp52
 70
     0
102
RTVSPost2010Prop53
 90
        2
102
RTVSPost2010PropOp53
 70
     1
102
RTVSPost2010Prop54
  1
strokes_ogs.tif
102
RTVSPost2010PropOp54
 70
     1
102
RTVSPost2010Prop55
280
     0
102
RTVSPost2010PropOp55
 70
     1
102
RTVSPost2010Prop56
140
1.0
102
RTVSPost2010PropOp56
 70
     1
102
RTVSPost2010Prop57
140
1.0
102
RTVSPost2010PropOp57
 70
     1
102
RTVSPropertyOp0
 70
     1
102
RTVSPropertyOp1
 70
     1
102
RTVSPropertyOp2
 70
     1
102
RTVSPropertyOp3
 70
     1
102
RTVSPropertyOp4
 70
     1
102
RTVSPropertyOp5
 70
     1
102
RTVSPropertyOp6
 70
     1
102
RTVSPropertyOp7
 70
     1
102
RTVSPropertyOp8
 70
     1
102
RTVSPropertyOp9
 70
     1
102
RTVSPropertyOp10
 70
     1
102
RTVSPropertyOp11
 70
     1
102
RTVSPropertyOp12
 70
     1
102
RTVSPropertyOp13
 70
     1
102
RTVSPropertyOp14
 70
     1
102
RTVSPropertyOp15
 70
     1
102
RTVSPropertyOp16
 70
     1
102
RTVSPropertyOp17
 70
     1
102
RTVSPropertyOp18
 70
     1
102
RTVSPropertyOp19
 70
     1
102
RTVSPropertyOp20
 70
     1
102
RTVSPropertyOp21
 70
     1
102
RTVSPropertyOp22
 70
     1
102
RTVSPropertyOp23
 70
     1
102
RTVSPropertyOp24
 70
     1
102
RTVSPropertyOp25
 70
     1
102
RTVSPropertyOp26
 70
     1
102
RTVSPropertyOp27
 70
     1
102
RTVSPropertyOp28
 70
     1
102
RTVSPropertyOp29
 70
     1
102
RTVSPropertyOp30
 70
     1
102
RTVSPropertyOp31
 70
     1
102
RTVSPropertyOp32
 70
     1
102
RTVSPropertyOp33
 70
     1
102
RTVSPropertyOp34
 70
     1
102
RTVSPropertyOp35
 70
     1
102
RTVSPropertyOp36
 70
     1
102
RTVSPropertyOp37
 70
     1
102
RTVSPropertyOp38
 70
     1
102
RTVSPropertyOp39
 70
     1
102
RTVSPropertyOp40
 70
     1
102
RTVSPropertyOp41
 70
     1
102
RTVSPropertyOp42
 70
     1
102
RTVSPropertyOp43
 70
     1
102
RTVSPropertyOp44
 70
     1
102
RTVSPropertyOp45
 70
     1
102
RTVSPropertyOp46
 70
     1
102
RTVSPropertyOp47
 70
     1
102
RTVSPropertyOp48
 70
     1
102
RTVSPropertyOp49
 70
     1
102
RTVSPropertyOp50
 70
     1
102
RTVSPropertyOp51
 70
     0
102
RTVSPropertyOp52
 70
     0
102
RTVSPropertyOp53
 70
     1
102
RTVSPropertyOp54
 70
     1
102
RTVSPropertyOp55
 70
     1
102
RTVSPropertyOp56
 70
     1
102
RTVSPropertyOp57
 70
     1
102
RTVSPropertyOp58
 70
     1
102
RTVSPropertyOp59
 70
     1
102
RTVSPropertyOp60
 70
     1
102
RTVSPropertyOp61
 70
     1
102
RTVSPropertyOp62
 70
     1
  0
XRECORD
  5
29B05
102
{ACAD_REACTORS
330
29B04
102
}
330
29B04
100
AcDbXrecord
280
     1
102
RTVSPost2010Prop28
280
     0
102
RTVSPost2010PropOp28
 70
     1
102
RTVSPost2010Prop29
280
     1
102
RTVSPost2010PropOp29
 70
     1
102
RTVSPost2010Prop30
280
     1
102
RTVSPost2010PropOp30
 70
     1
102
RTVSPost2010Prop31
280
     0
102
RTVSPost2010PropOp31
 70
     1
102
RTVSPost2010Prop32
280
     0
102
RTVSPost2010PropOp32
 70
     1
102
RTVSPost2010Prop33
280
     0
102
RTVSPost2010PropOp33
 70
     1
102
RTVSPost2010Prop34
280
     0
102
RTVSPost2010PropOp34
 70
     1
102
RTVSPost2010Prop35
280
     0
102
RTVSPost2010PropOp35
 70
     1
102
RTVSPost2010Prop36
280
     0
102
RTVSPost2010PropOp36
 70
     1
102
RTVSPost2010Prop37
 90
       50
102
RTVSPost2010PropOp37
 70
     1
102
RTVSPost2010Prop38
140
0.0
102
RTVSPost2010PropOp38
 70
     1
102
RTVSPost2010Prop39
140
1.0
102
RTVSPost2010PropOp39
 70
     1
102
RTVSPost2010Prop40
 90
        0
102
RTVSPost2010PropOp40
 70
     1
102
RTVSPost2010Prop41ColorIndex
 90
       18
102
RTVSPost2010Prop41ColorRGB
 90
        0
102
RTVSPost2010PropOp41
 70
     1
102
RTVSPost2010Prop42
 90
       50
102
RTVSPost2010PropOp42
 70
     1
102
RTVSPost2010Prop43
 90
        3
102
RTVSPost2010PropOp43
 70
     1
102
RTVSPost2010Prop44ColorIndex
 90
        5
102
RTVSPost2010Prop44ColorRGB
 90
      255
102
RTVSPost2010PropOp44
 70
     1
102
RTVSPost2010Prop45
280
     0
102
RTVSPost2010PropOp45
 70
     1
102
RTVSPost2010Prop46
 90
       50
102
RTVSPost2010PropOp46
 70
     1
102
RTVSPost2010Prop47
 90
       50
102
RTVSPost2010PropOp47
 70
     1
102
RTVSPost2010Prop48
 90
       50
102
RTVSPost2010PropOp48
 70
     1
102
RTVSPost2010Prop49
280
     0
102
RTVSPost2010PropOp49
 70
     1
102
RTVSPost2010Prop50
 90
       50
102
RTVSPost2010PropOp50
 70
     1
102
RTVSPost2010Prop51ColorIndex
 90
      256
102
RTVSPost2010Prop51ColorRGB
 90
-16777216
102
RTVSPost2010PropOp51
 70
     0
102
RTVSPost2010Prop52
140
1.0
102
RTVSPost2010PropOp52
 70
     0
102
RTVSPost2010Prop53
 90
        2
102
RTVSPost2010PropOp53
 70
     1
102
RTVSPost2010Prop54
  1
strokes_ogs.tif
102
RTVSPost2010PropOp54
 70
     1
102
RTVSPost2010Prop55
280
     0
102
RTVSPost2010PropOp55
 70
     1
102
RTVSPost2010Prop56
140
1.0
102
RTVSPost2010PropOp56
 70
     1
102
RTVSPost2010Prop57
140
1.0
102
RTVSPost2010PropOp57
 70
     1
102
RTVSPropertyOp0
 70
     1
102
RTVSPropertyOp1
 70
     1
102
RTVSPropertyOp2
 70
     1
102
RTVSPropertyOp3
 70
     1
102
RTVSPropertyOp4
 70
     1
102
RTVSPropertyOp5
 70
     1
102
RTVSPropertyOp6
 70
     1
102
RTVSPropertyOp7
 70
     1
102
RTVSPropertyOp8
 70
     1
102
RTVSPropertyOp9
 70
     1
102
RTVSPropertyOp10
 70
     1
102
RTVSPropertyOp11
 70
     1
102
RTVSPropertyOp12
 70
     1
102
RTVSPropertyOp13
 70
     1
102
RTVSPropertyOp14
 70
     1
102
RTVSPropertyOp15
 70
     1
102
RTVSPropertyOp16
 70
     1
102
RTVSPropertyOp17
 70
     1
102
RTVSPropertyOp18
 70
     1
102
RTVSPropertyOp19
 70
     1
102
RTVSPropertyOp20
 70
     1
102
RTVSPropertyOp21
 70
     1
102
RTVSPropertyOp22
 70
     1
102
RTVSPropertyOp23
 70
     1
102
RTVSPropertyOp24
 70
     1
102
RTVSPropertyOp25
 70
     1
102
RTVSPropertyOp26
 70
     1
102
RTVSPropertyOp27
 70
     1
102
RTVSPropertyOp28
 70
     1
102
RTVSPropertyOp29
 70
     1
102
RTVSPropertyOp30
 70
     1
102
RTVSPropertyOp31
 70
     1
102
RTVSPropertyOp32
 70
     1
102
RTVSPropertyOp33
 70
     1
102
RTVSPropertyOp34
 70
     1
102
RTVSPropertyOp35
 70
     1
102
RTVSPropertyOp36
 70
     1
102
RTVSPropertyOp37
 70
     1
102
RTVSPropertyOp38
 70
     1
102
RTVSPropertyOp39
 70
     1
102
RTVSPropertyOp40
 70
     1
102
RTVSPropertyOp41
 70
     1
102
RTVSPropertyOp42
 70
     1
102
RTVSPropertyOp43
 70
     1
102
RTVSPropertyOp44
 70
     1
102
RTVSPropertyOp45
 70
     1
102
RTVSPropertyOp46
 70
     1
102
RTVSPropertyOp47
 70
     1
102
RTVSPropertyOp48
 70
     1
102
RTVSPropertyOp49
 70
     1
102
RTVSPropertyOp50
 70
     1
102
RTVSPropertyOp51
 70
     0
102
RTVSPropertyOp52
 70
     0
102
RTVSPropertyOp53
 70
     1
102
RTVSPropertyOp54
 70
     1
102
RTVSPropertyOp55
 70
     1
102
RTVSPropertyOp56
 70
     1
102
RTVSPropertyOp57
 70
     1
102
RTVSPropertyOp58
 70
     1
102
RTVSPropertyOp59
 70
     1
102
RTVSPropertyOp60
 70
     1
102
RTVSPropertyOp61
 70
     1
102
RTVSPropertyOp62
 70
     1
  0
XRECORD
  5
29B17
102
{ACAD_REACTORS
330
29B16
102
}
330
29B16
100
AcDbXrecord
280
     1
102
RTVSPost2010Prop28
280
     0
102
RTVSPost2010PropOp28
 70
     1
102
RTVSPost2010Prop29
280
     1
102
RTVSPost2010PropOp29
 70
     1
102
RTVSPost2010Prop30
280
     1
102
RTVSPost2010PropOp30
 70
     1
102
RTVSPost2010Prop31
280
     0
102
RTVSPost2010PropOp31
 70
     1
102
RTVSPost2010Prop32
280
     0
102
RTVSPost2010PropOp32
 70
     1
102
RTVSPost2010Prop33
280
     0
102
RTVSPost2010PropOp33
 70
     1
102
RTVSPost2010Prop34
280
     0
102
RTVSPost2010PropOp34
 70
     1
102
RTVSPost2010Prop35
280
     0
102
RTVSPost2010PropOp35
 70
     1
102
RTVSPost2010Prop36
280
     0
102
RTVSPost2010PropOp36
 70
     1
102
RTVSPost2010Prop37
 90
       50
102
RTVSPost2010PropOp37
 70
     1
102
RTVSPost2010Prop38
140
0.0
102
RTVSPost2010PropOp38
 70
     1
102
RTVSPost2010Prop39
140
1.0
102
RTVSPost2010PropOp39
 70
     1
102
RTVSPost2010Prop40
 90
        0
102
RTVSPost2010PropOp40
 70
     1
102
RTVSPost2010Prop41ColorIndex
 90
       18
102
RTVSPost2010Prop41ColorRGB
 90
        0
102
RTVSPost2010PropOp41
 70
     1
102
RTVSPost2010Prop42
 90
       50
102
RTVSPost2010PropOp42
 70
     1
102
RTVSPost2010Prop43
 90
        3
102
RTVSPost2010PropOp43
 70
     1
102
RTVSPost2010Prop44ColorIndex
 90
        5
102
RTVSPost2010Prop44ColorRGB
 90
      255
102
RTVSPost2010PropOp44
 70
     1
102
RTVSPost2010Prop45
280
     0
102
RTVSPost2010PropOp45
 70
     1
102
RTVSPost2010Prop46
 90
       50
102
RTVSPost2010PropOp46
 70
     1
102
RTVSPost2010Prop47
 90
       50
102
RTVSPost2010PropOp47
 70
     1
102
RTVSPost2010Prop48
 90
       50
102
RTVSPost2010PropOp48
 70
     1
102
RTVSPost2010Prop49
280
     0
102
RTVSPost2010PropOp49
 70
     1
102
RTVSPost2010Prop50
 90
       50
102
RTVSPost2010PropOp50
 70
     1
102
RTVSPost2010Prop51ColorIndex
 90
      256
102
RTVSPost2010Prop51ColorRGB
 90
-16777216
102
RTVSPost2010PropOp51
 70
     0
102
RTVSPost2010Prop52
140
1.0
102
RTVSPost2010PropOp52
 70
     0
102
RTVSPost2010Prop53
 90
        2
102
RTVSPost2010PropOp53
 70
     1
102
RTVSPost2010Prop54
  1
strokes_ogs.tif
102
RTVSPost2010PropOp54
 70
     1
102
RTVSPost2010Prop55
280
     0
102
RTVSPost2010PropOp55
 70
     1
102
RTVSPost2010Prop56
140
1.0
102
RTVSPost2010PropOp56
 70
     1
102
RTVSPost2010Prop57
140
1.0
102
RTVSPost2010PropOp57
 70
     1
102
RTVSPropertyOp0
 70
     0
102
RTVSPropertyOp1
 70
     0
102
RTVSPropertyOp2
 70
     0
102
RTVSPropertyOp3
 70
     0
102
RTVSPropertyOp4
 70
     0
102
RTVSPropertyOp5
 70
     0
102
RTVSPropertyOp6
 70
     0
102
RTVSPropertyOp7
 70
     0
102
RTVSPropertyOp8
 70
     0
102
RTVSPropertyOp9
 70
     0
102
RTVSPropertyOp10
 70
     0
102
RTVSPropertyOp11
 70
     0
102
RTVSPropertyOp12
 70
     0
102
RTVSPropertyOp13
 70
     0
102
RTVSPropertyOp14
 70
     2
102
RTVSPropertyOp15
 70
     0
102
RTVSPropertyOp16
 70
     0
102
RTVSPropertyOp17
 70
     0
102
RTVSPropertyOp18
 70
     0
102
RTVSPropertyOp19
 70
     0
102
RTVSPropertyOp20
 70
     0
102
RTVSPropertyOp21
 70
     0
102
RTVSPropertyOp22
 70
     0
102
RTVSPropertyOp23
 70
     0
102
RTVSPropertyOp24
 70
     0
102
RTVSPropertyOp25
 70
     0
102
RTVSPropertyOp26
 70
     0
102
RTVSPropertyOp27
 70
     0
102
RTVSPropertyOp28
 70
     1
102
RTVSPropertyOp29
 70
     1
102
RTVSPropertyOp30
 70
     1
102
RTVSPropertyOp31
 70
     1
102
RTVSPropertyOp32
 70
     1
102
RTVSPropertyOp33
 70
     1
102
RTVSPropertyOp34
 70
     1
102
RTVSPropertyOp35
 70
     1
102
RTVSPropertyOp36
 70
     1
102
RTVSPropertyOp37
 70
     1
102
RTVSPropertyOp38
 70
     1
102
RTVSPropertyOp39
 70
     1
102
RTVSPropertyOp40
 70
     1
102
RTVSPropertyOp41
 70
     1
102
RTVSPropertyOp42
 70
     1
102
RTVSPropertyOp43
 70
     1
102
RTVSPropertyOp44
 70
     1
102
RTVSPropertyOp45
 70
     1
102
RTVSPropertyOp46
 70
     1
102
RTVSPropertyOp47
 70
     1
102
RTVSPropertyOp48
 70
     1
102
RTVSPropertyOp49
 70
     1
102
RTVSPropertyOp50
 70
     1
102
RTVSPropertyOp51
 70
     0
102
RTVSPropertyOp52
 70
     0
102
RTVSPropertyOp53
 70
     1
102
RTVSPropertyOp54
 70
     1
102
RTVSPropertyOp55
 70
     1
102
RTVSPropertyOp56
 70
     1
102
RTVSPropertyOp57
 70
     1
102
RTVSPropertyOp58
 70
     1
102
RTVSPropertyOp59
 70
     1
102
RTVSPropertyOp60
 70
     1
102
RTVSPropertyOp61
 70
     1
102
RTVSPropertyOp62
 70
     1
  0
XRECORD
  5
29B0D
102
{ACAD_REACTORS
330
29B0C
102
}
330
29B0C
100
AcDbXrecord
280
     1
102
RTVSPost2010Prop28
280
     0
102
RTVSPost2010PropOp28
 70
     1
102
RTVSPost2010Prop29
280
     1
102
RTVSPost2010PropOp29
 70
     1
102
RTVSPost2010Prop30
280
     1
102
RTVSPost2010PropOp30
 70
     1
102
RTVSPost2010Prop31
280
     0
102
RTVSPost2010PropOp31
 70
     1
102
RTVSPost2010Prop32
280
     0
102
RTVSPost2010PropOp32
 70
     1
102
RTVSPost2010Prop33
280
     0
102
RTVSPost2010PropOp33
 70
     1
102
RTVSPost2010Prop34
280
     0
102
RTVSPost2010PropOp34
 70
     1
102
RTVSPost2010Prop35
280
     0
102
RTVSPost2010PropOp35
 70
     1
102
RTVSPost2010Prop36
280
     0
102
RTVSPost2010PropOp36
 70
     1
102
RTVSPost2010Prop37
 90
       50
102
RTVSPost2010PropOp37
 70
     1
102
RTVSPost2010Prop38
140
0.0
102
RTVSPost2010PropOp38
 70
     1
102
RTVSPost2010Prop39
140
1.0
102
RTVSPost2010PropOp39
 70
     1
102
RTVSPost2010Prop40
 90
        0
102
RTVSPost2010PropOp40
 70
     1
102
RTVSPost2010Prop41ColorIndex
 90
       18
102
RTVSPost2010Prop41ColorRGB
 90
        0
102
RTVSPost2010PropOp41
 70
     1
102
RTVSPost2010Prop42
 90
       50
102
RTVSPost2010PropOp42
 70
     1
102
RTVSPost2010Prop43
 90
        3
102
RTVSPost2010PropOp43
 70
     1
102
RTVSPost2010Prop44ColorIndex
 90
        5
102
RTVSPost2010Prop44ColorRGB
 90
      255
102
RTVSPost2010PropOp44
 70
     1
102
RTVSPost2010Prop45
280
     0
102
RTVSPost2010PropOp45
 70
     1
102
RTVSPost2010Prop46
 90
       50
102
RTVSPost2010PropOp46
 70
     1
102
RTVSPost2010Prop47
 90
       50
102
RTVSPost2010PropOp47
 70
     1
102
RTVSPost2010Prop48
 90
       50
102
RTVSPost2010PropOp48
 70
     1
102
RTVSPost2010Prop49
280
     0
102
RTVSPost2010PropOp49
 70
     1
102
RTVSPost2010Prop50
 90
       50
102
RTVSPost2010PropOp50
 70
     1
102
RTVSPost2010Prop51ColorIndex
 90
      256
102
RTVSPost2010Prop51ColorRGB
 90
-16777216
102
RTVSPost2010PropOp51
 70
     0
102
RTVSPost2010Prop52
140
1.0
102
RTVSPost2010PropOp52
 70
     0
102
RTVSPost2010Prop53
 90
        2
102
RTVSPost2010PropOp53
 70
     1
102
RTVSPost2010Prop54
  1
strokes_ogs.tif
102
RTVSPost2010PropOp54
 70
     1
102
RTVSPost2010Prop55
280
     0
102
RTVSPost2010PropOp55
 70
     1
102
RTVSPost2010Prop56
140
1.0
102
RTVSPost2010PropOp56
 70
     1
102
RTVSPost2010Prop57
140
1.0
102
RTVSPost2010PropOp57
 70
     1
102
RTVSPropertyOp0
 70
     1
102
RTVSPropertyOp1
 70
     1
102
RTVSPropertyOp2
 70
     1
102
RTVSPropertyOp3
 70
     1
102
RTVSPropertyOp4
 70
     1
102
RTVSPropertyOp5
 70
     1
102
RTVSPropertyOp6
 70
     1
102
RTVSPropertyOp7
 70
     1
102
RTVSPropertyOp8
 70
     1
102
RTVSPropertyOp9
 70
     1
102
RTVSPropertyOp10
 70
     1
102
RTVSPropertyOp11
 70
     1
102
RTVSPropertyOp12
 70
     1
102
RTVSPropertyOp13
 70
     1
102
RTVSPropertyOp14
 70
     1
102
RTVSPropertyOp15
 70
     1
102
RTVSPropertyOp16
 70
     1
102
RTVSPropertyOp17
 70
     1
102
RTVSPropertyOp18
 70
     1
102
RTVSPropertyOp19
 70
     1
102
RTVSPropertyOp20
 70
     1
102
RTVSPropertyOp21
 70
     1
102
RTVSPropertyOp22
 70
     1
102
RTVSPropertyOp23
 70
     1
102
RTVSPropertyOp24
 70
     1
102
RTVSPropertyOp25
 70
     1
102
RTVSPropertyOp26
 70
     1
102
RTVSPropertyOp27
 70
     1
102
RTVSPropertyOp28
 70
     1
102
RTVSPropertyOp29
 70
     1
102
RTVSPropertyOp30
 70
     1
102
RTVSPropertyOp31
 70
     1
102
RTVSPropertyOp32
 70
     1
102
RTVSPropertyOp33
 70
     1
102
RTVSPropertyOp34
 70
     1
102
RTVSPropertyOp35
 70
     1
102
RTVSPropertyOp36
 70
     1
102
RTVSPropertyOp37
 70
     1
102
RTVSPropertyOp38
 70
     1
102
RTVSPropertyOp39
 70
     1
102
RTVSPropertyOp40
 70
     1
102
RTVSPropertyOp41
 70
     1
102
RTVSPropertyOp42
 70
     1
102
RTVSPropertyOp43
 70
     1
102
RTVSPropertyOp44
 70
     1
102
RTVSPropertyOp45
 70
     1
102
RTVSPropertyOp46
 70
     1
102
RTVSPropertyOp47
 70
     1
102
RTVSPropertyOp48
 70
     1
102
RTVSPropertyOp49
 70
     1
102
RTVSPropertyOp50
 70
     1
102
RTVSPropertyOp51
 70
     0
102
RTVSPropertyOp52
 70
     0
102
RTVSPropertyOp53
 70
     1
102
RTVSPropertyOp54
 70
     1
102
RTVSPropertyOp55
 70
     1
102
RTVSPropertyOp56
 70
     1
102
RTVSPropertyOp57
 70
     1
102
RTVSPropertyOp58
 70
     1
102
RTVSPropertyOp59
 70
     1
102
RTVSPropertyOp60
 70
     1
102
RTVSPropertyOp61
 70
     1
102
RTVSPropertyOp62
 70
     1
  0
XRECORD
  5
29AF1
102
{ACAD_REACTORS
330
29AF0
102
}
330
29AF0
100
AcDbXrecord
280
     1
102
RTVSPost2010Prop28
280
     0
102
RTVSPost2010PropOp28
 70
     1
102
RTVSPost2010Prop29
280
     1
102
RTVSPost2010PropOp29
 70
     1
102
RTVSPost2010Prop30
280
     1
102
RTVSPost2010PropOp30
 70
     1
102
RTVSPost2010Prop31
280
     0
102
RTVSPost2010PropOp31
 70
     1
102
RTVSPost2010Prop32
280
     0
102
RTVSPost2010PropOp32
 70
     1
102
RTVSPost2010Prop33
280
     0
102
RTVSPost2010PropOp33
 70
     1
102
RTVSPost2010Prop34
280
     0
102
RTVSPost2010PropOp34
 70
     1
102
RTVSPost2010Prop35
280
     0
102
RTVSPost2010PropOp35
 70
     1
102
RTVSPost2010Prop36
280
     0
102
RTVSPost2010PropOp36
 70
     1
102
RTVSPost2010Prop37
 90
       50
102
RTVSPost2010PropOp37
 70
     1
102
RTVSPost2010Prop38
140
0.0
102
RTVSPost2010PropOp38
 70
     1
102
RTVSPost2010Prop39
140
1.0
102
RTVSPost2010PropOp39
 70
     1
102
RTVSPost2010Prop40
 90
        0
102
RTVSPost2010PropOp40
 70
     1
102
RTVSPost2010Prop41ColorIndex
 90
       18
102
RTVSPost2010Prop41ColorRGB
 90
        0
102
RTVSPost2010PropOp41
 70
     1
102
RTVSPost2010Prop42
 90
       50
102
RTVSPost2010PropOp42
 70
     1
102
RTVSPost2010Prop43
 90
        3
102
RTVSPost2010PropOp43
 70
     1
102
RTVSPost2010Prop44ColorIndex
 90
        5
102
RTVSPost2010Prop44ColorRGB
 90
      255
102
RTVSPost2010PropOp44
 70
     1
102
RTVSPost2010Prop45
280
     0
102
RTVSPost2010PropOp45
 70
     1
102
RTVSPost2010Prop46
 90
       50
102
RTVSPost2010PropOp46
 70
     1
102
RTVSPost2010Prop47
 90
       50
102
RTVSPost2010PropOp47
 70
     1
102
RTVSPost2010Prop48
 90
       50
102
RTVSPost2010PropOp48
 70
     1
102
RTVSPost2010Prop49
280
     0
102
RTVSPost2010PropOp49
 70
     1
102
RTVSPost2010Prop50
 90
       50
102
RTVSPost2010PropOp50
 70
     1
102
RTVSPost2010Prop51ColorIndex
 90
      256
102
RTVSPost2010Prop51ColorRGB
 90
-16777216
102
RTVSPost2010PropOp51
 70
     0
102
RTVSPost2010Prop52
140
1.0
102
RTVSPost2010PropOp52
 70
     0
102
RTVSPost2010Prop53
 90
        2
102
RTVSPost2010PropOp53
 70
     1
102
RTVSPost2010Prop54
  1
strokes_ogs.tif
102
RTVSPost2010PropOp54
 70
     1
102
RTVSPost2010Prop55
280
     0
102
RTVSPost2010PropOp55
 70
     1
102
RTVSPost2010Prop56
140
1.0
102
RTVSPost2010PropOp56
 70
     1
102
RTVSPost2010Prop57
140
1.0
102
RTVSPost2010PropOp57
 70
     1
102
RTVSPropertyOp0
 70
     1
102
RTVSPropertyOp1
 70
     1
102
RTVSPropertyOp2
 70
     1
102
RTVSPropertyOp3
 70
     1
102
RTVSPropertyOp4
 70
     1
102
RTVSPropertyOp5
 70
     1
102
RTVSPropertyOp6
 70
     1
102
RTVSPropertyOp7
 70
     1
102
RTVSPropertyOp8
 70
     1
102
RTVSPropertyOp9
 70
     1
102
RTVSPropertyOp10
 70
     1
102
RTVSPropertyOp11
 70
     1
102
RTVSPropertyOp12
 70
     1
102
RTVSPropertyOp13
 70
     1
102
RTVSPropertyOp14
 70
     1
102
RTVSPropertyOp15
 70
     1
102
RTVSPropertyOp16
 70
     1
102
RTVSPropertyOp17
 70
     1
102
RTVSPropertyOp18
 70
     1
102
RTVSPropertyOp19
 70
     1
102
RTVSPropertyOp20
 70
     1
102
RTVSPropertyOp21
 70
     1
102
RTVSPropertyOp22
 70
     1
102
RTVSPropertyOp23
 70
     1
102
RTVSPropertyOp24
 70
     1
102
RTVSPropertyOp25
 70
     1
102
RTVSPropertyOp26
 70
     1
102
RTVSPropertyOp27
 70
     1
102
RTVSPropertyOp28
 70
     1
102
RTVSPropertyOp29
 70
     1
102
RTVSPropertyOp30
 70
     1
102
RTVSPropertyOp31
 70
     1
102
RTVSPropertyOp32
 70
     1
102
RTVSPropertyOp33
 70
     1
102
RTVSPropertyOp34
 70
     1
102
RTVSPropertyOp35
 70
     1
102
RTVSPropertyOp36
 70
     1
102
RTVSPropertyOp37
 70
     1
102
RTVSPropertyOp38
 70
     1
102
RTVSPropertyOp39
 70
     1
102
RTVSPropertyOp40
 70
     1
102
RTVSPropertyOp41
 70
     1
102
RTVSPropertyOp42
 70
     1
102
RTVSPropertyOp43
 70
     1
102
RTVSPropertyOp44
 70
     1
102
RTVSPropertyOp45
 70
     1
102
RTVSPropertyOp46
 70
     1
102
RTVSPropertyOp47
 70
     1
102
RTVSPropertyOp48
 70
     1
102
RTVSPropertyOp49
 70
     1
102
RTVSPropertyOp50
 70
     1
102
RTVSPropertyOp51
 70
     0
102
RTVSPropertyOp52
 70
     0
102
RTVSPropertyOp53
 70
     1
102
RTVSPropertyOp54
 70
     1
102
RTVSPropertyOp55
 70
     1
102
RTVSPropertyOp56
 70
     1
102
RTVSPropertyOp57
 70
     1
102
RTVSPropertyOp58
 70
     1
102
RTVSPropertyOp59
 70
     1
102
RTVSPropertyOp60
 70
     1
102
RTVSPropertyOp61
 70
     1
102
RTVSPropertyOp62
 70
     1
  0
XRECORD
  5
29AF3
102
{ACAD_REACTORS
330
29AF2
102
}
330
29AF2
100
AcDbXrecord
280
     1
102
RTVSPost2010Prop28
280
     0
102
RTVSPost2010PropOp28
 70
     1
102
RTVSPost2010Prop29
280
     1
102
RTVSPost2010PropOp29
 70
     1
102
RTVSPost2010Prop30
280
     1
102
RTVSPost2010PropOp30
 70
     1
102
RTVSPost2010Prop31
280
     0
102
RTVSPost2010PropOp31
 70
     1
102
RTVSPost2010Prop32
280
     0
102
RTVSPost2010PropOp32
 70
     1
102
RTVSPost2010Prop33
280
     0
102
RTVSPost2010PropOp33
 70
     1
102
RTVSPost2010Prop34
280
     0
102
RTVSPost2010PropOp34
 70
     1
102
RTVSPost2010Prop35
280
     0
102
RTVSPost2010PropOp35
 70
     1
102
RTVSPost2010Prop36
280
     0
102
RTVSPost2010PropOp36
 70
     1
102
RTVSPost2010Prop37
 90
       50
102
RTVSPost2010PropOp37
 70
     1
102
RTVSPost2010Prop38
140
0.0
102
RTVSPost2010PropOp38
 70
     1
102
RTVSPost2010Prop39
140
1.0
102
RTVSPost2010PropOp39
 70
     1
102
RTVSPost2010Prop40
 90
        0
102
RTVSPost2010PropOp40
 70
     1
102
RTVSPost2010Prop41ColorIndex
 90
       18
102
RTVSPost2010Prop41ColorRGB
 90
        0
102
RTVSPost2010PropOp41
 70
     1
102
RTVSPost2010Prop42
 90
       50
102
RTVSPost2010PropOp42
 70
     1
102
RTVSPost2010Prop43
 90
        3
102
RTVSPost2010PropOp43
 70
     1
102
RTVSPost2010Prop44ColorIndex
 90
        5
102
RTVSPost2010Prop44ColorRGB
 90
      255
102
RTVSPost2010PropOp44
 70
     1
102
RTVSPost2010Prop45
280
     0
102
RTVSPost2010PropOp45
 70
     1
102
RTVSPost2010Prop46
 90
       50
102
RTVSPost2010PropOp46
 70
     1
102
RTVSPost2010Prop47
 90
       50
102
RTVSPost2010PropOp47
 70
     1
102
RTVSPost2010Prop48
 90
       50
102
RTVSPost2010PropOp48
 70
     1
102
RTVSPost2010Prop49
280
     0
102
RTVSPost2010PropOp49
 70
     1
102
RTVSPost2010Prop50
 90
       50
102
RTVSPost2010PropOp50
 70
     1
102
RTVSPost2010Prop51ColorIndex
 90
      256
102
RTVSPost2010Prop51ColorRGB
 90
-16777216
102
RTVSPost2010PropOp51
 70
     0
102
RTVSPost2010Prop52
140
1.0
102
RTVSPost2010PropOp52
 70
     0
102
RTVSPost2010Prop53
 90
        2
102
RTVSPost2010PropOp53
 70
     1
102
RTVSPost2010Prop54
  1
strokes_ogs.tif
102
RTVSPost2010PropOp54
 70
     1
102
RTVSPost2010Prop55
280
     0
102
RTVSPost2010PropOp55
 70
     1
102
RTVSPost2010Prop56
140
1.0
102
RTVSPost2010PropOp56
 70
     1
102
RTVSPost2010Prop57
140
1.0
102
RTVSPost2010PropOp57
 70
     1
102
RTVSPropertyOp0
 70
     1
102
RTVSPropertyOp1
 70
     1
102
RTVSPropertyOp2
 70
     1
102
RTVSPropertyOp3
 70
     1
102
RTVSPropertyOp4
 70
     1
102
RTVSPropertyOp5
 70
     1
102
RTVSPropertyOp6
 70
     1
102
RTVSPropertyOp7
 70
     1
102
RTVSPropertyOp8
 70
     1
102
RTVSPropertyOp9
 70
     1
102
RTVSPropertyOp10
 70
     1
102
RTVSPropertyOp11
 70
     1
102
RTVSPropertyOp12
 70
     1
102
RTVSPropertyOp13
 70
     1
102
RTVSPropertyOp14
 70
     1
102
RTVSPropertyOp15
 70
     1
102
RTVSPropertyOp16
 70
     1
102
RTVSPropertyOp17
 70
     1
102
RTVSPropertyOp18
 70
     1
102
RTVSPropertyOp19
 70
     1
102
RTVSPropertyOp20
 70
     1
102
RTVSPropertyOp21
 70
     1
102
RTVSPropertyOp22
 70
     1
102
RTVSPropertyOp23
 70
     1
102
RTVSPropertyOp24
 70
     1
102
RTVSPropertyOp25
 70
     1
102
RTVSPropertyOp26
 70
     1
102
RTVSPropertyOp27
 70
     1
102
RTVSPropertyOp28
 70
     1
102
RTVSPropertyOp29
 70
     1
102
RTVSPropertyOp30
 70
     1
102
RTVSPropertyOp31
 70
     1
102
RTVSPropertyOp32
 70
     1
102
RTVSPropertyOp33
 70
     1
102
RTVSPropertyOp34
 70
     1
102
RTVSPropertyOp35
 70
     1
102
RTVSPropertyOp36
 70
     1
102
RTVSPropertyOp37
 70
     1
102
RTVSPropertyOp38
 70
     1
102
RTVSPropertyOp39
 70
     1
102
RTVSPropertyOp40
 70
     1
102
RTVSPropertyOp41
 70
     1
102
RTVSPropertyOp42
 70
     1
102
RTVSPropertyOp43
 70
     1
102
RTVSPropertyOp44
 70
     1
102
RTVSPropertyOp45
 70
     1
102
RTVSPropertyOp46
 70
     1
102
RTVSPropertyOp47
 70
     1
102
RTVSPropertyOp48
 70
     1
102
RTVSPropertyOp49
 70
     1
102
RTVSPropertyOp50
 70
     1
102
RTVSPropertyOp51
 70
     0
102
RTVSPropertyOp52
 70
     0
102
RTVSPropertyOp53
 70
     1
102
RTVSPropertyOp54
 70
     1
102
RTVSPropertyOp55
 70
     1
102
RTVSPropertyOp56
 70
     1
102
RTVSPropertyOp57
 70
     1
102
RTVSPropertyOp58
 70
     1
102
RTVSPropertyOp59
 70
     1
102
RTVSPropertyOp60
 70
     1
102
RTVSPropertyOp61
 70
     1
102
RTVSPropertyOp62
 70
     1
  0
XRECORD
  5
29AF5
102
{ACAD_REACTORS
330
29AF4
102
}
330
29AF4
100
AcDbXrecord
280
     1
102
RTVSPost2010Prop28
280
     0
102
RTVSPost2010PropOp28
 70
     1
102
RTVSPost2010Prop29
280
     1
102
RTVSPost2010PropOp29
 70
     1
102
RTVSPost2010Prop30
280
     1
102
RTVSPost2010PropOp30
 70
     1
102
RTVSPost2010Prop31
280
     0
102
RTVSPost2010PropOp31
 70
     1
102
RTVSPost2010Prop32
280
     0
102
RTVSPost2010PropOp32
 70
     1
102
RTVSPost2010Prop33
280
     0
102
RTVSPost2010PropOp33
 70
     1
102
RTVSPost2010Prop34
280
     0
102
RTVSPost2010PropOp34
 70
     1
102
RTVSPost2010Prop35
280
     0
102
RTVSPost2010PropOp35
 70
     1
102
RTVSPost2010Prop36
280
     0
102
RTVSPost2010PropOp36
 70
     1
102
RTVSPost2010Prop37
 90
       50
102
RTVSPost2010PropOp37
 70
     1
102
RTVSPost2010Prop38
140
0.0
102
RTVSPost2010PropOp38
 70
     1
102
RTVSPost2010Prop39
140
1.0
102
RTVSPost2010PropOp39
 70
     1
102
RTVSPost2010Prop40
 90
        0
102
RTVSPost2010PropOp40
 70
     1
102
RTVSPost2010Prop41ColorIndex
 90
       18
102
RTVSPost2010Prop41ColorRGB
 90
        0
102
RTVSPost2010PropOp41
 70
     1
102
RTVSPost2010Prop42
 90
       50
102
RTVSPost2010PropOp42
 70
     1
102
RTVSPost2010Prop43
 90
        3
102
RTVSPost2010PropOp43
 70
     1
102
RTVSPost2010Prop44ColorIndex
 90
        5
102
RTVSPost2010Prop44ColorRGB
 90
      255
102
RTVSPost2010PropOp44
 70
     1
102
RTVSPost2010Prop45
280
     0
102
RTVSPost2010PropOp45
 70
     1
102
RTVSPost2010Prop46
 90
       50
102
RTVSPost2010PropOp46
 70
     1
102
RTVSPost2010Prop47
 90
       50
102
RTVSPost2010PropOp47
 70
     1
102
RTVSPost2010Prop48
 90
       50
102
RTVSPost2010PropOp48
 70
     1
102
RTVSPost2010Prop49
280
     0
102
RTVSPost2010PropOp49
 70
     1
102
RTVSPost2010Prop50
 90
       50
102
RTVSPost2010PropOp50
 70
     1
102
RTVSPost2010Prop51ColorIndex
 90
      256
102
RTVSPost2010Prop51ColorRGB
 90
-16777216
102
RTVSPost2010PropOp51
 70
     0
102
RTVSPost2010Prop52
140
1.0
102
RTVSPost2010PropOp52
 70
     0
102
RTVSPost2010Prop53
 90
        2
102
RTVSPost2010PropOp53
 70
     1
102
RTVSPost2010Prop54
  1
strokes_ogs.tif
102
RTVSPost2010PropOp54
 70
     1
102
RTVSPost2010Prop55
280
     0
102
RTVSPost2010PropOp55
 70
     1
102
RTVSPost2010Prop56
140
1.0
102
RTVSPost2010PropOp56
 70
     1
102
RTVSPost2010Prop57
140
1.0
102
RTVSPost2010PropOp57
 70
     1
102
RTVSPropertyOp0
 70
     1
102
RTVSPropertyOp1
 70
     1
102
RTVSPropertyOp2
 70
     1
102
RTVSPropertyOp3
 70
     1
102
RTVSPropertyOp4
 70
     1
102
RTVSPropertyOp5
 70
     1
102
RTVSPropertyOp6
 70
     1
102
RTVSPropertyOp7
 70
     1
102
RTVSPropertyOp8
 70
     1
102
RTVSPropertyOp9
 70
     1
102
RTVSPropertyOp10
 70
     1
102
RTVSPropertyOp11
 70
     1
102
RTVSPropertyOp12
 70
     1
102
RTVSPropertyOp13
 70
     1
102
RTVSPropertyOp14
 70
     1
102
RTVSPropertyOp15
 70
     1
102
RTVSPropertyOp16
 70
     1
102
RTVSPropertyOp17
 70
     1
102
RTVSPropertyOp18
 70
     1
102
RTVSPropertyOp19
 70
     1
102
RTVSPropertyOp20
 70
     1
102
RTVSPropertyOp21
 70
     1
102
RTVSPropertyOp22
 70
     1
102
RTVSPropertyOp23
 70
     1
102
RTVSPropertyOp24
 70
     1
102
RTVSPropertyOp25
 70
     1
102
RTVSPropertyOp26
 70
     1
102
RTVSPropertyOp27
 70
     1
102
RTVSPropertyOp28
 70
     1
102
RTVSPropertyOp29
 70
     1
102
RTVSPropertyOp30
 70
     1
102
RTVSPropertyOp31
 70
     1
102
RTVSPropertyOp32
 70
     1
102
RTVSPropertyOp33
 70
     1
102
RTVSPropertyOp34
 70
     1
102
RTVSPropertyOp35
 70
     1
102
RTVSPropertyOp36
 70
     1
102
RTVSPropertyOp37
 70
     1
102
RTVSPropertyOp38
 70
     1
102
RTVSPropertyOp39
 70
     1
102
RTVSPropertyOp40
 70
     1
102
RTVSPropertyOp41
 70
     1
102
RTVSPropertyOp42
 70
     1
102
RTVSPropertyOp43
 70
     1
102
RTVSPropertyOp44
 70
     1
102
RTVSPropertyOp45
 70
     1
102
RTVSPropertyOp46
 70
     1
102
RTVSPropertyOp47
 70
     1
102
RTVSPropertyOp48
 70
     1
102
RTVSPropertyOp49
 70
     1
102
RTVSPropertyOp50
 70
     1
102
RTVSPropertyOp51
 70
     0
102
RTVSPropertyOp52
 70
     0
102
RTVSPropertyOp53
 70
     1
102
RTVSPropertyOp54
 70
     1
102
RTVSPropertyOp55
 70
     1
102
RTVSPropertyOp56
 70
     1
102
RTVSPropertyOp57
 70
     1
102
RTVSPropertyOp58
 70
     1
102
RTVSPropertyOp59
 70
     1
102
RTVSPropertyOp60
 70
     1
102
RTVSPropertyOp61
 70
     1
102
RTVSPropertyOp62
 70
     1
  0
XRECORD
  5
29AF7
102
{ACAD_REACTORS
330
29AF6
102
}
330
29AF6
100
AcDbXrecord
280
     1
102
RTVSPost2010Prop28
280
     0
102
RTVSPost2010PropOp28
 70
     1
102
RTVSPost2010Prop29
280
     1
102
RTVSPost2010PropOp29
 70
     1
102
RTVSPost2010Prop30
280
     1
102
RTVSPost2010PropOp30
 70
     1
102
RTVSPost2010Prop31
280
     0
102
RTVSPost2010PropOp31
 70
     1
102
RTVSPost2010Prop32
280
     0
102
RTVSPost2010PropOp32
 70
     1
102
RTVSPost2010Prop33
280
     0
102
RTVSPost2010PropOp33
 70
     1
102
RTVSPost2010Prop34
280
     0
102
RTVSPost2010PropOp34
 70
     1
102
RTVSPost2010Prop35
280
     0
102
RTVSPost2010PropOp35
 70
     1
102
RTVSPost2010Prop36
280
     0
102
RTVSPost2010PropOp36
 70
     1
102
RTVSPost2010Prop37
 90
       50
102
RTVSPost2010PropOp37
 70
     1
102
RTVSPost2010Prop38
140
0.0
102
RTVSPost2010PropOp38
 70
     1
102
RTVSPost2010Prop39
140
1.0
102
RTVSPost2010PropOp39
 70
     1
102
RTVSPost2010Prop40
 90
        0
102
RTVSPost2010PropOp40
 70
     1
102
RTVSPost2010Prop41ColorIndex
 90
       18
102
RTVSPost2010Prop41ColorRGB
 90
        0
102
RTVSPost2010PropOp41
 70
     1
102
RTVSPost2010Prop42
 90
       50
102
RTVSPost2010PropOp42
 70
     1
102
RTVSPost2010Prop43
 90
        3
102
RTVSPost2010PropOp43
 70
     1
102
RTVSPost2010Prop44ColorIndex
 90
        5
102
RTVSPost2010Prop44ColorRGB
 90
      255
102
RTVSPost2010PropOp44
 70
     1
102
RTVSPost2010Prop45
280
     0
102
RTVSPost2010PropOp45
 70
     1
102
RTVSPost2010Prop46
 90
       50
102
RTVSPost2010PropOp46
 70
     1
102
RTVSPost2010Prop47
 90
       50
102
RTVSPost2010PropOp47
 70
     1
102
RTVSPost2010Prop48
 90
       50
102
RTVSPost2010PropOp48
 70
     1
102
RTVSPost2010Prop49
280
     0
102
RTVSPost2010PropOp49
 70
     1
102
RTVSPost2010Prop50
 90
       50
102
RTVSPost2010PropOp50
 70
     1
102
RTVSPost2010Prop51ColorIndex
 90
      256
102
RTVSPost2010Prop51ColorRGB
 90
-16777216
102
RTVSPost2010PropOp51
 70
     0
102
RTVSPost2010Prop52
140
1.0
102
RTVSPost2010PropOp52
 70
     0
102
RTVSPost2010Prop53
 90
        2
102
RTVSPost2010PropOp53
 70
     1
102
RTVSPost2010Prop54
  1
strokes_ogs.tif
102
RTVSPost2010PropOp54
 70
     1
102
RTVSPost2010Prop55
280
     0
102
RTVSPost2010PropOp55
 70
     1
102
RTVSPost2010Prop56
140
1.0
102
RTVSPost2010PropOp56
 70
     1
102
RTVSPost2010Prop57
140
1.0
102
RTVSPost2010PropOp57
 70
     1
102
RTVSPropertyOp0
 70
     1
102
RTVSPropertyOp1
 70
     1
102
RTVSPropertyOp2
 70
     1
102
RTVSPropertyOp3
 70
     1
102
RTVSPropertyOp4
 70
     1
102
RTVSPropertyOp5
 70
     1
102
RTVSPropertyOp6
 70
     1
102
RTVSPropertyOp7
 70
     1
102
RTVSPropertyOp8
 70
     1
102
RTVSPropertyOp9
 70
     1
102
RTVSPropertyOp10
 70
     1
102
RTVSPropertyOp11
 70
     1
102
RTVSPropertyOp12
 70
     1
102
RTVSPropertyOp13
 70
     1
102
RTVSPropertyOp14
 70
     1
102
RTVSPropertyOp15
 70
     1
102
RTVSPropertyOp16
 70
     1
102
RTVSPropertyOp17
 70
     1
102
RTVSPropertyOp18
 70
     1
102
RTVSPropertyOp19
 70
     1
102
RTVSPropertyOp20
 70
     1
102
RTVSPropertyOp21
 70
     1
102
RTVSPropertyOp22
 70
     1
102
RTVSPropertyOp23
 70
     1
102
RTVSPropertyOp24
 70
     1
102
RTVSPropertyOp25
 70
     1
102
RTVSPropertyOp26
 70
     1
102
RTVSPropertyOp27
 70
     1
102
RTVSPropertyOp28
 70
     1
102
RTVSPropertyOp29
 70
     1
102
RTVSPropertyOp30
 70
     1
102
RTVSPropertyOp31
 70
     1
102
RTVSPropertyOp32
 70
     1
102
RTVSPropertyOp33
 70
     1
102
RTVSPropertyOp34
 70
     1
102
RTVSPropertyOp35
 70
     1
102
RTVSPropertyOp36
 70
     1
102
RTVSPropertyOp37
 70
     1
102
RTVSPropertyOp38
 70
     1
102
RTVSPropertyOp39
 70
     1
102
RTVSPropertyOp40
 70
     1
102
RTVSPropertyOp41
 70
     1
102
RTVSPropertyOp42
 70
     1
102
RTVSPropertyOp43
 70
     1
102
RTVSPropertyOp44
 70
     1
102
RTVSPropertyOp45
 70
     1
102
RTVSPropertyOp46
 70
     1
102
RTVSPropertyOp47
 70
     1
102
RTVSPropertyOp48
 70
     1
102
RTVSPropertyOp49
 70
     1
102
RTVSPropertyOp50
 70
     1
102
RTVSPropertyOp51
 70
     0
102
RTVSPropertyOp52
 70
     0
102
RTVSPropertyOp53
 70
     1
102
RTVSPropertyOp54
 70
     1
102
RTVSPropertyOp55
 70
     1
102
RTVSPropertyOp56
 70
     1
102
RTVSPropertyOp57
 70
     1
102
RTVSPropertyOp58
 70
     1
102
RTVSPropertyOp59
 70
     1
102
RTVSPropertyOp60
 70
     1
102
RTVSPropertyOp61
 70
     1
102
RTVSPropertyOp62
 70
     1
  0
XRECORD
  5
29AFF
102
{ACAD_REACTORS
330
29AFE
102
}
330
29AFE
100
AcDbXrecord
280
     1
102
RTVSPost2010Prop28
280
     0
102
RTVSPost2010PropOp28
 70
     1
102
RTVSPost2010Prop29
280
     1
102
RTVSPost2010PropOp29
 70
     1
102
RTVSPost2010Prop30
280
     1
102
RTVSPost2010PropOp30
 70
     1
102
RTVSPost2010Prop31
280
     0
102
RTVSPost2010PropOp31
 70
     1
102
RTVSPost2010Prop32
280
     0
102
RTVSPost2010PropOp32
 70
     1
102
RTVSPost2010Prop33
280
     0
102
RTVSPost2010PropOp33
 70
     1
102
RTVSPost2010Prop34
280
     0
102
RTVSPost2010PropOp34
 70
     1
102
RTVSPost2010Prop35
280
     0
102
RTVSPost2010PropOp35
 70
     1
102
RTVSPost2010Prop36
280
     0
102
RTVSPost2010PropOp36
 70
     1
102
RTVSPost2010Prop37
 90
       50
102
RTVSPost2010PropOp37
 70
     1
102
RTVSPost2010Prop38
140
0.0
102
RTVSPost2010PropOp38
 70
     1
102
RTVSPost2010Prop39
140
1.0
102
RTVSPost2010PropOp39
 70
     1
102
RTVSPost2010Prop40
 90
        0
102
RTVSPost2010PropOp40
 70
     1
102
RTVSPost2010Prop41ColorIndex
 90
       18
102
RTVSPost2010Prop41ColorRGB
 90
        0
102
RTVSPost2010PropOp41
 70
     1
102
RTVSPost2010Prop42
 90
       50
102
RTVSPost2010PropOp42
 70
     1
102
RTVSPost2010Prop43
 90
        3
102
RTVSPost2010PropOp43
 70
     1
102
RTVSPost2010Prop44ColorIndex
 90
        5
102
RTVSPost2010Prop44ColorRGB
 90
      255
102
RTVSPost2010PropOp44
 70
     1
102
RTVSPost2010Prop45
280
     0
102
RTVSPost2010PropOp45
 70
     1
102
RTVSPost2010Prop46
 90
       50
102
RTVSPost2010PropOp46
 70
     1
102
RTVSPost2010Prop47
 90
       50
102
RTVSPost2010PropOp47
 70
     1
102
RTVSPost2010Prop48
 90
       50
102
RTVSPost2010PropOp48
 70
     1
102
RTVSPost2010Prop49
280
     0
102
RTVSPost2010PropOp49
 70
     1
102
RTVSPost2010Prop50
 90
       50
102
RTVSPost2010PropOp50
 70
     1
102
RTVSPost2010Prop51ColorIndex
 90
      256
102
RTVSPost2010Prop51ColorRGB
 90
-16777216
102
RTVSPost2010PropOp51
 70
     0
102
RTVSPost2010Prop52
140
1.0
102
RTVSPost2010PropOp52
 70
     0
102
RTVSPost2010Prop53
 90
        2
102
RTVSPost2010PropOp53
 70
     1
102
RTVSPost2010Prop54
  1
strokes_ogs.tif
102
RTVSPost2010PropOp54
 70
     1
102
RTVSPost2010Prop55
280
     0
102
RTVSPost2010PropOp55
 70
     1
102
RTVSPost2010Prop56
140
1.0
102
RTVSPost2010PropOp56
 70
     1
102
RTVSPost2010Prop57
140
1.0
102
RTVSPost2010PropOp57
 70
     1
102
RTVSPropertyOp0
 70
     1
102
RTVSPropertyOp1
 70
     1
102
RTVSPropertyOp2
 70
     1
102
RTVSPropertyOp3
 70
     1
102
RTVSPropertyOp4
 70
     1
102
RTVSPropertyOp5
 70
     1
102
RTVSPropertyOp6
 70
     1
102
RTVSPropertyOp7
 70
     1
102
RTVSPropertyOp8
 70
     1
102
RTVSPropertyOp9
 70
     1
102
RTVSPropertyOp10
 70
     1
102
RTVSPropertyOp11
 70
     1
102
RTVSPropertyOp12
 70
     1
102
RTVSPropertyOp13
 70
     1
102
RTVSPropertyOp14
 70
     1
102
RTVSPropertyOp15
 70
     1
102
RTVSPropertyOp16
 70
     1
102
RTVSPropertyOp17
 70
     1
102
RTVSPropertyOp18
 70
     1
102
RTVSPropertyOp19
 70
     1
102
RTVSPropertyOp20
 70
     1
102
RTVSPropertyOp21
 70
     1
102
RTVSPropertyOp22
 70
     1
102
RTVSPropertyOp23
 70
     1
102
RTVSPropertyOp24
 70
     1
102
RTVSPropertyOp25
 70
     1
102
RTVSPropertyOp26
 70
     1
102
RTVSPropertyOp27
 70
     1
102
RTVSPropertyOp28
 70
     1
102
RTVSPropertyOp29
 70
     1
102
RTVSPropertyOp30
 70
     1
102
RTVSPropertyOp31
 70
     1
102
RTVSPropertyOp32
 70
     1
102
RTVSPropertyOp33
 70
     1
102
RTVSPropertyOp34
 70
     1
102
RTVSPropertyOp35
 70
     1
102
RTVSPropertyOp36
 70
     1
102
RTVSPropertyOp37
 70
     1
102
RTVSPropertyOp38
 70
     1
102
RTVSPropertyOp39
 70
     1
102
RTVSPropertyOp40
 70
     1
102
RTVSPropertyOp41
 70
     1
102
RTVSPropertyOp42
 70
     1
102
RTVSPropertyOp43
 70
     1
102
RTVSPropertyOp44
 70
     1
102
RTVSPropertyOp45
 70
     1
102
RTVSPropertyOp46
 70
     1
102
RTVSPropertyOp47
 70
     1
102
RTVSPropertyOp48
 70
     1
102
RTVSPropertyOp49
 70
     1
102
RTVSPropertyOp50
 70
     1
102
RTVSPropertyOp51
 70
     0
102
RTVSPropertyOp52
 70
     0
102
RTVSPropertyOp53
 70
     1
102
RTVSPropertyOp54
 70
     1
102
RTVSPropertyOp55
 70
     1
102
RTVSPropertyOp56
 70
     1
102
RTVSPropertyOp57
 70
     1
102
RTVSPropertyOp58
 70
     1
102
RTVSPropertyOp59
 70
     1
102
RTVSPropertyOp60
 70
     1
102
RTVSPropertyOp61
 70
     1
102
RTVSPropertyOp62
 70
     1
  0
XRECORD
  5
29B13
102
{ACAD_REACTORS
330
29B12
102
}
330
29B12
100
AcDbXrecord
280
     1
102
RTVSPost2010Prop28
280
     0
102
RTVSPost2010PropOp28
 70
     1
102
RTVSPost2010Prop29
280
     1
102
RTVSPost2010PropOp29
 70
     1
102
RTVSPost2010Prop30
280
     1
102
RTVSPost2010PropOp30
 70
     1
102
RTVSPost2010Prop31
280
     0
102
RTVSPost2010PropOp31
 70
     1
102
RTVSPost2010Prop32
280
     0
102
RTVSPost2010PropOp32
 70
     1
102
RTVSPost2010Prop33
280
     0
102
RTVSPost2010PropOp33
 70
     1
102
RTVSPost2010Prop34
280
     0
102
RTVSPost2010PropOp34
 70
     1
102
RTVSPost2010Prop35
280
     0
102
RTVSPost2010PropOp35
 70
     1
102
RTVSPost2010Prop36
280
     0
102
RTVSPost2010PropOp36
 70
     1
102
RTVSPost2010Prop37
 90
       50
102
RTVSPost2010PropOp37
 70
     1
102
RTVSPost2010Prop38
140
0.0
102
RTVSPost2010PropOp38
 70
     1
102
RTVSPost2010Prop39
140
1.0
102
RTVSPost2010PropOp39
 70
     1
102
RTVSPost2010Prop40
 90
        0
102
RTVSPost2010PropOp40
 70
     1
102
RTVSPost2010Prop41ColorIndex
 90
       18
102
RTVSPost2010Prop41ColorRGB
 90
        0
102
RTVSPost2010PropOp41
 70
     1
102
RTVSPost2010Prop42
 90
       50
102
RTVSPost2010PropOp42
 70
     1
102
RTVSPost2010Prop43
 90
        3
102
RTVSPost2010PropOp43
 70
     1
102
RTVSPost2010Prop44ColorIndex
 90
        5
102
RTVSPost2010Prop44ColorRGB
 90
      255
102
RTVSPost2010PropOp44
 70
     1
102
RTVSPost2010Prop45
280
     0
102
RTVSPost2010PropOp45
 70
     1
102
RTVSPost2010Prop46
 90
       50
102
RTVSPost2010PropOp46
 70
     1
102
RTVSPost2010Prop47
 90
       50
102
RTVSPost2010PropOp47
 70
     1
102
RTVSPost2010Prop48
 90
       50
102
RTVSPost2010PropOp48
 70
     1
102
RTVSPost2010Prop49
280
     0
102
RTVSPost2010PropOp49
 70
     1
102
RTVSPost2010Prop50
 90
       50
102
RTVSPost2010PropOp50
 70
     1
102
RTVSPost2010Prop51ColorIndex
 90
      256
102
RTVSPost2010Prop51ColorRGB
 90
-16777216
102
RTVSPost2010PropOp51
 70
     0
102
RTVSPost2010Prop52
140
1.0
102
RTVSPost2010PropOp52
 70
     0
102
RTVSPost2010Prop53
 90
        2
102
RTVSPost2010PropOp53
 70
     1
102
RTVSPost2010Prop54
  1
strokes_ogs.tif
102
RTVSPost2010PropOp54
 70
     1
102
RTVSPost2010Prop55
280
     0
102
RTVSPost2010PropOp55
 70
     1
102
RTVSPost2010Prop56
140
1.0
102
RTVSPost2010PropOp56
 70
     1
102
RTVSPost2010Prop57
140
1.0
102
RTVSPost2010PropOp57
 70
     1
102
RTVSPropertyOp0
 70
     0
102
RTVSPropertyOp1
 70
     0
102
RTVSPropertyOp2
 70
     0
102
RTVSPropertyOp3
 70
     0
102
RTVSPropertyOp4
 70
     0
102
RTVSPropertyOp5
 70
     0
102
RTVSPropertyOp6
 70
     0
102
RTVSPropertyOp7
 70
     0
102
RTVSPropertyOp8
 70
     0
102
RTVSPropertyOp9
 70
     0
102
RTVSPropertyOp10
 70
     0
102
RTVSPropertyOp11
 70
     0
102
RTVSPropertyOp12
 70
     0
102
RTVSPropertyOp13
 70
     0
102
RTVSPropertyOp14
 70
     2
102
RTVSPropertyOp15
 70
     0
102
RTVSPropertyOp16
 70
     0
102
RTVSPropertyOp17
 70
     0
102
RTVSPropertyOp18
 70
     0
102
RTVSPropertyOp19
 70
     0
102
RTVSPropertyOp20
 70
     0
102
RTVSPropertyOp21
 70
     0
102
RTVSPropertyOp22
 70
     0
102
RTVSPropertyOp23
 70
     0
102
RTVSPropertyOp24
 70
     0
102
RTVSPropertyOp25
 70
     0
102
RTVSPropertyOp26
 70
     0
102
RTVSPropertyOp27
 70
     0
102
RTVSPropertyOp28
 70
     1
102
RTVSPropertyOp29
 70
     1
102
RTVSPropertyOp30
 70
     1
102
RTVSPropertyOp31
 70
     1
102
RTVSPropertyOp32
 70
     1
102
RTVSPropertyOp33
 70
     1
102
RTVSPropertyOp34
 70
     1
102
RTVSPropertyOp35
 70
     1
102
RTVSPropertyOp36
 70
     1
102
RTVSPropertyOp37
 70
     1
102
RTVSPropertyOp38
 70
     1
102
RTVSPropertyOp39
 70
     1
102
RTVSPropertyOp40
 70
     1
102
RTVSPropertyOp41
 70
     1
102
RTVSPropertyOp42
 70
     1
102
RTVSPropertyOp43
 70
     1
102
RTVSPropertyOp44
 70
     1
102
RTVSPropertyOp45
 70
     1
102
RTVSPropertyOp46
 70
     1
102
RTVSPropertyOp47
 70
     1
102
RTVSPropertyOp48
 70
     1
102
RTVSPropertyOp49
 70
     1
102
RTVSPropertyOp50
 70
     1
102
RTVSPropertyOp51
 70
     0
102
RTVSPropertyOp52
 70
     0
102
RTVSPropertyOp53
 70
     1
102
RTVSPropertyOp54
 70
     1
102
RTVSPropertyOp55
 70
     1
102
RTVSPropertyOp56
 70
     1
102
RTVSPropertyOp57
 70
     1
102
RTVSPropertyOp58
 70
     1
102
RTVSPropertyOp59
 70
     1
102
RTVSPropertyOp60
 70
     1
102
RTVSPropertyOp61
 70
     1
102
RTVSPropertyOp62
 70
     1
  0
XRECORD
  5
29B0B
102
{ACAD_REACTORS
330
29B0A
102
}
330
29B0A
100
AcDbXrecord
280
     1
102
RTVSPost2010Prop28
280
     0
102
RTVSPost2010PropOp28
 70
     1
102
RTVSPost2010Prop29
280
     1
102
RTVSPost2010PropOp29
 70
     1
102
RTVSPost2010Prop30
280
     1
102
RTVSPost2010PropOp30
 70
     1
102
RTVSPost2010Prop31
280
     0
102
RTVSPost2010PropOp31
 70
     1
102
RTVSPost2010Prop32
280
     0
102
RTVSPost2010PropOp32
 70
     1
102
RTVSPost2010Prop33
280
     0
102
RTVSPost2010PropOp33
 70
     1
102
RTVSPost2010Prop34
280
     0
102
RTVSPost2010PropOp34
 70
     1
102
RTVSPost2010Prop35
280
     0
102
RTVSPost2010PropOp35
 70
     1
102
RTVSPost2010Prop36
280
     0
102
RTVSPost2010PropOp36
 70
     1
102
RTVSPost2010Prop37
 90
       50
102
RTVSPost2010PropOp37
 70
     1
102
RTVSPost2010Prop38
140
0.0
102
RTVSPost2010PropOp38
 70
     1
102
RTVSPost2010Prop39
140
1.0
102
RTVSPost2010PropOp39
 70
     1
102
RTVSPost2010Prop40
 90
        0
102
RTVSPost2010PropOp40
 70
     1
102
RTVSPost2010Prop41ColorIndex
 90
       18
102
RTVSPost2010Prop41ColorRGB
 90
        0
102
RTVSPost2010PropOp41
 70
     1
102
RTVSPost2010Prop42
 90
       50
102
RTVSPost2010PropOp42
 70
     1
102
RTVSPost2010Prop43
 90
        3
102
RTVSPost2010PropOp43
 70
     1
102
RTVSPost2010Prop44ColorIndex
 90
        5
102
RTVSPost2010Prop44ColorRGB
 90
      255
102
RTVSPost2010PropOp44
 70
     1
102
RTVSPost2010Prop45
280
     0
102
RTVSPost2010PropOp45
 70
     1
102
RTVSPost2010Prop46
 90
       50
102
RTVSPost2010PropOp46
 70
     1
102
RTVSPost2010Prop47
 90
       50
102
RTVSPost2010PropOp47
 70
     1
102
RTVSPost2010Prop48
 90
       50
102
RTVSPost2010PropOp48
 70
     1
102
RTVSPost2010Prop49
280
     0
102
RTVSPost2010PropOp49
 70
     1
102
RTVSPost2010Prop50
 90
       50
102
RTVSPost2010PropOp50
 70
     1
102
RTVSPost2010Prop51ColorIndex
 90
      256
102
RTVSPost2010Prop51ColorRGB
 90
-16777216
102
RTVSPost2010PropOp51
 70
     0
102
RTVSPost2010Prop52
140
1.0
102
RTVSPost2010PropOp52
 70
     0
102
RTVSPost2010Prop53
 90
        2
102
RTVSPost2010PropOp53
 70
     1
102
RTVSPost2010Prop54
  1
strokes_ogs.tif
102
RTVSPost2010PropOp54
 70
     1
102
RTVSPost2010Prop55
280
     0
102
RTVSPost2010PropOp55
 70
     1
102
RTVSPost2010Prop56
140
1.0
102
RTVSPost2010PropOp56
 70
     1
102
RTVSPost2010Prop57
140
1.0
102
RTVSPost2010PropOp57
 70
     1
102
RTVSPropertyOp0
 70
     1
102
RTVSPropertyOp1
 70
     1
102
RTVSPropertyOp2
 70
     1
102
RTVSPropertyOp3
 70
     1
102
RTVSPropertyOp4
 70
     1
102
RTVSPropertyOp5
 70
     1
102
RTVSPropertyOp6
 70
     1
102
RTVSPropertyOp7
 70
     1
102
RTVSPropertyOp8
 70
     1
102
RTVSPropertyOp9
 70
     1
102
RTVSPropertyOp10
 70
     1
102
RTVSPropertyOp11
 70
     1
102
RTVSPropertyOp12
 70
     1
102
RTVSPropertyOp13
 70
     1
102
RTVSPropertyOp14
 70
     1
102
RTVSPropertyOp15
 70
     1
102
RTVSPropertyOp16
 70
     1
102
RTVSPropertyOp17
 70
     1
102
RTVSPropertyOp18
 70
     1
102
RTVSPropertyOp19
 70
     1
102
RTVSPropertyOp20
 70
     1
102
RTVSPropertyOp21
 70
     1
102
RTVSPropertyOp22
 70
     1
102
RTVSPropertyOp23
 70
     1
102
RTVSPropertyOp24
 70
     1
102
RTVSPropertyOp25
 70
     1
102
RTVSPropertyOp26
 70
     1
102
RTVSPropertyOp27
 70
     1
102
RTVSPropertyOp28
 70
     1
102
RTVSPropertyOp29
 70
     1
102
RTVSPropertyOp30
 70
     1
102
RTVSPropertyOp31
 70
     1
102
RTVSPropertyOp32
 70
     1
102
RTVSPropertyOp33
 70
     1
102
RTVSPropertyOp34
 70
     1
102
RTVSPropertyOp35
 70
     1
102
RTVSPropertyOp36
 70
     1
102
RTVSPropertyOp37
 70
     1
102
RTVSPropertyOp38
 70
     1
102
RTVSPropertyOp39
 70
     1
102
RTVSPropertyOp40
 70
     1
102
RTVSPropertyOp41
 70
     1
102
RTVSPropertyOp42
 70
     1
102
RTVSPropertyOp43
 70
     1
102
RTVSPropertyOp44
 70
     1
102
RTVSPropertyOp45
 70
     1
102
RTVSPropertyOp46
 70
     1
102
RTVSPropertyOp47
 70
     1
102
RTVSPropertyOp48
 70
     1
102
RTVSPropertyOp49
 70
     1
102
RTVSPropertyOp50
 70
     1
102
RTVSPropertyOp51
 70
     0
102
RTVSPropertyOp52
 70
     0
102
RTVSPropertyOp53
 70
     1
102
RTVSPropertyOp54
 70
     1
102
RTVSPropertyOp55
 70
     1
102
RTVSPropertyOp56
 70
     1
102
RTVSPropertyOp57
 70
     1
102
RTVSPropertyOp58
 70
     1
102
RTVSPropertyOp59
 70
     1
102
RTVSPropertyOp60
 70
     1
102
RTVSPropertyOp61
 70
     1
102
RTVSPropertyOp62
 70
     1
  0
XRECORD
  5
29B15
102
{ACAD_REACTORS
330
29B14
102
}
330
29B14
100
AcDbXrecord
280
     1
102
RTVSPost2010Prop28
280
     0
102
RTVSPost2010PropOp28
 70
     1
102
RTVSPost2010Prop29
280
     1
102
RTVSPost2010PropOp29
 70
     1
102
RTVSPost2010Prop30
280
     1
102
RTVSPost2010PropOp30
 70
     1
102
RTVSPost2010Prop31
280
     0
102
RTVSPost2010PropOp31
 70
     1
102
RTVSPost2010Prop32
280
     0
102
RTVSPost2010PropOp32
 70
     1
102
RTVSPost2010Prop33
280
     0
102
RTVSPost2010PropOp33
 70
     1
102
RTVSPost2010Prop34
280
     0
102
RTVSPost2010PropOp34
 70
     1
102
RTVSPost2010Prop35
280
     0
102
RTVSPost2010PropOp35
 70
     1
102
RTVSPost2010Prop36
280
     0
102
RTVSPost2010PropOp36
 70
     1
102
RTVSPost2010Prop37
 90
       50
102
RTVSPost2010PropOp37
 70
     1
102
RTVSPost2010Prop38
140
0.0
102
RTVSPost2010PropOp38
 70
     1
102
RTVSPost2010Prop39
140
1.0
102
RTVSPost2010PropOp39
 70
     1
102
RTVSPost2010Prop40
 90
        0
102
RTVSPost2010PropOp40
 70
     1
102
RTVSPost2010Prop41ColorIndex
 90
       18
102
RTVSPost2010Prop41ColorRGB
 90
        0
102
RTVSPost2010PropOp41
 70
     1
102
RTVSPost2010Prop42
 90
       50
102
RTVSPost2010PropOp42
 70
     1
102
RTVSPost2010Prop43
 90
        3
102
RTVSPost2010PropOp43
 70
     1
102
RTVSPost2010Prop44ColorIndex
 90
        5
102
RTVSPost2010Prop44ColorRGB
 90
      255
102
RTVSPost2010PropOp44
 70
     1
102
RTVSPost2010Prop45
280
     0
102
RTVSPost2010PropOp45
 70
     1
102
RTVSPost2010Prop46
 90
       50
102
RTVSPost2010PropOp46
 70
     1
102
RTVSPost2010Prop47
 90
       50
102
RTVSPost2010PropOp47
 70
     1
102
RTVSPost2010Prop48
 90
       50
102
RTVSPost2010PropOp48
 70
     1
102
RTVSPost2010Prop49
280
     0
102
RTVSPost2010PropOp49
 70
     1
102
RTVSPost2010Prop50
 90
       50
102
RTVSPost2010PropOp50
 70
     1
102
RTVSPost2010Prop51ColorIndex
 90
      256
102
RTVSPost2010Prop51ColorRGB
 90
-16777216
102
RTVSPost2010PropOp51
 70
     0
102
RTVSPost2010Prop52
140
1.0
102
RTVSPost2010PropOp52
 70
     0
102
RTVSPost2010Prop53
 90
        2
102
RTVSPost2010PropOp53
 70
     1
102
RTVSPost2010Prop54
  1
strokes_ogs.tif
102
RTVSPost2010PropOp54
 70
     1
102
RTVSPost2010Prop55
280
     0
102
RTVSPost2010PropOp55
 70
     1
102
RTVSPost2010Prop56
140
1.0
102
RTVSPost2010PropOp56
 70
     1
102
RTVSPost2010Prop57
140
1.0
102
RTVSPost2010PropOp57
 70
     1
102
RTVSPropertyOp0
 70
     0
102
RTVSPropertyOp1
 70
     0
102
RTVSPropertyOp2
 70
     0
102
RTVSPropertyOp3
 70
     0
102
RTVSPropertyOp4
 70
     0
102
RTVSPropertyOp5
 70
     0
102
RTVSPropertyOp6
 70
     0
102
RTVSPropertyOp7
 70
     0
102
RTVSPropertyOp8
 70
     0
102
RTVSPropertyOp9
 70
     0
102
RTVSPropertyOp10
 70
     0
102
RTVSPropertyOp11
 70
     0
102
RTVSPropertyOp12
 70
     0
102
RTVSPropertyOp13
 70
     0
102
RTVSPropertyOp14
 70
     2
102
RTVSPropertyOp15
 70
     0
102
RTVSPropertyOp16
 70
     0
102
RTVSPropertyOp17
 70
     0
102
RTVSPropertyOp18
 70
     0
102
RTVSPropertyOp19
 70
     0
102
RTVSPropertyOp20
 70
     0
102
RTVSPropertyOp21
 70
     0
102
RTVSPropertyOp22
 70
     0
102
RTVSPropertyOp23
 70
     0
102
RTVSPropertyOp24
 70
     0
102
RTVSPropertyOp25
 70
     0
102
RTVSPropertyOp26
 70
     0
102
RTVSPropertyOp27
 70
     0
102
RTVSPropertyOp28
 70
     1
102
RTVSPropertyOp29
 70
     1
102
RTVSPropertyOp30
 70
     1
102
RTVSPropertyOp31
 70
     1
102
RTVSPropertyOp32
 70
     1
102
RTVSPropertyOp33
 70
     1
102
RTVSPropertyOp34
 70
     1
102
RTVSPropertyOp35
 70
     1
102
RTVSPropertyOp36
 70
     1
102
RTVSPropertyOp37
 70
     1
102
RTVSPropertyOp38
 70
     1
102
RTVSPropertyOp39
 70
     1
102
RTVSPropertyOp40
 70
     1
102
RTVSPropertyOp41
 70
     1
102
RTVSPropertyOp42
 70
     1
102
RTVSPropertyOp43
 70
     1
102
RTVSPropertyOp44
 70
     1
102
RTVSPropertyOp45
 70
     1
102
RTVSPropertyOp46
 70
     1
102
RTVSPropertyOp47
 70
     1
102
RTVSPropertyOp48
 70
     1
102
RTVSPropertyOp49
 70
     1
102
RTVSPropertyOp50
 70
     1
102
RTVSPropertyOp51
 70
     0
102
RTVSPropertyOp52
 70
     0
102
RTVSPropertyOp53
 70
     1
102
RTVSPropertyOp54
 70
     1
102
RTVSPropertyOp55
 70
     1
102
RTVSPropertyOp56
 70
     1
102
RTVSPropertyOp57
 70
     1
102
RTVSPropertyOp58
 70
     1
102
RTVSPropertyOp59
 70
     1
102
RTVSPropertyOp60
 70
     1
102
RTVSPropertyOp61
 70
     1
102
RTVSPropertyOp62
 70
     1
  0
XRECORD
  5
29B03
102
{ACAD_REACTORS
330
29B02
102
}
330
29B02
100
AcDbXrecord
280
     1
102
RTVSPost2010Prop28
280
     0
102
RTVSPost2010PropOp28
 70
     1
102
RTVSPost2010Prop29
280
     1
102
RTVSPost2010PropOp29
 70
     1
102
RTVSPost2010Prop30
280
     1
102
RTVSPost2010PropOp30
 70
     1
102
RTVSPost2010Prop31
280
     0
102
RTVSPost2010PropOp31
 70
     1
102
RTVSPost2010Prop32
280
     0
102
RTVSPost2010PropOp32
 70
     1
102
RTVSPost2010Prop33
280
     0
102
RTVSPost2010PropOp33
 70
     1
102
RTVSPost2010Prop34
280
     0
102
RTVSPost2010PropOp34
 70
     1
102
RTVSPost2010Prop35
280
     0
102
RTVSPost2010PropOp35
 70
     1
102
RTVSPost2010Prop36
280
     0
102
RTVSPost2010PropOp36
 70
     1
102
RTVSPost2010Prop37
 90
       50
102
RTVSPost2010PropOp37
 70
     1
102
RTVSPost2010Prop38
140
0.0
102
RTVSPost2010PropOp38
 70
     1
102
RTVSPost2010Prop39
140
1.0
102
RTVSPost2010PropOp39
 70
     1
102
RTVSPost2010Prop40
 90
        0
102
RTVSPost2010PropOp40
 70
     1
102
RTVSPost2010Prop41ColorIndex
 90
       18
102
RTVSPost2010Prop41ColorRGB
 90
        0
102
RTVSPost2010PropOp41
 70
     1
102
RTVSPost2010Prop42
 90
       50
102
RTVSPost2010PropOp42
 70
     1
102
RTVSPost2010Prop43
 90
        3
102
RTVSPost2010PropOp43
 70
     1
102
RTVSPost2010Prop44ColorIndex
 90
        5
102
RTVSPost2010Prop44ColorRGB
 90
      255
102
RTVSPost2010PropOp44
 70
     1
102
RTVSPost2010Prop45
280
     0
102
RTVSPost2010PropOp45
 70
     1
102
RTVSPost2010Prop46
 90
       50
102
RTVSPost2010PropOp46
 70
     1
102
RTVSPost2010Prop47
 90
       50
102
RTVSPost2010PropOp47
 70
     1
102
RTVSPost2010Prop48
 90
       50
102
RTVSPost2010PropOp48
 70
     1
102
RTVSPost2010Prop49
280
     0
102
RTVSPost2010PropOp49
 70
     1
102
RTVSPost2010Prop50
 90
       50
102
RTVSPost2010PropOp50
 70
     1
102
RTVSPost2010Prop51ColorIndex
 90
      256
102
RTVSPost2010Prop51ColorRGB
 90
-16777216
102
RTVSPost2010PropOp51
 70
     0
102
RTVSPost2010Prop52
140
1.0
102
RTVSPost2010PropOp52
 70
     0
102
RTVSPost2010Prop53
 90
        2
102
RTVSPost2010PropOp53
 70
     1
102
RTVSPost2010Prop54
  1
strokes_ogs.tif
102
RTVSPost2010PropOp54
 70
     1
102
RTVSPost2010Prop55
280
     0
102
RTVSPost2010PropOp55
 70
     1
102
RTVSPost2010Prop56
140
1.0
102
RTVSPost2010PropOp56
 70
     1
102
RTVSPost2010Prop57
140
1.0
102
RTVSPost2010PropOp57
 70
     1
102
RTVSPropertyOp0
 70
     1
102
RTVSPropertyOp1
 70
     1
102
RTVSPropertyOp2
 70
     1
102
RTVSPropertyOp3
 70
     1
102
RTVSPropertyOp4
 70
     1
102
RTVSPropertyOp5
 70
     1
102
RTVSPropertyOp6
 70
     1
102
RTVSPropertyOp7
 70
     1
102
RTVSPropertyOp8
 70
     1
102
RTVSPropertyOp9
 70
     1
102
RTVSPropertyOp10
 70
     1
102
RTVSPropertyOp11
 70
     1
102
RTVSPropertyOp12
 70
     1
102
RTVSPropertyOp13
 70
     1
102
RTVSPropertyOp14
 70
     1
102
RTVSPropertyOp15
 70
     1
102
RTVSPropertyOp16
 70
     1
102
RTVSPropertyOp17
 70
     1
102
RTVSPropertyOp18
 70
     1
102
RTVSPropertyOp19
 70
     1
102
RTVSPropertyOp20
 70
     1
102
RTVSPropertyOp21
 70
     1
102
RTVSPropertyOp22
 70
     1
102
RTVSPropertyOp23
 70
     1
102
RTVSPropertyOp24
 70
     1
102
RTVSPropertyOp25
 70
     1
102
RTVSPropertyOp26
 70
     1
102
RTVSPropertyOp27
 70
     1
102
RTVSPropertyOp28
 70
     1
102
RTVSPropertyOp29
 70
     1
102
RTVSPropertyOp30
 70
     1
102
RTVSPropertyOp31
 70
     1
102
RTVSPropertyOp32
 70
     1
102
RTVSPropertyOp33
 70
     1
102
RTVSPropertyOp34
 70
     1
102
RTVSPropertyOp35
 70
     1
102
RTVSPropertyOp36
 70
     1
102
RTVSPropertyOp37
 70
     1
102
RTVSPropertyOp38
 70
     1
102
RTVSPropertyOp39
 70
     1
102
RTVSPropertyOp40
 70
     1
102
RTVSPropertyOp41
 70
     1
102
RTVSPropertyOp42
 70
     1
102
RTVSPropertyOp43
 70
     1
102
RTVSPropertyOp44
 70
     1
102
RTVSPropertyOp45
 70
     1
102
RTVSPropertyOp46
 70
     1
102
RTVSPropertyOp47
 70
     1
102
RTVSPropertyOp48
 70
     1
102
RTVSPropertyOp49
 70
     1
102
RTVSPropertyOp50
 70
     1
102
RTVSPropertyOp51
 70
     0
102
RTVSPropertyOp52
 70
     0
102
RTVSPropertyOp53
 70
     1
102
RTVSPropertyOp54
 70
     1
102
RTVSPropertyOp55
 70
     1
102
RTVSPropertyOp56
 70
     1
102
RTVSPropertyOp57
 70
     1
102
RTVSPropertyOp58
 70
     1
102
RTVSPropertyOp59
 70
     1
102
RTVSPropertyOp60
 70
     1
102
RTVSPropertyOp61
 70
     1
102
RTVSPropertyOp62
 70
     1
  0
XRECORD
  5
29B21
102
{ACAD_REACTORS
330
29B20
102
}
330
29B20
100
AcDbXrecord
280
     1
102
RTVSPost2010Prop28
280
     0
102
RTVSPost2010PropOp28
 70
     1
102
RTVSPost2010Prop29
280
     1
102
RTVSPost2010PropOp29
 70
     1
102
RTVSPost2010Prop30
280
     1
102
RTVSPost2010PropOp30
 70
     1
102
RTVSPost2010Prop31
280
     0
102
RTVSPost2010PropOp31
 70
     1
102
RTVSPost2010Prop32
280
     0
102
RTVSPost2010PropOp32
 70
     1
102
RTVSPost2010Prop33
280
     0
102
RTVSPost2010PropOp33
 70
     1
102
RTVSPost2010Prop34
280
     0
102
RTVSPost2010PropOp34
 70
     1
102
RTVSPost2010Prop35
280
     0
102
RTVSPost2010PropOp35
 70
     1
102
RTVSPost2010Prop36
280
     0
102
RTVSPost2010PropOp36
 70
     1
102
RTVSPost2010Prop37
 90
       50
102
RTVSPost2010PropOp37
 70
     1
102
RTVSPost2010Prop38
140
0.0
102
RTVSPost2010PropOp38
 70
     1
102
RTVSPost2010Prop39
140
1.0
102
RTVSPost2010PropOp39
 70
     1
102
RTVSPost2010Prop40
 90
        0
102
RTVSPost2010PropOp40
 70
     1
102
RTVSPost2010Prop41ColorIndex
 90
       18
102
RTVSPost2010Prop41ColorRGB
 90
        0
102
RTVSPost2010PropOp41
 70
     1
102
RTVSPost2010Prop42
 90
       50
102
RTVSPost2010PropOp42
 70
     1
102
RTVSPost2010Prop43
 90
        3
102
RTVSPost2010PropOp43
 70
     1
102
RTVSPost2010Prop44ColorIndex
 90
        5
102
RTVSPost2010Prop44ColorRGB
 90
      255
102
RTVSPost2010PropOp44
 70
     1
102
RTVSPost2010Prop45
280
     0
102
RTVSPost2010PropOp45
 70
     1
102
RTVSPost2010Prop46
 90
       50
102
RTVSPost2010PropOp46
 70
     1
102
RTVSPost2010Prop47
 90
       50
102
RTVSPost2010PropOp47
 70
     1
102
RTVSPost2010Prop48
 90
       50
102
RTVSPost2010PropOp48
 70
     1
102
RTVSPost2010Prop49
280
     0
102
RTVSPost2010PropOp49
 70
     1
102
RTVSPost2010Prop50
 90
       50
102
RTVSPost2010PropOp50
 70
     1
102
RTVSPost2010Prop51ColorIndex
 90
      256
102
RTVSPost2010Prop51ColorRGB
 90
-16777216
102
RTVSPost2010PropOp51
 70
     0
102
RTVSPost2010Prop52
140
1.0
102
RTVSPost2010PropOp52
 70
     0
102
RTVSPost2010Prop53
 90
        2
102
RTVSPost2010PropOp53
 70
     1
102
RTVSPost2010Prop54
  1
strokes_ogs.tif
102
RTVSPost2010PropOp54
 70
     1
102
RTVSPost2010Prop55
280
     0
102
RTVSPost2010PropOp55
 70
     1
102
RTVSPost2010Prop56
140
1.0
102
RTVSPost2010PropOp56
 70
     1
102
RTVSPost2010Prop57
140
1.0
102
RTVSPost2010PropOp57
 70
     1
102
RTVSPropertyOp0
 70
     1
102
RTVSPropertyOp1
 70
     1
102
RTVSPropertyOp2
 70
     1
102
RTVSPropertyOp3
 70
     1
102
RTVSPropertyOp4
 70
     1
102
RTVSPropertyOp5
 70
     1
102
RTVSPropertyOp6
 70
     1
102
RTVSPropertyOp7
 70
     1
102
RTVSPropertyOp8
 70
     1
102
RTVSPropertyOp9
 70
     1
102
RTVSPropertyOp10
 70
     1
102
RTVSPropertyOp11
 70
     1
102
RTVSPropertyOp12
 70
     1
102
RTVSPropertyOp13
 70
     1
102
RTVSPropertyOp14
 70
     1
102
RTVSPropertyOp15
 70
     1
102
RTVSPropertyOp16
 70
     1
102
RTVSPropertyOp17
 70
     1
102
RTVSPropertyOp18
 70
     1
102
RTVSPropertyOp19
 70
     1
102
RTVSPropertyOp20
 70
     1
102
RTVSPropertyOp21
 70
     1
102
RTVSPropertyOp22
 70
     1
102
RTVSPropertyOp23
 70
     1
102
RTVSPropertyOp24
 70
     1
102
RTVSPropertyOp25
 70
     1
102
RTVSPropertyOp26
 70
     1
102
RTVSPropertyOp27
 70
     1
102
RTVSPropertyOp28
 70
     1
102
RTVSPropertyOp29
 70
     1
102
RTVSPropertyOp30
 70
     1
102
RTVSPropertyOp31
 70
     1
102
RTVSPropertyOp32
 70
     1
102
RTVSPropertyOp33
 70
     1
102
RTVSPropertyOp34
 70
     1
102
RTVSPropertyOp35
 70
     1
102
RTVSPropertyOp36
 70
     1
102
RTVSPropertyOp37
 70
     1
102
RTVSPropertyOp38
 70
     1
102
RTVSPropertyOp39
 70
     1
102
RTVSPropertyOp40
 70
     1
102
RTVSPropertyOp41
 70
     1
102
RTVSPropertyOp42
 70
     1
102
RTVSPropertyOp43
 70
     1
102
RTVSPropertyOp44
 70
     1
102
RTVSPropertyOp45
 70
     1
102
RTVSPropertyOp46
 70
     1
102
RTVSPropertyOp47
 70
     1
102
RTVSPropertyOp48
 70
     1
102
RTVSPropertyOp49
 70
     1
102
RTVSPropertyOp50
 70
     1
102
RTVSPropertyOp51
 70
     0
102
RTVSPropertyOp52
 70
     0
102
RTVSPropertyOp53
 70
     1
102
RTVSPropertyOp54
 70
     1
102
RTVSPropertyOp55
 70
     1
102
RTVSPropertyOp56
 70
     1
102
RTVSPropertyOp57
 70
     1
102
RTVSPropertyOp58
 70
     1
102
RTVSPropertyOp59
 70
     1
102
RTVSPropertyOp60
 70
     1
102
RTVSPropertyOp61
 70
     1
102
RTVSPropertyOp62
 70
     1
  0
XRECORD
  5
29B1F
102
{ACAD_REACTORS
330
29B1E
102
}
330
29B1E
100
AcDbXrecord
280
     1
102
RTVSPost2010Prop28
280
     0
102
RTVSPost2010PropOp28
 70
     1
102
RTVSPost2010Prop29
280
     1
102
RTVSPost2010PropOp29
 70
     1
102
RTVSPost2010Prop30
280
     1
102
RTVSPost2010PropOp30
 70
     1
102
RTVSPost2010Prop31
280
     0
102
RTVSPost2010PropOp31
 70
     1
102
RTVSPost2010Prop32
280
     0
102
RTVSPost2010PropOp32
 70
     1
102
RTVSPost2010Prop33
280
     0
102
RTVSPost2010PropOp33
 70
     1
102
RTVSPost2010Prop34
280
     0
102
RTVSPost2010PropOp34
 70
     1
102
RTVSPost2010Prop35
280
     0
102
RTVSPost2010PropOp35
 70
     1
102
RTVSPost2010Prop36
280
     0
102
RTVSPost2010PropOp36
 70
     1
102
RTVSPost2010Prop37
 90
       50
102
RTVSPost2010PropOp37
 70
     1
102
RTVSPost2010Prop38
140
0.0
102
RTVSPost2010PropOp38
 70
     1
102
RTVSPost2010Prop39
140
1.0
102
RTVSPost2010PropOp39
 70
     1
102
RTVSPost2010Prop40
 90
        0
102
RTVSPost2010PropOp40
 70
     1
102
RTVSPost2010Prop41ColorIndex
 90
       18
102
RTVSPost2010Prop41ColorRGB
 90
        0
102
RTVSPost2010PropOp41
 70
     1
102
RTVSPost2010Prop42
 90
       50
102
RTVSPost2010PropOp42
 70
     1
102
RTVSPost2010Prop43
 90
        3
102
RTVSPost2010PropOp43
 70
     1
102
RTVSPost2010Prop44ColorIndex
 90
        5
102
RTVSPost2010Prop44ColorRGB
 90
      255
102
RTVSPost2010PropOp44
 70
     1
102
RTVSPost2010Prop45
280
     0
102
RTVSPost2010PropOp45
 70
     1
102
RTVSPost2010Prop46
 90
       50
102
RTVSPost2010PropOp46
 70
     1
102
RTVSPost2010Prop47
 90
       50
102
RTVSPost2010PropOp47
 70
     1
102
RTVSPost2010Prop48
 90
       50
102
RTVSPost2010PropOp48
 70
     1
102
RTVSPost2010Prop49
280
     0
102
RTVSPost2010PropOp49
 70
     1
102
RTVSPost2010Prop50
 90
       50
102
RTVSPost2010PropOp50
 70
     1
102
RTVSPost2010Prop51ColorIndex
 90
      256
102
RTVSPost2010Prop51ColorRGB
 90
-16777216
102
RTVSPost2010PropOp51
 70
     0
102
RTVSPost2010Prop52
140
1.0
102
RTVSPost2010PropOp52
 70
     0
102
RTVSPost2010Prop53
 90
        2
102
RTVSPost2010PropOp53
 70
     1
102
RTVSPost2010Prop54
  1
strokes_ogs.tif
102
RTVSPost2010PropOp54
 70
     1
102
RTVSPost2010Prop55
280
     0
102
RTVSPost2010PropOp55
 70
     1
102
RTVSPost2010Prop56
140
1.0
102
RTVSPost2010PropOp56
 70
     1
102
RTVSPost2010Prop57
140
1.0
102
RTVSPost2010PropOp57
 70
     1
102
RTVSPropertyOp0
 70
     1
102
RTVSPropertyOp1
 70
     1
102
RTVSPropertyOp2
 70
     1
102
RTVSPropertyOp3
 70
     1
102
RTVSPropertyOp4
 70
     1
102
RTVSPropertyOp5
 70
     1
102
RTVSPropertyOp6
 70
     1
102
RTVSPropertyOp7
 70
     1
102
RTVSPropertyOp8
 70
     1
102
RTVSPropertyOp9
 70
     1
102
RTVSPropertyOp10
 70
     1
102
RTVSPropertyOp11
 70
     1
102
RTVSPropertyOp12
 70
     1
102
RTVSPropertyOp13
 70
     1
102
RTVSPropertyOp14
 70
     1
102
RTVSPropertyOp15
 70
     1
102
RTVSPropertyOp16
 70
     1
102
RTVSPropertyOp17
 70
     1
102
RTVSPropertyOp18
 70
     1
102
RTVSPropertyOp19
 70
     1
102
RTVSPropertyOp20
 70
     1
102
RTVSPropertyOp21
 70
     1
102
RTVSPropertyOp22
 70
     1
102
RTVSPropertyOp23
 70
     1
102
RTVSPropertyOp24
 70
     1
102
RTVSPropertyOp25
 70
     1
102
RTVSPropertyOp26
 70
     1
102
RTVSPropertyOp27
 70
     1
102
RTVSPropertyOp28
 70
     1
102
RTVSPropertyOp29
 70
     1
102
RTVSPropertyOp30
 70
     1
102
RTVSPropertyOp31
 70
     1
102
RTVSPropertyOp32
 70
     1
102
RTVSPropertyOp33
 70
     1
102
RTVSPropertyOp34
 70
     1
102
RTVSPropertyOp35
 70
     1
102
RTVSPropertyOp36
 70
     1
102
RTVSPropertyOp37
 70
     1
102
RTVSPropertyOp38
 70
     1
102
RTVSPropertyOp39
 70
     1
102
RTVSPropertyOp40
 70
     1
102
RTVSPropertyOp41
 70
     1
102
RTVSPropertyOp42
 70
     1
102
RTVSPropertyOp43
 70
     1
102
RTVSPropertyOp44
 70
     1
102
RTVSPropertyOp45
 70
     1
102
RTVSPropertyOp46
 70
     1
102
RTVSPropertyOp47
 70
     1
102
RTVSPropertyOp48
 70
     1
102
RTVSPropertyOp49
 70
     1
102
RTVSPropertyOp50
 70
     1
102
RTVSPropertyOp51
 70
     0
102
RTVSPropertyOp52
 70
     0
102
RTVSPropertyOp53
 70
     1
102
RTVSPropertyOp54
 70
     1
102
RTVSPropertyOp55
 70
     1
102
RTVSPropertyOp56
 70
     1
102
RTVSPropertyOp57
 70
     1
102
RTVSPropertyOp58
 70
     1
102
RTVSPropertyOp59
 70
     1
102
RTVSPropertyOp60
 70
     1
102
RTVSPropertyOp61
 70
     1
102
RTVSPropertyOp62
 70
     1
  0
XRECORD
  5
29B19
102
{ACAD_REACTORS
330
29B18
102
}
330
29B18
100
AcDbXrecord
280
     1
102
RTVSPost2010Prop28
280
     0
102
RTVSPost2010PropOp28
 70
     1
102
RTVSPost2010Prop29
280
     1
102
RTVSPost2010PropOp29
 70
     1
102
RTVSPost2010Prop30
280
     1
102
RTVSPost2010PropOp30
 70
     1
102
RTVSPost2010Prop31
280
     0
102
RTVSPost2010PropOp31
 70
     1
102
RTVSPost2010Prop32
280
     0
102
RTVSPost2010PropOp32
 70
     1
102
RTVSPost2010Prop33
280
     0
102
RTVSPost2010PropOp33
 70
     1
102
RTVSPost2010Prop34
280
     0
102
RTVSPost2010PropOp34
 70
     1
102
RTVSPost2010Prop35
280
     0
102
RTVSPost2010PropOp35
 70
     1
102
RTVSPost2010Prop36
280
     0
102
RTVSPost2010PropOp36
 70
     1
102
RTVSPost2010Prop37
 90
       50
102
RTVSPost2010PropOp37
 70
     1
102
RTVSPost2010Prop38
140
0.0
102
RTVSPost2010PropOp38
 70
     1
102
RTVSPost2010Prop39
140
1.0
102
RTVSPost2010PropOp39
 70
     1
102
RTVSPost2010Prop40
 90
        0
102
RTVSPost2010PropOp40
 70
     1
102
RTVSPost2010Prop41ColorIndex
 90
       18
102
RTVSPost2010Prop41ColorRGB
 90
        0
102
RTVSPost2010PropOp41
 70
     1
102
RTVSPost2010Prop42
 90
       50
102
RTVSPost2010PropOp42
 70
     1
102
RTVSPost2010Prop43
 90
        3
102
RTVSPost2010PropOp43
 70
     1
102
RTVSPost2010Prop44ColorIndex
 90
        5
102
RTVSPost2010Prop44ColorRGB
 90
      255
102
RTVSPost2010PropOp44
 70
     1
102
RTVSPost2010Prop45
280
     0
102
RTVSPost2010PropOp45
 70
     1
102
RTVSPost2010Prop46
 90
       50
102
RTVSPost2010PropOp46
 70
     1
102
RTVSPost2010Prop47
 90
       50
102
RTVSPost2010PropOp47
 70
     1
102
RTVSPost2010Prop48
 90
       50
102
RTVSPost2010PropOp48
 70
     1
102
RTVSPost2010Prop49
280
     0
102
RTVSPost2010PropOp49
 70
     1
102
RTVSPost2010Prop50
 90
       50
102
RTVSPost2010PropOp50
 70
     1
102
RTVSPost2010Prop51ColorIndex
 90
      256
102
RTVSPost2010Prop51ColorRGB
 90
-16777216
102
RTVSPost2010PropOp51
 70
     0
102
RTVSPost2010Prop52
140
1.0
102
RTVSPost2010PropOp52
 70
     0
102
RTVSPost2010Prop53
 90
        2
102
RTVSPost2010PropOp53
 70
     1
102
RTVSPost2010Prop54
  1
strokes_ogs.tif
102
RTVSPost2010PropOp54
 70
     1
102
RTVSPost2010Prop55
280
     0
102
RTVSPost2010PropOp55
 70
     1
102
RTVSPost2010Prop56
140
1.0
102
RTVSPost2010PropOp56
 70
     1
102
RTVSPost2010Prop57
140
1.0
102
RTVSPost2010PropOp57
 70
     1
102
RTVSPropertyOp0
 70
     1
102
RTVSPropertyOp1
 70
     1
102
RTVSPropertyOp2
 70
     1
102
RTVSPropertyOp3
 70
     1
102
RTVSPropertyOp4
 70
     1
102
RTVSPropertyOp5
 70
     1
102
RTVSPropertyOp6
 70
     1
102
RTVSPropertyOp7
 70
     1
102
RTVSPropertyOp8
 70
     1
102
RTVSPropertyOp9
 70
     1
102
RTVSPropertyOp10
 70
     1
102
RTVSPropertyOp11
 70
     1
102
RTVSPropertyOp12
 70
     1
102
RTVSPropertyOp13
 70
     1
102
RTVSPropertyOp14
 70
     1
102
RTVSPropertyOp15
 70
     1
102
RTVSPropertyOp16
 70
     1
102
RTVSPropertyOp17
 70
     1
102
RTVSPropertyOp18
 70
     1
102
RTVSPropertyOp19
 70
     1
102
RTVSPropertyOp20
 70
     1
102
RTVSPropertyOp21
 70
     1
102
RTVSPropertyOp22
 70
     1
102
RTVSPropertyOp23
 70
     1
102
RTVSPropertyOp24
 70
     1
102
RTVSPropertyOp25
 70
     1
102
RTVSPropertyOp26
 70
     1
102
RTVSPropertyOp27
 70
     1
102
RTVSPropertyOp28
 70
     1
102
RTVSPropertyOp29
 70
     1
102
RTVSPropertyOp30
 70
     1
102
RTVSPropertyOp31
 70
     1
102
RTVSPropertyOp32
 70
     1
102
RTVSPropertyOp33
 70
     1
102
RTVSPropertyOp34
 70
     1
102
RTVSPropertyOp35
 70
     1
102
RTVSPropertyOp36
 70
     1
102
RTVSPropertyOp37
 70
     1
102
RTVSPropertyOp38
 70
     1
102
RTVSPropertyOp39
 70
     1
102
RTVSPropertyOp40
 70
     1
102
RTVSPropertyOp41
 70
     1
102
RTVSPropertyOp42
 70
     1
102
RTVSPropertyOp43
 70
     1
102
RTVSPropertyOp44
 70
     1
102
RTVSPropertyOp45
 70
     1
102
RTVSPropertyOp46
 70
     1
102
RTVSPropertyOp47
 70
     1
102
RTVSPropertyOp48
 70
     1
102
RTVSPropertyOp49
 70
     1
102
RTVSPropertyOp50
 70
     1
102
RTVSPropertyOp51
 70
     0
102
RTVSPropertyOp52
 70
     0
102
RTVSPropertyOp53
 70
     1
102
RTVSPropertyOp54
 70
     1
102
RTVSPropertyOp55
 70
     1
102
RTVSPropertyOp56
 70
     1
102
RTVSPropertyOp57
 70
     1
102
RTVSPropertyOp58
 70
     1
102
RTVSPropertyOp59
 70
     1
102
RTVSPropertyOp60
 70
     1
102
RTVSPropertyOp61
 70
     1
102
RTVSPropertyOp62
 70
     1
  0
XRECORD
  5
29B1B
102
{ACAD_REACTORS
330
29B1A
102
}
330
29B1A
100
AcDbXrecord
280
     1
102
RTVSPost2010Prop28
280
     0
102
RTVSPost2010PropOp28
 70
     1
102
RTVSPost2010Prop29
280
     1
102
RTVSPost2010PropOp29
 70
     1
102
RTVSPost2010Prop30
280
     1
102
RTVSPost2010PropOp30
 70
     1
102
RTVSPost2010Prop31
280
     0
102
RTVSPost2010PropOp31
 70
     1
102
RTVSPost2010Prop32
280
     0
102
RTVSPost2010PropOp32
 70
     1
102
RTVSPost2010Prop33
280
     0
102
RTVSPost2010PropOp33
 70
     1
102
RTVSPost2010Prop34
280
     0
102
RTVSPost2010PropOp34
 70
     1
102
RTVSPost2010Prop35
280
     0
102
RTVSPost2010PropOp35
 70
     1
102
RTVSPost2010Prop36
280
     0
102
RTVSPost2010PropOp36
 70
     1
102
RTVSPost2010Prop37
 90
       50
102
RTVSPost2010PropOp37
 70
     1
102
RTVSPost2010Prop38
140
0.0
102
RTVSPost2010PropOp38
 70
     1
102
RTVSPost2010Prop39
140
1.0
102
RTVSPost2010PropOp39
 70
     1
102
RTVSPost2010Prop40
 90
        0
102
RTVSPost2010PropOp40
 70
     1
102
RTVSPost2010Prop41ColorIndex
 90
       18
102
RTVSPost2010Prop41ColorRGB
 90
        0
102
RTVSPost2010PropOp41
 70
     1
102
RTVSPost2010Prop42
 90
       50
102
RTVSPost2010PropOp42
 70
     1
102
RTVSPost2010Prop43
 90
        3
102
RTVSPost2010PropOp43
 70
     1
102
RTVSPost2010Prop44ColorIndex
 90
        5
102
RTVSPost2010Prop44ColorRGB
 90
      255
102
RTVSPost2010PropOp44
 70
     1
102
RTVSPost2010Prop45
280
     0
102
RTVSPost2010PropOp45
 70
     1
102
RTVSPost2010Prop46
 90
       50
102
RTVSPost2010PropOp46
 70
     1
102
RTVSPost2010Prop47
 90
       50
102
RTVSPost2010PropOp47
 70
     1
102
RTVSPost2010Prop48
 90
       50
102
RTVSPost2010PropOp48
 70
     1
102
RTVSPost2010Prop49
280
     0
102
RTVSPost2010PropOp49
 70
     1
102
RTVSPost2010Prop50
 90
       50
102
RTVSPost2010PropOp50
 70
     1
102
RTVSPost2010Prop51ColorIndex
 90
      256
102
RTVSPost2010Prop51ColorRGB
 90
-16777216
102
RTVSPost2010PropOp51
 70
     0
102
RTVSPost2010Prop52
140
1.0
102
RTVSPost2010PropOp52
 70
     0
102
RTVSPost2010Prop53
 90
        2
102
RTVSPost2010PropOp53
 70
     1
102
RTVSPost2010Prop54
  1
strokes_ogs.tif
102
RTVSPost2010PropOp54
 70
     1
102
RTVSPost2010Prop55
280
     0
102
RTVSPost2010PropOp55
 70
     1
102
RTVSPost2010Prop56
140
1.0
102
RTVSPost2010PropOp56
 70
     1
102
RTVSPost2010Prop57
140
1.0
102
RTVSPost2010PropOp57
 70
     1
102
RTVSPropertyOp0
 70
     1
102
RTVSPropertyOp1
 70
     1
102
RTVSPropertyOp2
 70
     1
102
RTVSPropertyOp3
 70
     1
102
RTVSPropertyOp4
 70
     1
102
RTVSPropertyOp5
 70
     1
102
RTVSPropertyOp6
 70
     1
102
RTVSPropertyOp7
 70
     1
102
RTVSPropertyOp8
 70
     1
102
RTVSPropertyOp9
 70
     1
102
RTVSPropertyOp10
 70
     1
102
RTVSPropertyOp11
 70
     1
102
RTVSPropertyOp12
 70
     1
102
RTVSPropertyOp13
 70
     1
102
RTVSPropertyOp14
 70
     1
102
RTVSPropertyOp15
 70
     1
102
RTVSPropertyOp16
 70
     1
102
RTVSPropertyOp17
 70
     1
102
RTVSPropertyOp18
 70
     1
102
RTVSPropertyOp19
 70
     1
102
RTVSPropertyOp20
 70
     1
102
RTVSPropertyOp21
 70
     1
102
RTVSPropertyOp22
 70
     1
102
RTVSPropertyOp23
 70
     1
102
RTVSPropertyOp24
 70
     1
102
RTVSPropertyOp25
 70
     1
102
RTVSPropertyOp26
 70
     1
102
RTVSPropertyOp27
 70
     1
102
RTVSPropertyOp28
 70
     1
102
RTVSPropertyOp29
 70
     1
102
RTVSPropertyOp30
 70
     1
102
RTVSPropertyOp31
 70
     1
102
RTVSPropertyOp32
 70
     1
102
RTVSPropertyOp33
 70
     1
102
RTVSPropertyOp34
 70
     1
102
RTVSPropertyOp35
 70
     1
102
RTVSPropertyOp36
 70
     1
102
RTVSPropertyOp37
 70
     1
102
RTVSPropertyOp38
 70
     1
102
RTVSPropertyOp39
 70
     1
102
RTVSPropertyOp40
 70
     1
102
RTVSPropertyOp41
 70
     1
102
RTVSPropertyOp42
 70
     1
102
RTVSPropertyOp43
 70
     1
102
RTVSPropertyOp44
 70
     1
102
RTVSPropertyOp45
 70
     1
102
RTVSPropertyOp46
 70
     1
102
RTVSPropertyOp47
 70
     1
102
RTVSPropertyOp48
 70
     1
102
RTVSPropertyOp49
 70
     1
102
RTVSPropertyOp50
 70
     1
102
RTVSPropertyOp51
 70
     0
102
RTVSPropertyOp52
 70
     0
102
RTVSPropertyOp53
 70
     1
102
RTVSPropertyOp54
 70
     1
102
RTVSPropertyOp55
 70
     1
102
RTVSPropertyOp56
 70
     1
102
RTVSPropertyOp57
 70
     1
102
RTVSPropertyOp58
 70
     1
102
RTVSPropertyOp59
 70
     1
102
RTVSPropertyOp60
 70
     1
102
RTVSPropertyOp61
 70
     1
102
RTVSPropertyOp62
 70
     1
  0
XRECORD
  5
29B09
102
{ACAD_REACTORS
330
29B08
102
}
330
29B08
100
AcDbXrecord
280
     1
102
RTVSPost2010Prop28
280
     0
102
RTVSPost2010PropOp28
 70
     1
102
RTVSPost2010Prop29
280
     1
102
RTVSPost2010PropOp29
 70
     1
102
RTVSPost2010Prop30
280
     1
102
RTVSPost2010PropOp30
 70
     1
102
RTVSPost2010Prop31
280
     0
102
RTVSPost2010PropOp31
 70
     1
102
RTVSPost2010Prop32
280
     0
102
RTVSPost2010PropOp32
 70
     1
102
RTVSPost2010Prop33
280
     0
102
RTVSPost2010PropOp33
 70
     1
102
RTVSPost2010Prop34
280
     0
102
RTVSPost2010PropOp34
 70
     1
102
RTVSPost2010Prop35
280
     0
102
RTVSPost2010PropOp35
 70
     1
102
RTVSPost2010Prop36
280
     0
102
RTVSPost2010PropOp36
 70
     1
102
RTVSPost2010Prop37
 90
       50
102
RTVSPost2010PropOp37
 70
     1
102
RTVSPost2010Prop38
140
0.0
102
RTVSPost2010PropOp38
 70
     1
102
RTVSPost2010Prop39
140
1.0
102
RTVSPost2010PropOp39
 70
     1
102
RTVSPost2010Prop40
 90
        0
102
RTVSPost2010PropOp40
 70
     1
102
RTVSPost2010Prop41ColorIndex
 90
       18
102
RTVSPost2010Prop41ColorRGB
 90
        0
102
RTVSPost2010PropOp41
 70
     1
102
RTVSPost2010Prop42
 90
       50
102
RTVSPost2010PropOp42
 70
     1
102
RTVSPost2010Prop43
 90
        3
102
RTVSPost2010PropOp43
 70
     1
102
RTVSPost2010Prop44ColorIndex
 90
        5
102
RTVSPost2010Prop44ColorRGB
 90
      255
102
RTVSPost2010PropOp44
 70
     1
102
RTVSPost2010Prop45
280
     0
102
RTVSPost2010PropOp45
 70
     1
102
RTVSPost2010Prop46
 90
       50
102
RTVSPost2010PropOp46
 70
     1
102
RTVSPost2010Prop47
 90
       50
102
RTVSPost2010PropOp47
 70
     1
102
RTVSPost2010Prop48
 90
       50
102
RTVSPost2010PropOp48
 70
     1
102
RTVSPost2010Prop49
280
     0
102
RTVSPost2010PropOp49
 70
     1
102
RTVSPost2010Prop50
 90
       50
102
RTVSPost2010PropOp50
 70
     1
102
RTVSPost2010Prop51ColorIndex
 90
      256
102
RTVSPost2010Prop51ColorRGB
 90
-16777216
102
RTVSPost2010PropOp51
 70
     0
102
RTVSPost2010Prop52
140
1.0
102
RTVSPost2010PropOp52
 70
     0
102
RTVSPost2010Prop53
 90
        2
102
RTVSPost2010PropOp53
 70
     1
102
RTVSPost2010Prop54
  1
strokes_ogs.tif
102
RTVSPost2010PropOp54
 70
     1
102
RTVSPost2010Prop55
280
     0
102
RTVSPost2010PropOp55
 70
     1
102
RTVSPost2010Prop56
140
1.0
102
RTVSPost2010PropOp56
 70
     1
102
RTVSPost2010Prop57
140
1.0
102
RTVSPost2010PropOp57
 70
     1
102
RTVSPropertyOp0
 70
     1
102
RTVSPropertyOp1
 70
     1
102
RTVSPropertyOp2
 70
     1
102
RTVSPropertyOp3
 70
     1
102
RTVSPropertyOp4
 70
     1
102
RTVSPropertyOp5
 70
     1
102
RTVSPropertyOp6
 70
     1
102
RTVSPropertyOp7
 70
     1
102
RTVSPropertyOp8
 70
     1
102
RTVSPropertyOp9
 70
     1
102
RTVSPropertyOp10
 70
     1
102
RTVSPropertyOp11
 70
     1
102
RTVSPropertyOp12
 70
     1
102
RTVSPropertyOp13
 70
     1
102
RTVSPropertyOp14
 70
     1
102
RTVSPropertyOp15
 70
     1
102
RTVSPropertyOp16
 70
     1
102
RTVSPropertyOp17
 70
     1
102
RTVSPropertyOp18
 70
     1
102
RTVSPropertyOp19
 70
     1
102
RTVSPropertyOp20
 70
     1
102
RTVSPropertyOp21
 70
     1
102
RTVSPropertyOp22
 70
     1
102
RTVSPropertyOp23
 70
     1
102
RTVSPropertyOp24
 70
     1
102
RTVSPropertyOp25
 70
     1
102
RTVSPropertyOp26
 70
     1
102
RTVSPropertyOp27
 70
     1
102
RTVSPropertyOp28
 70
     1
102
RTVSPropertyOp29
 70
     1
102
RTVSPropertyOp30
 70
     1
102
RTVSPropertyOp31
 70
     1
102
RTVSPropertyOp32
 70
     1
102
RTVSPropertyOp33
 70
     1
102
RTVSPropertyOp34
 70
     1
102
RTVSPropertyOp35
 70
     1
102
RTVSPropertyOp36
 70
     1
102
RTVSPropertyOp37
 70
     1
102
RTVSPropertyOp38
 70
     1
102
RTVSPropertyOp39
 70
     1
102
RTVSPropertyOp40
 70
     1
102
RTVSPropertyOp41
 70
     1
102
RTVSPropertyOp42
 70
     1
102
RTVSPropertyOp43
 70
     1
102
RTVSPropertyOp44
 70
     1
102
RTVSPropertyOp45
 70
     1
102
RTVSPropertyOp46
 70
     1
102
RTVSPropertyOp47
 70
     1
102
RTVSPropertyOp48
 70
     1
102
RTVSPropertyOp49
 70
     1
102
RTVSPropertyOp50
 70
     1
102
RTVSPropertyOp51
 70
     0
102
RTVSPropertyOp52
 70
     0
102
RTVSPropertyOp53
 70
     1
102
RTVSPropertyOp54
 70
     1
102
RTVSPropertyOp55
 70
     1
102
RTVSPropertyOp56
 70
     1
102
RTVSPropertyOp57
 70
     1
102
RTVSPropertyOp58
 70
     1
102
RTVSPropertyOp59
 70
     1
102
RTVSPropertyOp60
 70
     1
102
RTVSPropertyOp61
 70
     1
102
RTVSPropertyOp62
 70
     1
  0
XRECORD
  5
29AFD
102
{ACAD_REACTORS
330
29AFC
102
}
330
29AFC
100
AcDbXrecord
280
     1
102
RTVSPost2010Prop28
280
     0
102
RTVSPost2010PropOp28
 70
     1
102
RTVSPost2010Prop29
280
     1
102
RTVSPost2010PropOp29
 70
     1
102
RTVSPost2010Prop30
280
     1
102
RTVSPost2010PropOp30
 70
     1
102
RTVSPost2010Prop31
280
     0
102
RTVSPost2010PropOp31
 70
     1
102
RTVSPost2010Prop32
280
     0
102
RTVSPost2010PropOp32
 70
     1
102
RTVSPost2010Prop33
280
     0
102
RTVSPost2010PropOp33
 70
     1
102
RTVSPost2010Prop34
280
     0
102
RTVSPost2010PropOp34
 70
     1
102
RTVSPost2010Prop35
280
     0
102
RTVSPost2010PropOp35
 70
     1
102
RTVSPost2010Prop36
280
     0
102
RTVSPost2010PropOp36
 70
     1
102
RTVSPost2010Prop37
 90
       50
102
RTVSPost2010PropOp37
 70
     1
102
RTVSPost2010Prop38
140
0.0
102
RTVSPost2010PropOp38
 70
     1
102
RTVSPost2010Prop39
140
1.0
102
RTVSPost2010PropOp39
 70
     1
102
RTVSPost2010Prop40
 90
        0
102
RTVSPost2010PropOp40
 70
     1
102
RTVSPost2010Prop41ColorIndex
 90
       18
102
RTVSPost2010Prop41ColorRGB
 90
        0
102
RTVSPost2010PropOp41
 70
     1
102
RTVSPost2010Prop42
 90
       50
102
RTVSPost2010PropOp42
 70
     1
102
RTVSPost2010Prop43
 90
        3
102
RTVSPost2010PropOp43
 70
     1
102
RTVSPost2010Prop44ColorIndex
 90
        5
102
RTVSPost2010Prop44ColorRGB
 90
      255
102
RTVSPost2010PropOp44
 70
     1
102
RTVSPost2010Prop45
280
     0
102
RTVSPost2010PropOp45
 70
     1
102
RTVSPost2010Prop46
 90
       50
102
RTVSPost2010PropOp46
 70
     1
102
RTVSPost2010Prop47
 90
       50
102
RTVSPost2010PropOp47
 70
     1
102
RTVSPost2010Prop48
 90
       50
102
RTVSPost2010PropOp48
 70
     1
102
RTVSPost2010Prop49
280
     0
102
RTVSPost2010PropOp49
 70
     1
102
RTVSPost2010Prop50
 90
       50
102
RTVSPost2010PropOp50
 70
     1
102
RTVSPost2010Prop51ColorIndex
 90
      256
102
RTVSPost2010Prop51ColorRGB
 90
-16777216
102
RTVSPost2010PropOp51
 70
     0
102
RTVSPost2010Prop52
140
1.0
102
RTVSPost2010PropOp52
 70
     0
102
RTVSPost2010Prop53
 90
        2
102
RTVSPost2010PropOp53
 70
     1
102
RTVSPost2010Prop54
  1
strokes_ogs.tif
102
RTVSPost2010PropOp54
 70
     1
102
RTVSPost2010Prop55
280
     0
102
RTVSPost2010PropOp55
 70
     1
102
RTVSPost2010Prop56
140
1.0
102
RTVSPost2010PropOp56
 70
     1
102
RTVSPost2010Prop57
140
1.0
102
RTVSPost2010PropOp57
 70
     1
102
RTVSPropertyOp0
 70
     1
102
RTVSPropertyOp1
 70
     1
102
RTVSPropertyOp2
 70
     1
102
RTVSPropertyOp3
 70
     1
102
RTVSPropertyOp4
 70
     1
102
RTVSPropertyOp5
 70
     1
102
RTVSPropertyOp6
 70
     1
102
RTVSPropertyOp7
 70
     1
102
RTVSPropertyOp8
 70
     1
102
RTVSPropertyOp9
 70
     1
102
RTVSPropertyOp10
 70
     1
102
RTVSPropertyOp11
 70
     1
102
RTVSPropertyOp12
 70
     1
102
RTVSPropertyOp13
 70
     1
102
RTVSPropertyOp14
 70
     1
102
RTVSPropertyOp15
 70
     1
102
RTVSPropertyOp16
 70
     1
102
RTVSPropertyOp17
 70
     1
102
RTVSPropertyOp18
 70
     1
102
RTVSPropertyOp19
 70
     1
102
RTVSPropertyOp20
 70
     1
102
RTVSPropertyOp21
 70
     1
102
RTVSPropertyOp22
 70
     1
102
RTVSPropertyOp23
 70
     1
102
RTVSPropertyOp24
 70
     1
102
RTVSPropertyOp25
 70
     1
102
RTVSPropertyOp26
 70
     1
102
RTVSPropertyOp27
 70
     1
102
RTVSPropertyOp28
 70
     1
102
RTVSPropertyOp29
 70
     1
102
RTVSPropertyOp30
 70
     1
102
RTVSPropertyOp31
 70
     1
102
RTVSPropertyOp32
 70
     1
102
RTVSPropertyOp33
 70
     1
102
RTVSPropertyOp34
 70
     1
102
RTVSPropertyOp35
 70
     1
102
RTVSPropertyOp36
 70
     1
102
RTVSPropertyOp37
 70
     1
102
RTVSPropertyOp38
 70
     1
102
RTVSPropertyOp39
 70
     1
102
RTVSPropertyOp40
 70
     1
102
RTVSPropertyOp41
 70
     1
102
RTVSPropertyOp42
 70
     1
102
RTVSPropertyOp43
 70
     1
102
RTVSPropertyOp44
 70
     1
102
RTVSPropertyOp45
 70
     1
102
RTVSPropertyOp46
 70
     1
102
RTVSPropertyOp47
 70
     1
102
RTVSPropertyOp48
 70
     1
102
RTVSPropertyOp49
 70
     1
102
RTVSPropertyOp50
 70
     1
102
RTVSPropertyOp51
 70
     0
102
RTVSPropertyOp52
 70
     0
102
RTVSPropertyOp53
 70
     1
102
RTVSPropertyOp54
 70
     1
102
RTVSPropertyOp55
 70
     1
102
RTVSPropertyOp56
 70
     1
102
RTVSPropertyOp57
 70
     1
102
RTVSPropertyOp58
 70
     1
102
RTVSPropertyOp59
 70
     1
102
RTVSPropertyOp60
 70
     1
102
RTVSPropertyOp61
 70
     1
102
RTVSPropertyOp62
 70
     1
  0
XRECORD
  5
29B1D
102
{ACAD_REACTORS
330
29B1C
102
}
330
29B1C
100
AcDbXrecord
280
     1
102
RTVSPost2010Prop28
280
     0
102
RTVSPost2010PropOp28
 70
     1
102
RTVSPost2010Prop29
280
     1
102
RTVSPost2010PropOp29
 70
     1
102
RTVSPost2010Prop30
280
     1
102
RTVSPost2010PropOp30
 70
     1
102
RTVSPost2010Prop31
280
     0
102
RTVSPost2010PropOp31
 70
     1
102
RTVSPost2010Prop32
280
     0
102
RTVSPost2010PropOp32
 70
     1
102
RTVSPost2010Prop33
280
     0
102
RTVSPost2010PropOp33
 70
     1
102
RTVSPost2010Prop34
280
     0
102
RTVSPost2010PropOp34
 70
     1
102
RTVSPost2010Prop35
280
     0
102
RTVSPost2010PropOp35
 70
     1
102
RTVSPost2010Prop36
280
     0
102
RTVSPost2010PropOp36
 70
     1
102
RTVSPost2010Prop37
 90
       50
102
RTVSPost2010PropOp37
 70
     1
102
RTVSPost2010Prop38
140
0.0
102
RTVSPost2010PropOp38
 70
     1
102
RTVSPost2010Prop39
140
1.0
102
RTVSPost2010PropOp39
 70
     1
102
RTVSPost2010Prop40
 90
        0
102
RTVSPost2010PropOp40
 70
     1
102
RTVSPost2010Prop41ColorIndex
 90
       18
102
RTVSPost2010Prop41ColorRGB
 90
        0
102
RTVSPost2010PropOp41
 70
     1
102
RTVSPost2010Prop42
 90
       50
102
RTVSPost2010PropOp42
 70
     1
102
RTVSPost2010Prop43
 90
        3
102
RTVSPost2010PropOp43
 70
     1
102
RTVSPost2010Prop44ColorIndex
 90
        5
102
RTVSPost2010Prop44ColorRGB
 90
      255
102
RTVSPost2010PropOp44
 70
     1
102
RTVSPost2010Prop45
280
     0
102
RTVSPost2010PropOp45
 70
     1
102
RTVSPost2010Prop46
 90
       50
102
RTVSPost2010PropOp46
 70
     1
102
RTVSPost2010Prop47
 90
       50
102
RTVSPost2010PropOp47
 70
     1
102
RTVSPost2010Prop48
 90
       50
102
RTVSPost2010PropOp48
 70
     1
102
RTVSPost2010Prop49
280
     0
102
RTVSPost2010PropOp49
 70
     1
102
RTVSPost2010Prop50
 90
       50
102
RTVSPost2010PropOp50
 70
     1
102
RTVSPost2010Prop51ColorIndex
 90
      256
102
RTVSPost2010Prop51ColorRGB
 90
-16777216
102
RTVSPost2010PropOp51
 70
     0
102
RTVSPost2010Prop52
140
1.0
102
RTVSPost2010PropOp52
 70
     0
102
RTVSPost2010Prop53
 90
        2
102
RTVSPost2010PropOp53
 70
     1
102
RTVSPost2010Prop54
  1
strokes_ogs.tif
102
RTVSPost2010PropOp54
 70
     1
102
RTVSPost2010Prop55
280
     0
102
RTVSPost2010PropOp55
 70
     1
102
RTVSPost2010Prop56
140
1.0
102
RTVSPost2010PropOp56
 70
     1
102
RTVSPost2010Prop57
140
1.0
102
RTVSPost2010PropOp57
 70
     1
102
RTVSPropertyOp0
 70
     1
102
RTVSPropertyOp1
 70
     1
102
RTVSPropertyOp2
 70
     1
102
RTVSPropertyOp3
 70
     1
102
RTVSPropertyOp4
 70
     1
102
RTVSPropertyOp5
 70
     1
102
RTVSPropertyOp6
 70
     1
102
RTVSPropertyOp7
 70
     1
102
RTVSPropertyOp8
 70
     1
102
RTVSPropertyOp9
 70
     1
102
RTVSPropertyOp10
 70
     1
102
RTVSPropertyOp11
 70
     1
102
RTVSPropertyOp12
 70
     1
102
RTVSPropertyOp13
 70
     1
102
RTVSPropertyOp14
 70
     1
102
RTVSPropertyOp15
 70
     1
102
RTVSPropertyOp16
 70
     1
102
RTVSPropertyOp17
 70
     1
102
RTVSPropertyOp18
 70
     1
102
RTVSPropertyOp19
 70
     1
102
RTVSPropertyOp20
 70
     1
102
RTVSPropertyOp21
 70
     1
102
RTVSPropertyOp22
 70
     1
102
RTVSPropertyOp23
 70
     1
102
RTVSPropertyOp24
 70
     1
102
RTVSPropertyOp25
 70
     1
102
RTVSPropertyOp26
 70
     1
102
RTVSPropertyOp27
 70
     1
102
RTVSPropertyOp28
 70
     1
102
RTVSPropertyOp29
 70
     1
102
RTVSPropertyOp30
 70
     1
102
RTVSPropertyOp31
 70
     1
102
RTVSPropertyOp32
 70
     1
102
RTVSPropertyOp33
 70
     1
102
RTVSPropertyOp34
 70
     1
102
RTVSPropertyOp35
 70
     1
102
RTVSPropertyOp36
 70
     1
102
RTVSPropertyOp37
 70
     1
102
RTVSPropertyOp38
 70
     1
102
RTVSPropertyOp39
 70
     1
102
RTVSPropertyOp40
 70
     1
102
RTVSPropertyOp41
 70
     1
102
RTVSPropertyOp42
 70
     1
102
RTVSPropertyOp43
 70
     1
102
RTVSPropertyOp44
 70
     1
102
RTVSPropertyOp45
 70
     1
102
RTVSPropertyOp46
 70
     1
102
RTVSPropertyOp47
 70
     1
102
RTVSPropertyOp48
 70
     1
102
RTVSPropertyOp49
 70
     1
102
RTVSPropertyOp50
 70
     1
102
RTVSPropertyOp51
 70
     0
102
RTVSPropertyOp52
 70
     0
102
RTVSPropertyOp53
 70
     1
102
RTVSPropertyOp54
 70
     1
102
RTVSPropertyOp55
 70
     1
102
RTVSPropertyOp56
 70
     1
102
RTVSPropertyOp57
 70
     1
102
RTVSPropertyOp58
 70
     1
102
RTVSPropertyOp59
 70
     1
102
RTVSPropertyOp60
 70
     1
102
RTVSPropertyOp61
 70
     1
102
RTVSPropertyOp62
 70
     1
  0
ENDSEC
  0
EOF
