  0
SECTION
  2
HEADER
  9
$ACADVER
  1
AC1015
  9
$ACADMAINTVER
 70
    18
  9
$DWGCODEPAGE
  3
ANSI_1252
  9
$INSBASE
 10
0.0
 20
0.0
 30
0.0
  9
$EXTMIN
 10
-245.1132195223043
 20
-316.9900356882601
 30
-0.0015258207003583
  9
$EXTMAX
 10
335.5462655280092
 20
333.6038367936898
 30
0.0000000349246037
  9
$LIMMIN
 10
0.0
 20
0.0
  9
$LIMMAX
 10
420.0
 20
297.0
  9
$ORTHOMODE
 70
     0
  9
$REGENMODE
 70
     1
  9
$FILLMODE
 70
     1
  9
$QTEXTMODE
 70
     0
  9
$MIRRTEXT
 70
     0
  9
$LTSCALE
 40
1.0
  9
$ATTMODE
 70
     1
  9
$TEXTSIZE
 40
2.5
  9
$TRACEWID
 40
1.0
  9
$TEXTSTYLE
  7
Standard
  9
$CLAYER
  8
0
  9
$CELTYPE
  6
ByLayer
  9
$CECOLOR
 62
   256
  9
$CELTSCALE
 40
1.0
  9
$DISPSILH
 70
     0
  9
$DIMSCALE
 40
1.0
  9
$DIMASZ
 40
2.5
  9
$DIMEXO
 40
0.625
  9
$DIMDLI
 40
3.75
  9
$DIMRND
 40
0.0
  9
$DIMDLE
 40
0.0
  9
$DIMEXE
 40
1.25
  9
$DIMTP
 40
0.0
  9
$DIMTM
 40
0.0
  9
$DIMTXT
 40
2.5
  9
$DIMCEN
 40
2.5
  9
$DIMTSZ
 40
0.0
  9
$DIMTOL
 70
     0
  9
$DIMLIM
 70
     0
  9
$DIMTIH
 70
     0
  9
$DIMTOH
 70
     0
  9
$DIMSE1
 70
     0
  9
$DIMSE2
 70
     0
  9
$DIMTAD
 70
     1
  9
$DIMZIN
 70
     8
  9
$DIMBLK
  1

  9
$DIMASO
 70
     1
  9
$DIMSHO
 70
     1
  9
$DIMPOST
  1

  9
$DIMAPOST
  1

  9
$DIMALT
 70
     0
  9
$DIMALTD
 70
     3
  9
$DIMALTF
 40
0.03937007874016
  9
$DIMLFAC
 40
1.0
  9
$DIMTOFL
 70
     1
  9
$DIMTVP
 40
0.0
  9
$DIMTIX
 70
     0
  9
$DIMSOXD
 70
     0
  9
$DIMSAH
 70
     0
  9
$DIMBLK1
  1

  9
$DIMBLK2
  1

  9
$DIMSTYLE
  2
ISO-25
  9
$DIMCLRD
 70
     0
  9
$DIMCLRE
 70
     0
  9
$DIMCLRT
 70
     0
  9
$DIMTFAC
 40
1.0
  9
$DIMGAP
 40
0.625
  9
$DIMJUST
 70
     0
  9
$DIMSD1
 70
     0
  9
$DIMSD2
 70
     0
  9
$DIMTOLJ
 70
     0
  9
$DIMTZIN
 70
     8
  9
$DIMALTZ
 70
     0
  9
$DIMALTTZ
 70
     0
  9
$DIMUPT
 70
     0
  9
$DIMDEC
 70
     2
  9
$DIMTDEC
 70
     2
  9
$DIMALTU
 70
     2
  9
$DIMALTTD
 70
     3
  9
$DIMTXSTY
  7
Standard
  9
$DIMAUNIT
 70
     0
  9
$DIMADEC
 70
     0
  9
$DIMALTRND
 40
0.0
  9
$DIMAZIN
 70
     0
  9
$DIMDSEP
 70
    44
  9
$DIMATFIT
 70
     3
  9
$DIMFRAC
 70
     0
  9
$DIMLDRBLK
  1

  9
$DIMLUNIT
 70
     2
  9
$DIMLWD
 70
    -2
  9
$DIMLWE
 70
    -2
  9
$DIMTMOVE
 70
     0
  9
$LUNITS
 70
     2
  9
$LUPREC
 70
     4
  9
$SKETCHINC
 40
1.0
  9
$FILLETRAD
 40
0.0
  9
$AUNITS
 70
     0
  9
$AUPREC
 70
     0
  9
$MENU
  1
.
  9
$ELEVATION
 40
0.0
  9
$PELEVATION
 40
0.0
  9
$THICKNESS
 40
0.0
  9
$LIMCHECK
 70
     0
  9
$CHAMFERA
 40
0.0
  9
$CHAMFERB
 40
0.0
  9
$CHAMFERC
 40
0.0
  9
$CHAMFERD
 40
0.0
  9
$SKPOLY
 70
     0
  9
$TDCREATE
 40
2460398.356956019
  9
$TDUCREATE
 40
2460398.065289352
  9
$TDUPDATE
 40
2460398.391562500
  9
$TDUUPDATE
 40
2460398.099895834
  9
$TDINDWG
 40
0.0102199074
  9
$TDUSRTIMER
 40
0.0102199074
  9
$USRTIMER
 70
     1
  9
$ANGBASE
 50
0.0
  9
$ANGDIR
 70
     0
  9
$PDMODE
 70
     0
  9
$PDSIZE
 40
0.0
  9
$PLINEWID
 40
0.0
  9
$SPLFRAME
 70
     0
  9
$SPLINETYPE
 70
     6
  9
$SPLINESEGS
 70
     8
  9
$HANDSEED
  5
2A2A7
  9
$SURFTAB1
 70
     6
  9
$SURFTAB2
 70
     6
  9
$SURFTYPE
 70
     6
  9
$SURFU
 70
     6
  9
$SURFV
 70
     6
  9
$UCSBASE
  2

  9
$UCSNAME
  2

  9
$UCSORG
 10
0.0
 20
0.0
 30
0.0
  9
$UCSXDIR
 10
1.0
 20
0.0
 30
0.0
  9
$UCSYDIR
 10
0.0
 20
1.0
 30
0.0
  9
$UCSORTHOREF
  2

  9
$UCSORTHOVIEW
 70
     0
  9
$UCSORGTOP
 10
0.0
 20
0.0
 30
0.0
  9
$UCSORGBOTTOM
 10
0.0
 20
0.0
 30
0.0
  9
$UCSORGLEFT
 10
0.0
 20
0.0
 30
0.0
  9
$UCSORGRIGHT
 10
0.0
 20
0.0
 30
0.0
  9
$UCSORGFRONT
 10
0.0
 20
0.0
 30
0.0
  9
$UCSORGBACK
 10
0.0
 20
0.0
 30
0.0
  9
$PUCSBASE
  2

  9
$PUCSNAME
  2

  9
$PUCSORG
 10
0.0
 20
0.0
 30
0.0
  9
$PUCSXDIR
 10
1.0
 20
0.0
 30
0.0
  9
$PUCSYDIR
 10
0.0
 20
1.0
 30
0.0
  9
$PUCSORTHOREF
  2

  9
$PUCSORTHOVIEW
 70
     0
  9
$PUCSORGTOP
 10
0.0
 20
0.0
 30
0.0
  9
$PUCSORGBOTTOM
 10
0.0
 20
0.0
 30
0.0
  9
$PUCSORGLEFT
 10
0.0
 20
0.0
 30
0.0
  9
$PUCSORGRIGHT
 10
0.0
 20
0.0
 30
0.0
  9
$PUCSORGFRONT
 10
0.0
 20
0.0
 30
0.0
  9
$PUCSORGBACK
 10
0.0
 20
0.0
 30
0.0
  9
$USERI1
 70
     0
  9
$USERI2
 70
     0
  9
$USERI3
 70
     0
  9
$USERI4
 70
     0
  9
$USERI5
 70
     0
  9
$USERR1
 40
0.0
  9
$USERR2
 40
0.0
  9
$USERR3
 40
0.0
  9
$USERR4
 40
0.0
  9
$USERR5
 40
0.0
  9
$WORLDVIEW
 70
     1
  9
$SHADEDGE
 70
     3
  9
$SHADEDIF
 70
    70
  9
$TILEMODE
 70
     1
  9
$MAXACTVP
 70
    48
  9
$PINSBASE
 10
0.0
 20
0.0
 30
0.0
  9
$PLIMCHECK
 70
     0
  9
$PEXTMIN
 10
0.0
 20
0.0
 30
0.0
  9
$PEXTMAX
 10
0.0
 20
0.0
 30
0.0
  9
$PLIMMIN
 10
0.0
 20
0.0
  9
$PLIMMAX
 10
12.0
 20
9.0
  9
$UNITMODE
 70
     0
  9
$VISRETAIN
 70
     1
  9
$PLINEGEN
 70
     0
  9
$PSLTSCALE
 70
     1
  9
$TREEDEPTH
 70
  3020
  9
$CMLSTYLE
  2
Standard
  9
$CMLJUST
 70
     0
  9
$CMLSCALE
 40
20.0
  9
$PROXYGRAPHICS
 70
     1
  9
$MEASUREMENT
 70
     1
  9
$CELWEIGHT
370
    -1
  9
$ENDCAPS
280
     0
  9
$JOINSTYLE
280
     0
  9
$LWDISPLAY
290
     0
  9
$INSUNITS
 70
     4
  9
$HYPERLINKBASE
  1

  9
$STYLESHEET
  1

  9
$XEDIT
290
     1
  9
$CEPSNTYPE
380
     0
  9
$PSTYLEMODE
290
     1
  9
$FINGERPRINTGUID
  2
{6C1266EE-7BC1-BF4A-B059-A6E7702B10CE}
  9
$VERSIONGUID
  2
{9180A177-DAB8-9F4B-BC9D-4F0B4526C945}
  9
$EXTNAMES
290
     1
  9
$PSVPSCALE
 40
0.0
  9
$OLESTARTUP
290
     0
  0
ENDSEC
  0
SECTION
  2
CLASSES
  0
CLASS
  1
ACDBDICTIONARYWDFLT
  2
AcDbDictionaryWithDefault
  3
ObjectDBX Classes
 90
        0
280
     0
281
     0
  0
CLASS
  1
ACDBPLACEHOLDER
  2
AcDbPlaceHolder
  3
ObjectDBX Classes
 90
        0
280
     0
281
     0
  0
CLASS
  1
LAYOUT
  2
AcDbLayout
  3
ObjectDBX Classes
 90
        0
280
     0
281
     0
  0
CLASS
  1
DICTIONARYVAR
  2
AcDbDictionaryVar
  3
ObjectDBX Classes
 90
        0
280
     0
281
     0
  0
CLASS
  1
TABLESTYLE
  2
AcDbTableStyle
  3
ObjectDBX Classes
 90
     4095
280
     0
281
     0
  0
CLASS
  1
MATERIAL
  2
AcDbMaterial
  3
ObjectDBX Classes
 90
     1153
280
     0
281
     0
  0
CLASS
  1
VISUALSTYLE
  2
AcDbVisualStyle
  3
ObjectDBX Classes
 90
     4095
280
     0
281
     0
  0
CLASS
  1
SCALE
  2
AcDbScale
  3
ObjectDBX Classes
 90
     1153
280
     0
281
     0
  0
CLASS
  1
MLEADERSTYLE
  2
AcDbMLeaderStyle
  3
ACDB_MLEADERSTYLE_CLASS
 90
     4095
280
     0
281
     0
  0
CLASS
  1
CELLSTYLEMAP
  2
AcDbCellStyleMap
  3
ObjectDBX Classes
 90
     1152
280
     0
281
     0
  0
CLASS
  1
EXACXREFPANELOBJECT
  2
ExAcXREFPanelObject
  3
EXAC_ESW
 90
    33793
280
     0
281
     0
  0
CLASS
  1
NPOCOLLECTION
  2
AcDbImpNonPersistentObjectsCollection
  3
ObjectDBX Classes
 90
    33921
280
     0
281
     0
  0
CLASS
  1
LAYER_INDEX
  2
AcDbLayerIndex
  3
ObjectDBX Classes
 90
    32768
280
     0
281
     0
  0
CLASS
  1
SPATIAL_INDEX
  2
AcDbSpatialIndex
  3
ObjectDBX Classes
 90
    32768
280
     0
281
     0
  0
CLASS
  1
IDBUFFER
  2
AcDbIdBuffer
  3
ObjectDBX Classes
 90
    32768
280
     0
281
     0
  0
CLASS
  1
ACDBSECTIONVIEWSTYLE
  2
AcDbSectionViewStyle
  3
ObjectDBX Classes
 90
     1025
280
     0
281
     0
  0
CLASS
  1
ACDBDETAILVIEWSTYLE
  2
AcDbDetailViewStyle
  3
ObjectDBX Classes
 90
     1025
280
     0
281
     0
  0
CLASS
  1
XRECORD
  2
AcDbXrecord
  3
ObjectDBX Classes
 90
        0
280
     0
281
     0
  0
ENDSEC
  0
SECTION
  2
TABLES
  0
TABLE
  2
VPORT
  5
8
102
{ACAD_XDICTIONARY
360
2A1B5
102
}
330
0
100
AcDbSymbolTable
 70
     1
  0
VPORT
  5
EA
330
8
100
AcDbSymbolTableRecord
100
AcDbViewportTableRecord
  2
*Active
 70
     0
 10
0.0
 20
0.0
 11
1.0
 21
1.0
 12
45.21652300285244
 22
8.306900552714807
 13
0.0
 23
0.0
 14
10.0
 24
10.0
 15
10.0
 25
10.0
 16
0.0
 26
0.0
 36
1.0
 17
0.0
 27
0.0
 37
0.0
 40
691.8476244104803
 41
0.9846153846153846
 42
50.0
 43
0.0
 44
0.0
 50
0.0
 51
0.0
 71
     0
 72
  1000
 73
     1
 74
     3
 75
     0
 76
     1
 77
     0
 78
     0
281
     0
 65
     1
110
0.0
120
0.0
130
0.0
111
1.0
121
0.0
131
0.0
112
0.0
122
1.0
132
0.0
 79
     0
146
0.0
1001
ACAD_NAV_VCDISPLAY
1070
     3
  0
ENDTAB
  0
TABLE
  2
LTYPE
  5
5
330
0
100
AcDbSymbolTable
 70
     1
  0
LTYPE
  5
14
330
5
100
AcDbSymbolTableRecord
100
AcDbLinetypeTableRecord
  2
ByBlock
 70
     0
  3

 72
    65
 73
     0
 40
0.0
  0
LTYPE
  5
15
330
5
100
AcDbSymbolTableRecord
100
AcDbLinetypeTableRecord
  2
ByLayer
 70
     0
  3

 72
    65
 73
     0
 40
0.0
  0
LTYPE
  5
16
330
5
100
AcDbSymbolTableRecord
100
AcDbLinetypeTableRecord
  2
Continuous
 70
     0
  3
Solid line
 72
    65
 73
     0
 40
0.0
  0
ENDTAB
  0
TABLE
  2
LAYER
  5
2
102
{ACAD_XDICTIONARY
360
1FF
102
}
330
0
100
AcDbSymbolTable
 70
     1
  0
LAYER
  5
10
102
{ACAD_XDICTIONARY
360
13C
102
}
330
2
100
AcDbSymbolTableRecord
100
AcDbLayerTableRecord
  2
0
 70
     0
 62
     7
  6
Continuous
370
    -3
390
F
  0
ENDTAB
  0
TABLE
  2
STYLE
  5
3
330
0
100
AcDbSymbolTable
 70
     1
  0
STYLE
  5
11
330
3
100
AcDbSymbolTableRecord
100
AcDbTextStyleTableRecord
  2
Standard
 70
     0
 40
0.0
 41
1.0
 50
0.0
 71
     0
 42
2.5
  3
arial.ttf
  4

1001
ACAD
1000
Arial
1071
       34
  0
ENDTAB
  0
TABLE
  2
VIEW
  5
6
330
0
100
AcDbSymbolTable
 70
     0
  0
ENDTAB
  0
TABLE
  2
UCS
  5
7
330
0
100
AcDbSymbolTable
 70
     0
  0
ENDTAB
  0
TABLE
  2
APPID
  5
9
330
0
100
AcDbSymbolTable
 70
     8
  0
APPID
  5
12
330
9
100
AcDbSymbolTableRecord
100
AcDbRegAppTableRecord
  2
ACAD
 70
     0
  0
APPID
  5
9E
330
9
100
AcDbSymbolTableRecord
100
AcDbRegAppTableRecord
  2
ACAD_PSEXT
 70
     0
  0
APPID
  5
133
330
9
100
AcDbSymbolTableRecord
100
AcDbRegAppTableRecord
  2
AcadAnnoPO
 70
     0
  0
APPID
  5
134
330
9
100
AcDbSymbolTableRecord
100
AcDbRegAppTableRecord
  2
AcadAnnotative
 70
     0
  0
APPID
  5
135
330
9
100
AcDbSymbolTableRecord
100
AcDbRegAppTableRecord
  2
ACAD_DSTYLE_DIMJAG
 70
     0
  0
APPID
  5
136
330
9
100
AcDbSymbolTableRecord
100
AcDbRegAppTableRecord
  2
ACAD_DSTYLE_DIMTALN
 70
     0
  0
APPID
  5
165
330
9
100
AcDbSymbolTableRecord
100
AcDbRegAppTableRecord
  2
ACAD_MLEADERVER
 70
     0
  0
APPID
  5
217
330
9
100
AcDbSymbolTableRecord
100
AcDbRegAppTableRecord
  2
ACAD_NAV_VCDISPLAY
 70
     0
  0
ENDTAB
  0
TABLE
  2
DIMSTYLE
  5
A
330
0
100
AcDbSymbolTable
 70
     1
100
AcDbDimStyleTable
 71
     0
  0
DIMSTYLE
105
27
330
A
100
AcDbSymbolTableRecord
100
AcDbDimStyleTableRecord
  2
ISO-25
 70
     0
 41
2.5
 42
0.625
 43
3.75
 44
1.25
 73
     0
 74
     0
 77
     1
 78
     8
140
2.5
141
2.5
143
0.03937007874016
147
0.625
171
     3
172
     1
271
     2
272
     2
274
     3
278
    44
283
     0
284
     8
340
11
  0
ENDTAB
  0
TABLE
  2
BLOCK_RECORD
  5
1
330
0
100
AcDbSymbolTable
 70
     7
  0
BLOCK_RECORD
  5
1F
102
{ACAD_XDICTIONARY
360
1CE
102
}
330
1
100
AcDbSymbolTableRecord
100
AcDbBlockTableRecord
  2
*Model_Space
340
22
  0
BLOCK_RECORD
  5
D2
102
{ACAD_XDICTIONARY
360
2A168
102
}
330
1
100
AcDbSymbolTableRecord
100
AcDbBlockTableRecord
  2
*Paper_Space
340
D3
  0
BLOCK_RECORD
  5
D6
102
{ACAD_XDICTIONARY
360
2A16A
102
}
330
1
100
AcDbSymbolTableRecord
100
AcDbBlockTableRecord
  2
*Paper_Space0
340
D7
  0
BLOCK_RECORD
  5
29F96
330
1
100
AcDbSymbolTableRecord
100
AcDbBlockTableRecord
  2
SAEL500_120_2-Front
340
0
102
{BLKREFS
331
2A15E
102
}
  0
BLOCK_RECORD
  5
29FFB
330
1
100
AcDbSymbolTableRecord
100
AcDbBlockTableRecord
  2
SAEL500_120_2-Left
340
0
102
{BLKREFS
331
2A15F
102
}
  0
BLOCK_RECORD
  5
2A025
330
1
100
AcDbSymbolTableRecord
100
AcDbBlockTableRecord
  2
SAEL500_120_2-Right
340
0
102
{BLKREFS
331
2A160
102
}
  0
BLOCK_RECORD
  5
2A04D
330
1
100
AcDbSymbolTableRecord
100
AcDbBlockTableRecord
  2
SAEL500_120_2-Top
340
0
102
{BLKREFS
331
2A161
102
}
  0
BLOCK_RECORD
  5
2A086
330
1
100
AcDbSymbolTableRecord
100
AcDbBlockTableRecord
  2
SAEL500_120_2-Bottom
340
0
102
{BLKREFS
331
2A162
102
}
  0
BLOCK_RECORD
  5
2A0AE
330
1
100
AcDbSymbolTableRecord
100
AcDbBlockTableRecord
  2
SAEL500_120_2-ISO
340
0
102
{BLKREFS
331
2A163
102
}
  0
ENDTAB
  0
ENDSEC
  0
SECTION
  2
BLOCKS
  0
BLOCK
  5
20
330
1F
100
AcDbEntity
  8
0
100
AcDbBlockBegin
  2
*Model_Space
 70
     0
 10
0.0
 20
0.0
 30
0.0
  3
*Model_Space
  1

  0
ENDBLK
  5
21
330
1F
100
AcDbEntity
  8
0
100
AcDbBlockEnd
  0
BLOCK
  5
D4
330
D2
100
AcDbEntity
 67
     1
  8
0
100
AcDbBlockBegin
  2
*Paper_Space
 70
     0
 10
0.0
 20
0.0
 30
0.0
  3
*Paper_Space
  1

  0
ENDBLK
  5
D5
330
D2
100
AcDbEntity
 67
     1
  8
0
100
AcDbBlockEnd
  0
BLOCK
  5
D8
330
D6
100
AcDbEntity
 67
     1
  8
0
100
AcDbBlockBegin
  2
*Paper_Space0
 70
     0
 10
0.0
 20
0.0
 30
0.0
  3
*Paper_Space0
  1

  0
ENDBLK
  5
D9
330
D6
100
AcDbEntity
 67
     1
  8
0
100
AcDbBlockEnd
  0
BLOCK
  5
29F97
330
29F96
100
AcDbEntity
  8
0
100
AcDbBlockBegin
  2
SAEL500_120_2-Front
 70
     0
 10
0.0
 20
0.0
 30
0.0
  3
SAEL500_120_2-Front
  1

  0
SPLINE
  5
29F99
330
29F96
100
AcDbEntity
  8
0
100
AcDbSpline
210
0.0
220
0.0
230
1.0
 70
     8
 71
     3
 72
    14
 73
    10
 74
     0
 42
0.000000001
 43
0.0000000001
 40
0.0
 40
0.0
 40
0.0
 40
0.0
 40
0.2870001856762676
 40
0.2870001856762676
 40
0.2870001856762676
 40
0.8282911260758659
 40
0.8282911260758659
 40
0.8282911260758659
 40
0.9976758091537625
 40
0.9976758091537625
 40
0.9976758091537625
 40
0.9976758091537625
 10
64.13175911166533
 20
20.46251060667355
 30
0.0
 10
63.77222392421559
 20
20.39911489184492
 30
0.0
 10
63.46620915170642
 20
20.27267956155332
 30
0.0
 10
63.1820670376894
 20
20.08956682450693
 30
0.0
 10
62.64616650598419
 20
19.74421072168271
 30
0.0
 10
62.2426430999776
 20
19.21065167250962
 30
0.0
 10
62.07927432876505
 20
18.59085729649697
 30
0.0
 10
62.02815178916328
 20
18.39690674953813
 30
0.0
 10
62.00192552936144
 20
18.19430902377226
 30
0.0
 10
62.00006291307007
 20
17.98847480012911
 30
0.0
  0
LINE
  5
29F9A
330
29F96
100
AcDbEntity
  8
0
100
AcDbLine
 10
64.0
 20
20.46251060667355
 30
0.0
 11
64.1317591116654
 21
20.46251060667355
 31
0.0
  0
LINE
  5
29F9B
330
29F96
100
AcDbEntity
  8
0
100
AcDbLine
 10
62.00000000000001
 20
20.46251060667355
 30
0.0
 11
64.0
 21
20.46251060667355
 31
0.0
  0
SPLINE
  5
29F9C
330
29F96
100
AcDbEntity
  8
0
100
AcDbSpline
210
0.0
220
0.0
230
1.0
 70
     8
 71
     3
 72
    10
 73
     6
 74
     0
 42
0.000000001
 43
0.0000000001
 40
0.0
 40
0.0
 40
0.0
 40
0.0
 40
0.0028844360413264
 40
0.0028844360413264
 40
0.0032912788730137
 40
0.0032912788730137
 40
0.0032912788730137
 40
0.0032912788730137
 10
59.99959270886887
 20
17.98000233329964
 30
0.0
 10
59.99959854625098
 20
17.98834960540188
 30
0.0
 10
59.99960626485127
 20
17.9963641425881
 30
0.0
 10
59.99961590361063
 20
18.004767117063
 30
0.0
 10
59.99961710739149
 20
18.00579421058481
 30
0.0
 10
59.99961831519609
 20
18.0068085268623
 30
0.0
  0
SPLINE
  5
29F9D
330
29F96
100
AcDbEntity
  8
0
100
AcDbSpline
210
0.0
220
0.0
230
1.0
 70
     8
 71
     3
 72
    10
 73
     6
 74
     0
 42
0.000000001
 43
0.0000000001
 40
0.0
 40
0.0
 40
0.0
 40
0.0
 40
0.0046978475815972
 40
0.0046978475815972
 40
0.0087436938553029
 40
0.0087436938553029
 40
0.0087436938553029
 40
0.0087436938553029
 10
59.99992652900953
 20
17.97999905598125
 30
0.0
 10
59.99978988754528
 20
17.99211711228552
 30
0.0
 10
59.99965158916175
 20
18.00399109041751
 30
0.0
 10
59.99942742532252
 20
18.0231028195558
 30
0.0
 10
59.99933621634193
 20
18.0308113959747
 30
0.0
 10
59.99926148420718
 20
18.03708584095883
 30
0.0
  0
SPLINE
  5
29F9E
330
29F96
100
AcDbEntity
  8
0
100
AcDbSpline
210
0.0
220
0.0
230
1.0
 70
     8
 71
     3
 72
    36
 73
    32
 74
     0
 42
0.000000001
 43
0.0000000001
 40
0.0071233556606568
 40
0.0071233556606568
 40
0.0071233556606568
 40
0.0071233556606568
 40
0.0372787547237774
 40
0.0372787547237774
 40
0.0477692123393235
 40
0.0477692123393235
 40
0.0570758361861053
 40
0.0570758361861053
 40
0.0618739957760435
 40
0.0618739957760435
 40
0.0638227251967853
 40
0.0638227251967853
 40
0.0647553419814906
 40
0.0647553419814906
 40
0.0656908575378474
 40
0.0656908575378474
 40
0.0666274947984575
 40
0.0666274947984575
 40
0.0685173461729101
 40
0.0685173461729101
 40
0.0722586693044597
 40
0.0722586693044597
 40
0.0782469756033421
 40
0.0782469756033421
 40
0.0962087151164939
 40
0.0962087151164939
 40
0.1500533150680138
 40
0.1500533150680138
 40
0.2503006480424984
 40
0.2503006480424984
 40
0.3078498470140463
 40
0.3078498470140463
 40
0.3078498470140463
 40
0.3078498470140463
 10
59.99994258170065
 20
17.9848646586438
 30
0.0
 10
59.99990121538108
 20
17.9897997443354
 30
0.0
 10
60.00000836543719
 20
17.9794103646824
 30
0.0
 10
59.99998084706497
 20
17.98175335370794
 30
0.0
 10
59.99987044907682
 20
17.99102586072359
 30
0.0
 10
59.99956086262219
 20
18.0150051721621
 30
0.0
 10
59.99937820190601
 20
18.02863812448578
 30
0.0
 10
59.99905252212467
 20
18.05228499981147
 30
0.0
 10
59.99893296745249
 20
18.0608752447296
 30
0.0
 10
59.99872566284229
 20
18.07577910606308
 30
0.0
 10
59.99866008677426
 20
18.08049518122893
 30
0.0
 10
59.99855127253844
 20
18.08835844389628
 30
0.0
 10
59.99851391536658
 20
18.09106358313952
 30
0.0
 10
59.99843568005623
 20
18.09674906099318
 30
0.0
 10
59.99839428731985
 20
18.09976715206155
 30
0.0
 10
59.99831039511589
 20
18.10591349379246
 30
0.0
 10
59.99826733005065
 20
18.10908348348057
 30
0.0
 10
59.99814047312696
 20
18.11847304182156
 30
0.0
 10
59.99805861804644
 20
18.12460192688578
 30
0.0
 10
59.99782965350909
 20
18.14195215828373
 30
0.0
 10
59.99769129849472
 20
18.15272006991779
 30
0.0
 10
59.99735483293368
 20
18.17966389485107
 30
0.0
 10
59.99716836058131
 20
18.19539491294515
 30
0.0
 10
59.99648076815867
 20
18.2569388778899
 30
0.0
 10
59.99609691027814
 20
18.30012367051867
 30
0.0
 10
59.99495934932252
 20
18.47017238465483
 30
0.0
 10
59.99493666337373
 20
18.59632201549304
 30
0.0
 10
59.99650832890247
 20
19.00751939861608
 30
0.0
 10
59.99903981402638
 20
19.31389895543037
 30
0.0
 10
59.99999439371882
 20
19.82088092281657
 30
0.0
 10
59.99999120630242
 20
20.01265870242058
 30
0.0
 10
60.00000003590336
 20
20.20388492605359
 30
0.0
  0
SPLINE
  5
29F9F
330
29F96
100
AcDbEntity
  8
0
100
AcDbSpline
210
0.0
220
0.0
230
1.0
 70
     8
 71
     3
 72
    12
 73
     8
 74
     0
 42
0.000000001
 43
0.0000000001
 40
0.0
 40
0.0
 40
0.0
 40
0.0
 40
0.0034392355014841
 40
0.0034392355014841
 40
0.0064136939998764
 40
0.0064136939998764
 40
0.0082335130289575
 40
0.0082335130289575
 40
0.0082335130289575
 40
0.0082335130289575
 10
59.99994892661193
 20
17.97999999913735
 30
0.0
 10
59.99993669881598
 20
17.98948945981128
 30
0.0
 10
59.99992477166205
 20
17.99810520962318
 30
0.0
 10
59.99990546489854
 20
18.01025377163362
 30
0.0
 10
59.99989752729894
 20
18.01444362572736
 30
0.0
 10
59.99989013718693
 20
18.01801211530253
 30
0.0
 10
59.99988854558512
 20
18.01867506290195
 30
0.0
 10
59.99988854558724
 20
18.01867506201602
 30
0.0
  0
SPLINE
  5
29FA0
330
29F96
100
AcDbEntity
  8
0
100
AcDbSpline
210
0.0
220
0.0
230
1.0
 70
     8
 71
     3
 72
    10
 73
     6
 74
     0
 42
0.000000001
 43
0.0000000001
 40
0.0156910365971014
 40
0.0156910365971014
 40
0.0156910365971014
 40
0.0156910365971014
 40
0.0169445935963074
 40
0.0169445935963074
 40
0.0175113995509424
 40
0.0175113995509424
 40
0.0175113995509424
 40
0.0175113995509424
 10
61.99999999999999
 20
17.99674984246227
 30
0.0
 10
62.00002403353554
 20
17.99290876780381
 30
0.0
 10
62.00005145648654
 20
17.98905309285314
 30
0.0
 10
62.00009524178184
 20
17.98347139384843
 30
0.0
 10
62.00010943729808
 20
17.98173522567033
 30
0.0
 10
62.00012413304989
 20
17.98000322760845
 30
0.0
  0
SPLINE
  5
29FA1
330
29F96
100
AcDbEntity
  8
0
100
AcDbSpline
210
0.0
220
0.0
230
1.0
 70
     8
 71
     3
 72
    14
 73
    10
 74
     0
 42
0.000000001
 43
0.0000000001
 40
0.0126427122933165
 40
0.0126427122933165
 40
0.0126427122933165
 40
0.0126427122933165
 40
0.0127966413388183
 40
0.0127966413388183
 40
0.0130268138848692
 40
0.0130268138848692
 40
0.0131131282059072
 40
0.0131131282059072
 40
0.0131778639230201
 40
0.0131778639230201
 40
0.0131778639230201
 40
0.0131778639230201
 10
62.00000000000002
 20
17.98232313939859
 30
0.0
 10
62.00000401116099
 20
17.98210089555966
 30
0.0
 10
62.00000801918875
 20
17.98187951393972
 30
0.0
 10
62.00001800718189
 20
17.98132951014627
 30
0.0
 10
62.00002398062378
 20
17.98100208015642
 30
0.0
 10
62.00003216736843
 20
17.98055532292666
 30
0.0
 10
62.00003439738125
 20
17.98043383377472
 30
0.0
 10
62.00003829441493
 20
17.98022187911849
 30
0.0
 10
62.00003996280995
 20
17.98013125066384
 30
0.0
 10
62.00004162926962
 20
17.98004083941343
 30
0.0
  0
SPLINE
  5
29FA2
330
29F96
100
AcDbEntity
  8
0
100
AcDbSpline
210
0.0
220
0.0
230
1.0
 70
     8
 71
     3
 72
    11
 73
     7
 74
     0
 42
0.000000001
 43
0.0000000001
 40
-0.9986962150685222
 40
-0.9986962150685222
 40
-0.9986962150685222
 40
-0.9986962150685222
 40
-0.3390351069594717
 40
-0.3390351069594717
 40
-0.3390351069594717
 40
0.0
 40
0.0
 40
0.0
 40
0.0
 10
-62.00000469914204
 20
17.98477084958069
 30
0.0
 10
-62.00160260451595
 20
18.78924511251943
 30
0.0
 10
-62.4105614203078
 20
19.52119533110847
 30
0.0
 10
-63.03132982783153
 20
19.9847620999001
 30
0.0
 10
-63.35037589687319
 20
20.22301384326973
 30
0.0
 10
-63.72934079943483
 20
20.38726839695935
 30
0.0
 10
-64.13175911206898
 20
20.4625106067676
 30
0.0
  0
LINE
  5
29FA3
330
29F96
100
AcDbEntity
  8
0
100
AcDbLine
 10
-64.0
 20
20.46251060667355
 30
0.0
 11
-62.00000000000001
 21
20.46251060667355
 31
0.0
  0
SPLINE
  5
29FA4
330
29F96
100
AcDbEntity
  8
0
100
AcDbSpline
210
0.0
220
0.0
230
1.0
 70
     8
 71
     3
 72
    34
 73
    30
 74
     0
 42
0.000000001
 43
0.0000000001
 40
0.0038131203351333
 40
0.0038131203351333
 40
0.0038131203351333
 40
0.0038131203351333
 40
0.0383813888112678
 40
0.0383813888112678
 40
0.0963711695310056
 40
0.0963711695310056
 40
0.1739469406430178
 40
0.1739469406430178
 40
0.1833097459686399
 40
0.1833097459686399
 40
0.2114141841608444
 40
0.2114141841608444
 40
0.2297535944271868
 40
0.2297535944271868
 40
0.2432952230404091
 40
0.2432952230404091
 40
0.246130469360741
 40
0.246130469360741
 40
0.2481287165863678
 40
0.2481287165863678
 40
0.2510758145090184
 40
0.2510758145090184
 40
0.2536285539775854
 40
0.2536285539775854
 40
0.2567810633648182
 40
0.2567810633648182
 40
0.2617711948084558
 40
0.2617711948084558
 40
0.2691280437465198
 40
0.2691280437465198
 40
0.2691280437465198
 40
0.2691280437465198
 10
-60.00000959943978
 20
20.23185432867377
 30
0.0
 10
-60.00000959944021
 20
20.11712737331204
 30
0.0
 10
-59.99998219075559
 20
20.00269097096798
 30
0.0
 10
-59.99974281208164
 20
19.69942474715039
 30
0.0
 10
-59.99935081065824
 20
19.51262090446604
 30
0.0
 10
-59.99739147471863
 20
19.10081020044847
 30
0.0
 10
-59.99540616736091
 20
18.87760782753164
 30
0.0
 10
-59.99470891146915
 20
18.65156154457685
 30
0.0
 10
-59.9946534231206
 20
18.62751827766663
 30
0.0
 10
-59.99451934112555
 20
18.53263090620352
 30
0.0
 10
-59.99461383920039
 20
18.46474900495662
 30
0.0
 10
-59.99518320816282
 20
18.35316139158042
 30
0.0
 10
-59.99551156134405
 20
18.30930955009606
 30
0.0
 10
-59.99636203817576
 20
18.2276152827813
 30
0.0
 10
-59.99682041434687
 20
18.19050398897379
 30
0.0
 10
-59.99756884210654
 20
18.13857428293453
 30
0.0
 10
-59.99770669087789
 20
18.12923874515089
 30
0.0
 10
-59.99794835529502
 20
18.11318860870255
 30
0.0
 10
-59.99805117544777
 20
18.10644865129942
 30
0.0
 10
-59.99830269655499
 20
18.09011246772865
 30
0.0
 10
-59.99845318167267
 20
18.08047197249159
 30
0.0
 10
-59.99870529224072
 20
18.06438518664766
 30
0.0
 10
-59.99881351976093
 20
18.05750521375525
 30
0.0
 10
-59.99903041707814
 20
18.04369929631949
 30
0.0
 10
-59.99913571125489
 20
18.03698452741588
 30
0.0
 10
-59.99937845301534
 20
18.0214230920237
 30
0.0
 10
-59.99950263405586
 20
18.01337432375775
 30
0.0
 10
-59.99976229621302
 20
17.99633208912212
 30
0.0
 10
-59.99987813844121
 20
17.98849539527828
 30
0.0
 10
-59.99994664421542
 20
17.98377789215302
 30
0.0
  0
SPLINE
  5
29FA5
330
29F96
100
AcDbEntity
  8
0
100
AcDbSpline
210
0.0
220
0.0
230
1.0
 70
     8
 71
     3
 72
     8
 73
     4
 74
     0
 42
0.000000001
 43
0.0000000001
 40
0.0210094136229566
 40
0.0210094136229566
 40
0.0210094136229566
 40
0.0210094136229566
 40
0.0217125573789845
 40
0.0217125573789845
 40
0.0217125573789845
 40
0.0217125573789845
 10
-59.99965587506154
 20
17.98597611296728
 30
0.0
 10
-59.99965360638825
 20
17.98400595582483
 30
0.0
 10
-59.99965137758819
 20
17.98201308554311
 30
0.0
 10
-59.9996491893956
 20
17.98000106675037
 30
0.0
  0
SPLINE
  5
29FA6
330
29F96
100
AcDbEntity
  8
0
100
AcDbSpline
210
0.0
220
0.0
230
1.0
 70
     8
 71
     3
 72
    16
 73
    12
 74
     0
 42
0.000000001
 43
0.0000000001
 40
0.0350596861075928
 40
0.0350596861075928
 40
0.0350596861075928
 40
0.0350596861075928
 40
0.0372059522373612
 40
0.0372059522373612
 40
0.0391199902195918
 40
0.0391199902195918
 40
0.0421214828661077
 40
0.0421214828661077
 40
0.0450583214241356
 40
0.0450583214241356
 40
0.0460521784853572
 40
0.0460521784853572
 40
0.0460521784853572
 40
0.0460521784853572
 10
-59.99871640201259
 20
18.06368531336116
 30
0.0
 10
-59.99874990486755
 20
18.06097378885298
 30
0.0
 10
-59.99879002915196
 20
18.05770231037909
 30
0.0
 10
-59.99888010564855
 20
18.0503058515963
 30
0.0
 10
-59.99892896532158
 20
18.04627663078076
 30
0.0
 10
-59.99906895759725
 20
18.03470639000749
 30
0.0
 10
-59.99917050764709
 20
18.02629544003472
 30
0.0
 10
-59.99938427581827
 20
18.00857667790039
 30
0.0
 10
-59.9994975557152
 20
17.99917981864738
 30
0.0
 10
-59.99964992856899
 20
17.98647462335879
 30
0.0
 10
-59.9996886368434
 20
17.98324126028751
 30
0.0
 10
-59.99972738397225
 20
17.97999676615467
 30
0.0
  0
SPLINE
  5
29FA7
330
29F96
100
AcDbEntity
  8
0
100
AcDbSpline
210
0.0
220
0.0
230
1.0
 70
     8
 71
     3
 72
    14
 73
    10
 74
     0
 42
0.000000001
 43
0.0000000001
 40
0.0155825494533884
 40
0.0155825494533884
 40
0.0155825494533884
 40
0.0155825494533884
 40
0.0158308215897531
 40
0.0158308215897531
 40
0.0198117706801359
 40
0.0198117706801359
 40
0.0218063347116263
 40
0.0218063347116263
 40
0.024885021685502
 40
0.024885021685502
 40
0.024885021685502
 40
0.024885021685502
 10
-59.99988727208457
 20
18.01435631230695
 30
0.0
 10
-59.99988727208467
 20
18.01435631227364
 30
0.0
 10
-59.99988729117121
 20
18.01434976882466
 30
0.0
 10
-59.99988794006117
 20
18.01412363635639
 30
0.0
 10
-59.99989366428621
 20
18.01211133533602
 30
0.0
 10
-59.9999076410705
 20
18.00559555330576
 30
0.0
 10
-59.99991321662197
 20
18.00282369841855
 30
0.0
 10
-59.99992904437497
 20
17.99431731589033
 30
0.0
 10
-59.99994033525297
 20
17.98765587937875
 30
0.0
 10
-59.99995285903593
 20
17.98000045501977
 30
0.0
  0
SPLINE
  5
29FA8
330
29F96
100
AcDbEntity
  8
0
100
AcDbSpline
210
0.0
220
0.0
230
1.0
 70
     8
 71
     3
 72
    10
 73
     6
 74
     0
 42
0.000000001
 43
0.0000000001
 40
0.0
 40
0.0
 40
0.0
 40
0.0
 40
0.0019466740915891
 40
0.0019466740915891
 40
0.0023991238058519
 40
0.0023991238058519
 40
0.0023991238058519
 40
0.0023991238058519
 10
-62.00005163213391
 20
17.97999968278088
 30
0.0
 10
-62.00003469693552
 20
17.98499307473325
 30
0.0
 10
-62.00001897380736
 20
17.99025611760264
 30
0.0
 10
-62.00000472049866
 20
17.99652675571881
 30
0.0
 10
-62.00000238084669
 20
17.99771183423474
 30
0.0
 10
-62.00000014506337
 20
17.99888127645745
 30
0.0
  0
SPLINE
  5
29FA9
330
29F96
100
AcDbEntity
  8
0
100
AcDbSpline
210
0.0
220
0.0
230
1.0
 70
     8
 71
     3
 72
     8
 73
     4
 74
     0
 42
0.000000001
 43
0.0000000001
 40
0.0
 40
0.0
 40
0.0
 40
0.0
 40
0.0008022221655463
 40
0.0008022221655463
 40
0.0008022221655463
 40
0.0008022221655463
 10
-62.00001109133603
 20
17.98000011091739
 30
0.0
 10
-62.00000754539136
 20
17.9810912152724
 30
0.0
 10
-62.00000361733703
 20
17.98235225172916
 30
0.0
 10
-61.99999977258482
 20
17.98359931967111
 30
0.0
  0
SPLINE
  5
29FAA
330
29F96
100
AcDbEntity
  8
0
100
AcDbSpline
210
0.0
220
0.0
230
1.0
 70
     8
 71
     3
 72
     8
 73
     4
 74
     0
 42
0.000000001
 43
0.0000000001
 40
0.0232594386505511
 40
0.0232594386505511
 40
0.0232594386505511
 40
0.0232594386505511
 40
0.0256604915311403
 40
0.0256604915311403
 40
0.0256604915311403
 40
0.0256604915311403
 10
-64.10911466411777
 20
20.45839667554642
 30
0.0
 10
-64.11663896679525
 20
20.45972039686753
 30
0.0
 10
-64.12422157759923
 20
20.46104906648803
 30
0.0
 10
-64.13178374571825
 20
20.4623715152292
 30
0.0
  0
ARC
  5
29FAB
330
29F96
100
AcDbEntity
  8
0
100
AcDbCircle
 10
-57.99999999999998
 20
2.0
 30
0.0
 40
4.000000000000003
100
AcDbArc
 50
180.0
 51
270.0
  0
ARC
  5
29FAC
330
29F96
100
AcDbEntity
  8
0
100
AcDbCircle
 10
-57.99999999999998
 20
2.0
 30
0.0
 40
2.000000000000001
100
AcDbArc
 50
180.0
 51
270.0
  0
ARC
  5
29FAD
330
29F96
100
AcDbEntity
  8
0
100
AcDbCircle
 10
57.99999999999998
 20
2.0
 30
0.0
 40
4.000000000000003
100
AcDbArc
 50
270.0
 51
0.0
  0
LINE
  5
29FAE
330
29F96
100
AcDbEntity
  8
0
100
AcDbLine
 10
64.1317591116654
 20
20.46251060667355
 30
0.0
 11
91.67995039702379
 21
25.32000000000004
 31
0.0
  0
LINE
  5
29FAF
330
29F96
100
AcDbEntity
  8
0
100
AcDbLine
 10
91.67995039702379
 20
25.32000000000004
 30
0.0
 11
101.5
 21
33.55999999999998
 31
0.0
  0
LINE
  5
29FB0
330
29F96
100
AcDbEntity
  8
0
100
AcDbLine
 10
60.0
 20
25.32000000000004
 30
0.0
 11
60.0
 21
33.55999999999998
 31
0.0
  0
LINE
  5
29FB1
330
29F96
100
AcDbEntity
  8
0
100
AcDbLine
 10
61.99999999999999
 20
25.32000000000004
 30
0.0
 11
60.0
 21
25.32000000000004
 31
0.0
  0
LINE
  5
29FB2
330
29F96
100
AcDbEntity
  8
0
100
AcDbLine
 10
61.99999999999999
 20
33.55999999999998
 30
0.0
 11
61.99999999999999
 21
25.32000000000004
 31
0.0
  0
LINE
  5
29FB3
330
29F96
100
AcDbEntity
  8
0
100
AcDbLine
 10
61.99999999999999
 20
33.55999999999998
 30
0.0
 11
60.0
 21
33.55999999999998
 31
0.0
  0
LINE
  5
29FB4
330
29F96
100
AcDbEntity
  8
0
100
AcDbLine
 10
60.0
 20
20.72700107773628
 30
0.0
 11
60.0
 21
25.32000000000004
 31
0.0
  0
LINE
  5
29FB5
330
29F96
100
AcDbEntity
  8
0
100
AcDbLine
 10
61.99999999999999
 20
25.32000000000004
 30
0.0
 11
61.99999999999999
 21
20.72700107773628
 31
0.0
  0
LINE
  5
29FB6
330
29F96
100
AcDbEntity
  8
0
100
AcDbLine
 10
60.0
 20
20.72700107773629
 30
0.0
 11
60.0
 21
15.80296231267525
 31
0.0
  0
LINE
  5
29FB7
330
29F96
100
AcDbEntity
  8
0
100
AcDbLine
 10
62.0
 20
15.80296231267525
 30
0.0
 11
62.0
 21
20.72700107773629
 31
0.0
  0
LINE
  5
29FB8
330
29F96
100
AcDbEntity
  8
0
100
AcDbLine
 10
60.0
 20
33.55999999999998
 30
0.0
 11
60.0
 21
190.0
 31
0.0
  0
LINE
  5
29FB9
330
29F96
100
AcDbEntity
  8
0
100
AcDbLine
 10
61.99999999999999
 20
190.0
 30
0.0
 11
61.99999999999999
 21
33.55999999999998
 31
0.0
  0
LINE
  5
29FBA
330
29F96
100
AcDbEntity
  8
0
100
AcDbLine
 10
60.0
 20
190.0
 30
0.0
 11
61.99999999999999
 21
190.0
 31
0.0
  0
LINE
  5
29FBB
330
29F96
100
AcDbEntity
  8
0
100
AcDbLine
 10
101.5
 20
33.55999999999998
 30
0.0
 11
101.5
 21
190.0
 31
0.0
  0
LINE
  5
29FBC
330
29F96
100
AcDbEntity
  8
0
100
AcDbLine
 10
61.99999999999999
 20
15.80296231267525
 30
0.0
 11
61.99999999999999
 21
1.999999999999999
 31
0.0
  0
LINE
  5
29FBD
330
29F96
100
AcDbEntity
  8
0
100
AcDbLine
 10
59.99999999999999
 20
2.0
 30
0.0
 11
60.0
 21
15.80296231267525
 31
0.0
  0
ARC
  5
29FBE
330
29F96
100
AcDbEntity
  8
0
100
AcDbCircle
 10
57.99999999999998
 20
2.0
 30
0.0
 40
2.000000000000001
100
AcDbArc
 50
270.0
 51
0.0
  0
LINE
  5
29FBF
330
29F96
100
AcDbEntity
  8
0
100
AcDbLine
 10
64.0
 20
190.0
 30
0.0
 11
62.0
 21
190.0
 31
0.0
  0
LINE
  5
29FC0
330
29F96
100
AcDbEntity
  8
0
100
AcDbLine
 10
101.5
 20
190.0
 30
0.0
 11
64.0
 21
190.0
 31
0.0
  0
CIRCLE
  5
29FC1
330
29F96
100
AcDbEntity
  8
0
100
AcDbCircle
 10
82.0
 20
170.0
 30
0.0
 40
6.5
  0
CIRCLE
  5
29FC2
330
29F96
100
AcDbEntity
  8
0
100
AcDbCircle
 10
93.0
 20
175.0
 30
0.0
 40
2.5
  0
CIRCLE
  5
29FC3
330
29F96
100
AcDbEntity
  8
0
100
AcDbCircle
 10
-82.0
 20
40.0
 30
0.0
 40
6.5
  0
CIRCLE
  5
29FC4
330
29F96
100
AcDbEntity
  8
0
100
AcDbCircle
 10
82.0
 20
40.0
 30
0.0
 40
6.5
  0
CIRCLE
  5
29FC5
330
29F96
100
AcDbEntity
  8
0
100
AcDbCircle
 10
-82.0
 20
110.0
 30
0.0
 40
6.5
  0
CIRCLE
  5
29FC6
330
29F96
100
AcDbEntity
  8
0
100
AcDbCircle
 10
82.0
 20
110.0
 30
0.0
 40
6.5
  0
CIRCLE
  5
29FC7
330
29F96
100
AcDbEntity
  8
0
100
AcDbCircle
 10
-82.0
 20
170.0
 30
0.0
 40
6.5
  0
CIRCLE
  5
29FC8
330
29F96
100
AcDbEntity
  8
0
100
AcDbCircle
 10
-71.00000000000001
 20
45.0
 30
0.0
 40
2.5
  0
CIRCLE
  5
29FC9
330
29F96
100
AcDbEntity
  8
0
100
AcDbCircle
 10
-71.00000000000001
 20
65.0
 30
0.0
 40
2.5
  0
CIRCLE
  5
29FCA
330
29F96
100
AcDbEntity
  8
0
100
AcDbCircle
 10
-71.00000000000001
 20
85.0
 30
0.0
 40
2.5
  0
CIRCLE
  5
29FCB
330
29F96
100
AcDbEntity
  8
0
100
AcDbCircle
 10
-71.00000000000001
 20
105.0
 30
0.0
 40
2.5
  0
CIRCLE
  5
29FCC
330
29F96
100
AcDbEntity
  8
0
100
AcDbCircle
 10
-71.00000000000001
 20
125.0
 30
0.0
 40
2.5
  0
CIRCLE
  5
29FCD
330
29F96
100
AcDbEntity
  8
0
100
AcDbCircle
 10
-71.00000000000001
 20
145.0
 30
0.0
 40
2.5
  0
CIRCLE
  5
29FCE
330
29F96
100
AcDbEntity
  8
0
100
AcDbCircle
 10
-71.00000000000001
 20
165.0
 30
0.0
 40
2.5
  0
CIRCLE
  5
29FCF
330
29F96
100
AcDbEntity
  8
0
100
AcDbCircle
 10
71.00000000000001
 20
45.0
 30
0.0
 40
2.5
  0
CIRCLE
  5
29FD0
330
29F96
100
AcDbEntity
  8
0
100
AcDbCircle
 10
71.00000000000001
 20
65.0
 30
0.0
 40
2.5
  0
CIRCLE
  5
29FD1
330
29F96
100
AcDbEntity
  8
0
100
AcDbCircle
 10
71.00000000000001
 20
85.0
 30
0.0
 40
2.5
  0
CIRCLE
  5
29FD2
330
29F96
100
AcDbEntity
  8
0
100
AcDbCircle
 10
71.00000000000001
 20
105.0
 30
0.0
 40
2.5
  0
CIRCLE
  5
29FD3
330
29F96
100
AcDbEntity
  8
0
100
AcDbCircle
 10
71.00000000000001
 20
125.0
 30
0.0
 40
2.5
  0
CIRCLE
  5
29FD4
330
29F96
100
AcDbEntity
  8
0
100
AcDbCircle
 10
71.00000000000001
 20
145.0
 30
0.0
 40
2.5
  0
CIRCLE
  5
29FD5
330
29F96
100
AcDbEntity
  8
0
100
AcDbCircle
 10
71.00000000000001
 20
165.0
 30
0.0
 40
2.5
  0
CIRCLE
  5
29FD6
330
29F96
100
AcDbEntity
  8
0
100
AcDbCircle
 10
-71.00000000000001
 20
185.0
 30
0.0
 40
2.5
  0
CIRCLE
  5
29FD7
330
29F96
100
AcDbEntity
  8
0
100
AcDbCircle
 10
71.00000000000001
 20
185.0
 30
0.0
 40
2.5
  0
CIRCLE
  5
29FD8
330
29F96
100
AcDbEntity
  8
0
100
AcDbCircle
 10
-93.0
 20
35.0
 30
0.0
 40
2.5
  0
CIRCLE
  5
29FD9
330
29F96
100
AcDbEntity
  8
0
100
AcDbCircle
 10
-93.0
 20
55.0
 30
0.0
 40
2.5
  0
CIRCLE
  5
29FDA
330
29F96
100
AcDbEntity
  8
0
100
AcDbCircle
 10
-93.0
 20
75.0
 30
0.0
 40
2.5
  0
CIRCLE
  5
29FDB
330
29F96
100
AcDbEntity
  8
0
100
AcDbCircle
 10
-93.0
 20
95.0
 30
0.0
 40
2.5
  0
CIRCLE
  5
29FDC
330
29F96
100
AcDbEntity
  8
0
100
AcDbCircle
 10
-93.0
 20
115.0
 30
0.0
 40
2.5
  0
CIRCLE
  5
29FDD
330
29F96
100
AcDbEntity
  8
0
100
AcDbCircle
 10
-93.0
 20
135.0
 30
0.0
 40
2.5
  0
CIRCLE
  5
29FDE
330
29F96
100
AcDbEntity
  8
0
100
AcDbCircle
 10
-93.0
 20
155.0
 30
0.0
 40
2.5
  0
CIRCLE
  5
29FDF
330
29F96
100
AcDbEntity
  8
0
100
AcDbCircle
 10
93.0
 20
35.0
 30
0.0
 40
2.5
  0
CIRCLE
  5
29FE0
330
29F96
100
AcDbEntity
  8
0
100
AcDbCircle
 10
93.0
 20
55.0
 30
0.0
 40
2.5
  0
CIRCLE
  5
29FE1
330
29F96
100
AcDbEntity
  8
0
100
AcDbCircle
 10
93.0
 20
75.0
 30
0.0
 40
2.5
  0
CIRCLE
  5
29FE2
330
29F96
100
AcDbEntity
  8
0
100
AcDbCircle
 10
93.0
 20
95.0
 30
0.0
 40
2.5
  0
CIRCLE
  5
29FE3
330
29F96
100
AcDbEntity
  8
0
100
AcDbCircle
 10
93.0
 20
115.0
 30
0.0
 40
2.5
  0
CIRCLE
  5
29FE4
330
29F96
100
AcDbEntity
  8
0
100
AcDbCircle
 10
93.0
 20
135.0
 30
0.0
 40
2.5
  0
CIRCLE
  5
29FE5
330
29F96
100
AcDbEntity
  8
0
100
AcDbCircle
 10
93.0
 20
155.0
 30
0.0
 40
2.5
  0
CIRCLE
  5
29FE6
330
29F96
100
AcDbEntity
  8
0
100
AcDbCircle
 10
-93.0
 20
175.0
 30
0.0
 40
2.5
  0
LINE
  5
29FE7
330
29F96
100
AcDbEntity
  8
0
100
AcDbLine
 10
-101.5
 20
190.0
 30
0.0
 11
-64.0
 21
190.0
 31
0.0
  0
LINE
  5
29FE8
330
29F96
100
AcDbEntity
  8
0
100
AcDbLine
 10
-101.5
 20
33.55999999999998
 30
0.0
 11
-101.5
 21
190.0
 31
0.0
  0
LINE
  5
29FE9
330
29F96
100
AcDbEntity
  8
0
100
AcDbLine
 10
-61.99999999999999
 20
15.80296231267525
 30
0.0
 11
-61.99999999999999
 21
1.999999999999999
 31
0.0
  0
LINE
  5
29FEA
330
29F96
100
AcDbEntity
  8
0
100
AcDbLine
 10
-59.99999999999999
 20
2.0
 30
0.0
 11
-60.0
 21
15.80296231267525
 31
0.0
  0
LINE
  5
29FEB
330
29F96
100
AcDbEntity
  8
0
100
AcDbLine
 10
-101.5
 20
33.55999999999998
 30
0.0
 11
-91.67995039702379
 21
25.32000000000004
 31
0.0
  0
LINE
  5
29FEC
330
29F96
100
AcDbEntity
  8
0
100
AcDbLine
 10
-91.67995039702379
 20
25.32000000000004
 30
0.0
 11
-64.1317591116654
 21
20.46251060667355
 31
0.0
  0
LINE
  5
29FED
330
29F96
100
AcDbEntity
  8
0
100
AcDbLine
 10
-60.0
 20
33.55999999999998
 30
0.0
 11
-60.0
 21
25.32000000000004
 31
0.0
  0
LINE
  5
29FEE
330
29F96
100
AcDbEntity
  8
0
100
AcDbLine
 10
-61.99999999999999
 20
33.55999999999998
 30
0.0
 11
-60.0
 21
33.55999999999998
 31
0.0
  0
LINE
  5
29FEF
330
29F96
100
AcDbEntity
  8
0
100
AcDbLine
 10
-61.99999999999999
 20
25.32000000000004
 30
0.0
 11
-61.99999999999999
 21
33.55999999999998
 31
0.0
  0
LINE
  5
29FF0
330
29F96
100
AcDbEntity
  8
0
100
AcDbLine
 10
-61.99999999999999
 20
25.32000000000004
 30
0.0
 11
-60.0
 21
25.32000000000004
 31
0.0
  0
LINE
  5
29FF1
330
29F96
100
AcDbEntity
  8
0
100
AcDbLine
 10
-60.0
 20
25.32000000000004
 30
0.0
 11
-60.0
 21
20.72700107773628
 31
0.0
  0
LINE
  5
29FF2
330
29F96
100
AcDbEntity
  8
0
100
AcDbLine
 10
-61.99999999999999
 20
20.72700107773628
 30
0.0
 11
-61.99999999999999
 21
25.32000000000004
 31
0.0
  0
LINE
  5
29FF3
330
29F96
100
AcDbEntity
  8
0
100
AcDbLine
 10
-60.0
 20
15.80296231267525
 30
0.0
 11
-60.0
 21
20.72700107773629
 31
0.0
  0
LINE
  5
29FF4
330
29F96
100
AcDbEntity
  8
0
100
AcDbLine
 10
-62.0
 20
20.72700107773629
 30
0.0
 11
-62.0
 21
15.80296231267525
 31
0.0
  0
LINE
  5
29FF5
330
29F96
100
AcDbEntity
  8
0
100
AcDbLine
 10
-60.0
 20
190.0
 30
0.0
 11
-60.0
 21
33.55999999999998
 31
0.0
  0
LINE
  5
29FF6
330
29F96
100
AcDbEntity
  8
0
100
AcDbLine
 10
-61.99999999999999
 20
190.0
 30
0.0
 11
-60.0
 21
190.0
 31
0.0
  0
LINE
  5
29FF7
330
29F96
100
AcDbEntity
  8
0
100
AcDbLine
 10
-61.99999999999999
 20
33.55999999999998
 30
0.0
 11
-61.99999999999999
 21
190.0
 31
0.0
  0
LINE
  5
29FF8
330
29F96
100
AcDbEntity
  8
0
100
AcDbLine
 10
-64.0
 20
190.0
 30
0.0
 11
-62.0
 21
190.0
 31
0.0
  0
LINE
  5
29FF9
330
29F96
100
AcDbEntity
  8
0
100
AcDbLine
 10
-57.99999999999998
 20
0.0
 30
0.0
 11
57.99999999999998
 21
0.0
 31
0.0
  0
LINE
  5
29FFA
330
29F96
100
AcDbEntity
  8
0
100
AcDbLine
 10
57.99999999999998
 20
-2.0
 30
0.0
 11
-58.0
 21
-2.000000000000003
 31
0.0
  0
ENDBLK
  5
29F98
330
29F96
100
AcDbEntity
  8
0
100
AcDbBlockEnd
  0
BLOCK
  5
29FFC
330
29FFB
100
AcDbEntity
  8
0
100
AcDbBlockBegin
  2
SAEL500_120_2-Left
 70
     0
 10
0.0
 20
0.0
 30
0.0
  3
SAEL500_120_2-Left
  1

  0
SPLINE
  5
29FFE
330
29FFB
100
AcDbEntity
  8
0
100
AcDbSpline
210
0.0
220
0.0
230
1.0
 70
     8
 71
     3
 72
    11
 73
     7
 74
     0
 42
0.000000001
 43
0.0000000001
 40
0.0
 40
0.0
 40
0.0
 40
0.0
 40
0.263094554691075
 40
0.263094554691075
 40
0.263094554691075
 40
0.3972400822970567
 40
0.3972400822970567
 40
0.3972400822970567
 40
0.3972400822970567
 10
-0.0000000000000022
 20
20.46251060667355
 30
0.0
 10
0.0000028677165418
 20
20.38069514174212
 30
0.0
 10
0.1353978453775473
 20
20.31746038279976
 30
0.0
 10
0.3412741587538842
 20
20.23491903392545
 30
0.0
 10
0.4462454939146267
 20
20.19283320357805
 30
0.0
 10
0.5677281833514961
 20
20.14503122422293
 30
0.0
 10
0.6963018294752413
 20
20.08521696155124
 30
0.0
  0
SPLINE
  5
29FFF
330
29FFB
100
AcDbEntity
  8
0
100
AcDbSpline
210
0.0
220
0.0
230
1.0
 70
     8
 71
     3
 72
    11
 73
     7
 74
     0
 42
0.000000001
 43
0.0000000001
 40
0.6188797066570552
 40
0.6188797066570552
 40
0.6188797066570552
 40
0.6188797066570552
 40
0.6652191718947334
 40
0.6652191718947334
 40
0.6652191718947334
 40
0.7872173740997477
 40
0.7872173740997477
 40
0.7872173740997477
 40
0.7872173740997477
 10
1.349185177619835
 20
19.66196171570343
 30
0.0
 10
1.392810663156601
 20
19.62165001718067
 30
0.0
 10
1.435424978250129
 20
19.57866354122925
 30
0.0
 10
1.476639799383838
 20
19.53274275134952
 30
0.0
 10
1.585146318756128
 20
19.41184679839826
 30
0.0
 10
1.684106522830592
 20
19.27059179174603
 30
0.0
 10
1.766114387194061
 20
19.10417322243903
 30
0.0
  0
LINE
  5
2A000
330
29FFB
100
AcDbEntity
  8
0
100
AcDbLine
 10
1.538368177338226
 20
20.46251060667355
 30
0.0
 11
1.383941423781129
 21
20.46251060667355
 31
0.0
  0
LINE
  5
2A001
330
29FFB
100
AcDbEntity
  8
0
100
AcDbLine
 10
1.845078367038663
 20
20.46251060667355
 30
0.0
 11
1.69095269440117
 21
20.46251060667355
 31
0.0
  0
LINE
  5
2A002
330
29FFB
100
AcDbEntity
  8
0
100
AcDbLine
 10
0.1517362809765482
 20
20.46251060667355
 30
0.0
 11
0.0
 21
20.46251060667355
 31
0.0
  0
SPLINE
  5
2A003
330
29FFB
100
AcDbEntity
  8
0
100
AcDbSpline
210
0.0
220
0.0
230
1.0
 70
     8
 71
     3
 72
    14
 73
    10
 74
     0
 42
0.000000001
 43
0.0000000001
 40
0.0
 40
0.0
 40
0.0
 40
0.0
 40
0.3894396598111331
 40
0.3894396598111331
 40
0.3894396598111331
 40
0.7616502545627253
 40
0.7616502545627253
 40
0.7616502545627253
 40
0.7796363604594771
 40
0.7796363604594771
 40
0.7796363604594771
 40
0.7796363604594771
 10
0.0000000000000155
 20
20.46251060667357
 30
0.0
 10
0.0000033433566178
 20
20.3377663907858
 30
0.0
 10
0.3049729407906056
 20
20.26547024797306
 30
0.0
 10
0.674391785045483
 20
20.09548616923756
 30
0.0
 10
1.02746729820518
 20
19.93302229723457
 30
0.0
 10
1.439329893780501
 20
19.68674518558447
 30
0.0
 10
1.712905503749275
 20
19.20538682868515
 30
0.0
 10
1.726125331344324
 20
19.18212644194829
 30
0.0
 10
1.738972926415268
 20
19.15845076932675
 30
0.0
 10
1.751430085767144
 20
19.13432463234472
 30
0.0
  0
SPLINE
  5
2A004
330
29FFB
100
AcDbEntity
  8
0
100
AcDbSpline
210
0.0
220
0.0
230
1.0
 70
     8
 71
     3
 72
    11
 73
     7
 74
     0
 42
0.000000001
 43
0.0000000001
 40
-1.0
 40
-1.0
 40
-1.0
 40
-1.0
 40
-0.3390351069594717
 40
-0.3390351069594717
 40
-0.3390351069594717
 40
0.0
 40
0.0
 40
0.0
 40
0.0
 10
2.000000000000074
 20
17.97999999999999
 30
0.0
 10
2.000833819687057
 20
18.78635074313094
 30
0.0
 10
2.000388046962478
 20
19.52027911616044
 30
0.0
 10
2.000035420164045
 20
19.9847620999001
 30
0.0
 10
1.999854543894242
 20
20.22301384326973
 30
0.0
 10
1.999932245803339
 20
20.38726839695935
 30
0.0
 10
1.99999999886216
 20
20.4625106067676
 30
0.0
  0
SPLINE
  5
2A005
330
29FFB
100
AcDbEntity
  8
0
100
AcDbSpline
210
0.0
220
0.0
230
1.0
 70
     8
 71
     3
 72
    16
 73
    12
 74
     0
 42
0.000000001
 43
0.0000000001
 40
0.0
 40
0.0
 40
0.0
 40
0.0
 40
0.0049219032020189
 40
0.0049219032020189
 40
0.0069182730942524
 40
0.0069182730942524
 40
0.0084527696630054
 40
0.0084527696630054
 40
0.0110611390701336
 40
0.0110611390701336
 40
0.0118237511265703
 40
0.0118237511265703
 40
0.0118237511265703
 40
0.0118237511265703
 10
1.999592629282693
 20
17.97999896448487
 30
0.0
 10
1.999557424170091
 20
17.99579405973824
 30
0.0
 10
1.999474683334615
 20
18.01126011189237
 30
0.0
 10
1.999316282387919
 20
18.02942517339382
 30
0.0
 10
1.999265630323708
 20
18.03430639414272
 30
0.0
 10
1.99917605412227
 20
18.04188024794759
 30
0.0
 10
1.999136844730207
 20
18.04484542153432
 30
0.0
 10
1.99904091105414
 20
18.05156638799751
 30
0.0
 10
1.998989908801493
 20
18.05450396996096
 30
0.0
 10
1.998965308987421
 20
18.05587119607792
 30
0.0
 10
1.998962341018928
 20
18.05602864704743
 30
0.0
 10
1.998962340999228
 20
18.0560286480941
 30
0.0
  0
SPLINE
  5
2A006
330
29FFB
100
AcDbEntity
  8
0
100
AcDbSpline
210
0.0
220
0.0
230
1.0
 70
     8
 71
     3
 72
    10
 73
     6
 74
     0
 42
0.000000001
 43
0.0000000001
 40
0.0
 40
0.0
 40
0.0
 40
0.0
 40
0.0032562062888973
 40
0.0032562062888973
 40
0.0033706567292323
 40
0.0033706567292323
 40
0.0033706567292323
 40
0.0033706567292323
 10
1.99998067273664
 20
17.97999980859302
 30
0.0
 10
1.9999342456809
 20
17.98287551784764
 30
0.0
 10
1.99991569100575
 20
17.98388166513415
 30
0.0
 10
1.999914557759818
 20
17.98394613045991
 30
0.0
 10
1.999914538896371
 20
17.98394720217801
 30
0.0
 10
1.999914538896369
 20
17.98394720217812
 30
0.0
  0
SPLINE
  5
2A007
330
29FFB
100
AcDbEntity
  8
0
100
AcDbSpline
210
0.0
220
0.0
230
1.0
 70
     8
 71
     3
 72
     8
 73
     4
 74
     0
 42
0.000000001
 43
0.0000000001
 40
0.028210875574289
 40
0.028210875574289
 40
0.028210875574289
 40
0.028210875574289
 40
0.029900231179248
 40
0.029900231179248
 40
0.029900231179248
 40
0.029900231179248
 10
1.999513557301199
 20
18.00192245323773
 30
0.0
 10
1.999503750292939
 20
18.00232056377174
 30
0.0
 10
1.999498143705818
 20
18.00254454818809
 30
0.0
 10
1.999498143705907
 20
18.00254454818453
 30
0.0
  0
SPLINE
  5
2A008
330
29FFB
100
AcDbEntity
  8
0
100
AcDbSpline
210
0.0
220
0.0
230
1.0
 70
     8
 71
     3
 72
    34
 73
    30
 74
     0
 42
0.000000001
 43
0.0000000001
 40
0.0085780134298806
 40
0.0085780134298806
 40
0.0085780134298806
 40
0.0085780134298806
 40
0.0104272625190043
 40
0.0104272625190043
 40
0.0128592638287115
 40
0.0128592638287115
 40
0.0148362496649238
 40
0.0148362496649238
 40
0.0169851749792287
 40
0.0169851749792287
 40
0.0209646073594119
 40
0.0209646073594119
 40
0.0295841307214256
 40
0.0295841307214256
 40
0.0478975142932821
 40
0.0478975142932821
 40
0.087949999845529
 40
0.087949999845529
 40
0.1313691957431615
 40
0.1313691957431615
 40
0.1471376550044659
 40
0.1471376550044659
 40
0.1510005068890556
 40
0.1510005068890556
 40
0.1532905483650444
 40
0.1532905483650444
 40
0.1546200709900152
 40
0.1546200709900152
 40
0.1552388137648443
 40
0.1552388137648443
 40
0.1552388137648443
 40
0.1552388137648443
 10
1.999517233980829
 20
18.00165054281585
 30
0.0
 10
1.999449934245794
 20
18.0043562709876
 30
0.0
 10
1.99936988288941
 20
18.00745144581044
 30
0.0
 10
1.999146119732064
 20
18.01570913002959
 30
0.0
 10
1.998978576835347
 20
18.02160579688605
 30
0.0
 10
1.998589690652956
 20
18.03403925114009
 30
0.0
 10
1.99838244462521
 20
18.04028350462472
 30
0.0
 10
1.997909809455725
 20
18.05353167757934
 30
0.0
 10
1.997637738913473
 20
18.06065914467879
 30
0.0
 10
1.996807345193655
 20
18.08097405311127
 30
0.0
 10
1.996197105118298
 20
18.09430076919704
 30
0.0
 10
1.994065178085267
 20
18.13618985747221
 30
0.0
 10
1.992295928384512
 20
18.16471066314537
 30
0.0
 10
1.985846221449595
 20
18.25247707783397
 30
0.0
 10
1.980110792181963
 20
18.31072628556285
 30
0.0
 10
1.95722852287888
 20
18.49320188587186
 30
0.0
 10
1.934422901309454
 20
18.61558054863989
 30
0.0
 10
1.86722813013741
 20
18.86572310685884
 30
0.0
 10
1.81994958278329
 20
18.99480629362484
 30
0.0
 10
1.741322544383811
 20
19.15509206468325
 30
0.0
 10
1.718035948899912
 20
19.19785074418387
 30
0.0
 10
1.693534755448824
 20
19.23965910890488
 30
0.0
 10
1.688953480935231
 20
19.24731259656792
 30
0.0
 10
1.683274694420568
 20
19.25668895745632
 30
0.0
 10
1.68150884608857
 20
19.25957582645771
 30
0.0
 10
1.679708594765921
 20
19.26251009567583
 30
0.0
 10
1.679252633974209
 20
19.26325062176464
 30
0.0
 10
1.678933312399955
 20
19.26376912000603
 30
0.0
 10
1.678882176509068
 20
19.26385208153212
 30
0.0
 10
1.678882176241232
 20
19.26385208196672
 30
0.0
  0
LINE
  5
2A009
330
29FFB
100
AcDbEntity
  8
0
100
AcDbLine
 10
2.000000000000063
 20
1.999999999999999
 30
0.0
 11
2.000000000000059
 21
-2.0
 31
0.0
  0
LINE
  5
2A00A
330
29FFB
100
AcDbEntity
  8
0
100
AcDbLine
 10
2.000000000000063
 20
2.0
 30
0.0
 11
2.000000000000063
 21
17.97999999999997
 31
0.0
  0
LINE
  5
2A00B
330
29FFB
100
AcDbEntity
  8
0
100
AcDbLine
 10
2.000000000000006
 20
-2.0
 30
0.0
 11
86.00000000000001
 21
-2.000000000000003
 31
0.0
  0
LINE
  5
2A00C
330
29FFB
100
AcDbEntity
  8
0
100
AcDbLine
 10
86.00000000000001
 20
-2.000000000000003
 30
0.0
 11
86.00000000000001
 21
2.0
 31
0.0
  0
LINE
  5
2A00D
330
29FFB
100
AcDbEntity
  8
0
100
AcDbLine
 10
1.999999999999984
 20
33.55999999999998
 30
0.0
 11
2.00000000000001
 21
190.0
 31
0.0
  0
LINE
  5
2A00E
330
29FFB
100
AcDbEntity
  8
0
100
AcDbLine
 10
0.0
 20
190.0
 30
0.0
 11
2.00000000000001
 21
190.0
 31
0.0
  0
LINE
  5
2A00F
330
29FFB
100
AcDbEntity
  8
0
100
AcDbLine
 10
0.0
 20
33.55999999999998
 30
0.0
 11
0.0
 21
190.0
 31
0.0
  0
LINE
  5
2A010
330
29FFB
100
AcDbEntity
  8
0
100
AcDbLine
 10
4.000000000000003
 20
190.0
 30
0.0
 11
46.00000000000001
 21
190.0
 31
0.0
  0
LINE
  5
2A011
330
29FFB
100
AcDbEntity
  8
0
100
AcDbLine
 10
86.00000000000006
 20
15.80296231267525
 30
0.0
 11
86.00000000000001
 21
1.999999999999999
 31
0.0
  0
LINE
  5
2A012
330
29FFB
100
AcDbEntity
  8
0
100
AcDbLine
 10
1.999999999999984
 20
33.55999999999998
 30
0.0
 11
1.999999999999984
 21
25.32000000000004
 31
0.0
  0
LINE
  5
2A013
330
29FFB
100
AcDbEntity
  8
0
100
AcDbLine
 10
1.999999999999984
 20
25.32000000000004
 30
0.0
 11
2.000000000000005
 21
20.46251060667355
 31
0.0
  0
LINE
  5
2A014
330
29FFB
100
AcDbEntity
  8
0
100
AcDbLine
 10
0.0
 20
20.46251060667355
 30
0.0
 11
0.0
 21
25.32000000000004
 31
0.0
  0
LINE
  5
2A015
330
29FFB
100
AcDbEntity
  8
0
100
AcDbLine
 10
1.999999999999984
 20
25.32000000000004
 30
0.0
 11
0.0
 21
25.32000000000004
 31
0.0
  0
LINE
  5
2A016
330
29FFB
100
AcDbEntity
  8
0
100
AcDbLine
 10
0.0
 20
25.32000000000004
 30
0.0
 11
0.0
 21
33.55999999999998
 31
0.0
  0
LINE
  5
2A017
330
29FFB
100
AcDbEntity
  8
0
100
AcDbLine
 10
0.0
 20
33.55999999999998
 30
0.0
 11
1.999999999999984
 21
33.55999999999998
 31
0.0
  0
LINE
  5
2A018
330
29FFB
100
AcDbEntity
  8
0
100
AcDbLine
 10
55.82004960297631
 20
25.32000000000004
 30
0.0
 11
46.00000000000004
 21
33.55999999999998
 31
0.0
  0
LINE
  5
2A019
330
29FFB
100
AcDbEntity
  8
0
100
AcDbLine
 10
81.8682408883347
 20
20.72700107773628
 30
0.0
 11
55.82004960297631
 21
25.32000000000004
 31
0.0
  0
ARC
  5
2A01A
330
29FFB
100
AcDbEntity
  8
0
100
AcDbCircle
 10
81.00000000000006
 20
15.80296231267525
 30
0.0
 40
5.0
100
AcDbArc
 50
0.0
 51
80.00000000000003
  0
LINE
  5
2A01B
330
29FFB
100
AcDbEntity
  8
0
100
AcDbLine
 10
46.00000000000004
 20
33.55999999999998
 30
0.0
 11
46.00000000000001
 21
190.0
 31
0.0
  0
LINE
  5
2A01C
330
29FFB
100
AcDbEntity
  8
0
100
AcDbLine
 10
2.000000000000002
 20
190.0
 30
0.0
 11
4.000000000000003
 21
190.0
 31
0.0
  0
CIRCLE
  5
2A01D
330
29FFB
100
AcDbEntity
  8
0
100
AcDbCircle
 10
38.50000000000001
 20
45.0
 30
0.0
 40
2.5
  0
CIRCLE
  5
2A01E
330
29FFB
100
AcDbEntity
  8
0
100
AcDbCircle
 10
38.50000000000001
 20
65.0
 30
0.0
 40
2.5
  0
CIRCLE
  5
2A01F
330
29FFB
100
AcDbEntity
  8
0
100
AcDbCircle
 10
38.50000000000001
 20
85.0
 30
0.0
 40
2.5
  0
CIRCLE
  5
2A020
330
29FFB
100
AcDbEntity
  8
0
100
AcDbCircle
 10
38.50000000000001
 20
105.0
 30
0.0
 40
2.5
  0
CIRCLE
  5
2A021
330
29FFB
100
AcDbEntity
  8
0
100
AcDbCircle
 10
38.50000000000001
 20
125.0
 30
0.0
 40
2.5
  0
CIRCLE
  5
2A022
330
29FFB
100
AcDbEntity
  8
0
100
AcDbCircle
 10
38.50000000000001
 20
145.0
 30
0.0
 40
2.5
  0
CIRCLE
  5
2A023
330
29FFB
100
AcDbEntity
  8
0
100
AcDbCircle
 10
38.50000000000001
 20
165.0
 30
0.0
 40
2.5
  0
CIRCLE
  5
2A024
330
29FFB
100
AcDbEntity
  8
0
100
AcDbCircle
 10
38.50000000000001
 20
185.0
 30
0.0
 40
2.5
  0
ENDBLK
  5
29FFD
330
29FFB
100
AcDbEntity
  8
0
100
AcDbBlockEnd
  0
BLOCK
  5
2A026
330
2A025
100
AcDbEntity
  8
0
100
AcDbBlockBegin
  2
SAEL500_120_2-Right
 70
     0
 10
0.0
 20
0.0
 30
0.0
  3
SAEL500_120_2-Right
  1

  0
SPLINE
  5
2A028
330
2A025
100
AcDbEntity
  8
0
100
AcDbSpline
210
0.0
220
0.0
230
1.0
 70
     8
 71
     3
 72
    17
 73
    13
 74
     0
 42
0.000000001
 43
0.0000000001
 40
0.0
 40
0.0
 40
0.0
 40
0.0
 40
0.263094554691075
 40
0.263094554691075
 40
0.263094554691075
 40
0.6652191718947334
 40
0.6652191718947334
 40
0.6652191718947334
 40
0.9355086585100975
 40
0.9355086585100975
 40
0.9355086585100975
 40
1.0
 40
1.0
 40
1.0
 40
1.0
 10
0.0000000000000022
 20
20.46251060667355
 30
0.0
 10
-0.0000028677165418
 20
20.38069514174212
 30
0.0
 10
-0.1353978453775473
 20
20.31746038279976
 30
0.0
 10
-0.3412741587538842
 20
20.23491903392545
 30
0.0
 10
-0.6559440454224596
 20
20.10875941667862
 30
0.0
 10
-1.118985819423057
 20
19.93123418747989
 30
0.0
 10
-1.476639799383838
 20
19.53274275134952
 30
0.0
 10
-1.717038189568893
 20
19.26489532026885
 30
0.0
 10
-1.91057820522258
 20
18.89711486438631
 30
0.0
 10
-1.976719719936448
 20
18.37715260124018
 30
0.0
 10
-1.99250115141381
 20
18.25308908587993
 30
0.0
 10
-1.999065688200383
 20
18.11964286486123
 30
0.0
 10
-1.999999999999904
 20
17.97999999999995
 30
0.0
  0
SPLINE
  5
2A029
330
2A025
100
AcDbEntity
  8
0
100
AcDbSpline
210
0.0
220
0.0
230
1.0
 70
     8
 71
     3
 72
    14
 73
    10
 74
     0
 42
0.000000001
 43
0.0000000001
 40
0.0
 40
0.0
 40
0.0
 40
0.0
 40
0.2870001856762676
 40
0.2870001856762676
 40
0.2870001856762676
 40
0.8282911260758659
 40
0.8282911260758659
 40
0.8282911260758659
 40
1.0
 40
1.0
 40
1.0
 40
1.0
 10
-1.999999999999985
 20
20.46251060667355
 30
0.0
 10
-2.000346318720898
 20
20.39911489184492
 30
0.0
 10
-2.000215842365164
 20
20.27267956155332
 30
0.0
 10
-2.000098106197932
 20
20.08956682450693
 30
0.0
 10
-1.999876052262564
 20
19.74421072168271
 30
0.0
 10
-2.000046339025919
 20
19.21065167250962
 30
0.0
 10
-2.000163544094235
 20
18.59085729649697
 30
0.0
 10
-2.000200724007654
 20
18.39424548124826
 30
0.0
 10
-2.000026720759639
 20
18.18874755675958
 30
0.0
 10
-2.000000000000087
 20
17.97999999999992
 30
0.0
  0
SPLINE
  5
2A02A
330
2A025
100
AcDbEntity
  8
0
100
AcDbSpline
210
0.0
220
0.0
230
1.0
 70
     8
 71
     3
 72
     8
 73
     4
 74
     0
 42
0.000000001
 43
0.0000000001
 40
0.3972932997877631
 40
0.3972932997877631
 40
0.3972932997877631
 40
0.3972932997877631
 40
0.6189293334766102
 40
0.6189293334766102
 40
0.6189293334766102
 40
0.6189293334766102
 10
-0.6968181212833856
 20
20.08508884644326
 30
0.0
 10
-0.9084849813274303
 20
19.98620213204274
 30
0.0
 10
-1.139521640136128
 20
19.85646596559992
 30
0.0
 10
-1.348319373722752
 20
19.66394276772504
 30
0.0
  0
SPLINE
  5
2A02B
330
2A025
100
AcDbEntity
  8
0
100
AcDbSpline
210
0.0
220
0.0
230
1.0
 70
     8
 71
     3
 72
     8
 73
     4
 74
     0
 42
0.000000001
 43
0.0000000001
 40
0.8191480548241267
 40
0.8191480548241267
 40
0.8191480548241267
 40
0.8191480548241267
 40
0.9812142248974076
 40
0.9812142248974076
 40
0.9812142248974076
 40
0.9812142248974076
 10
-1.827681793754993
 20
18.96842986449821
 30
0.0
 10
-1.923680180872607
 20
18.73167502667059
 30
0.0
 10
-1.984731782003649
 20
18.45207186726976
 30
0.0
 10
-1.997519385883112
 20
18.10388428911615
 30
0.0
  0
SPLINE
  5
2A02C
330
2A025
100
AcDbEntity
  8
0
100
AcDbSpline
210
0.0
220
0.0
230
1.0
 70
     8
 71
     3
 72
    10
 73
     6
 74
     0
 42
0.000000001
 43
0.0000000001
 40
0.022411121246266
 40
0.022411121246266
 40
0.022411121246266
 40
0.022411121246266
 40
0.0241470252925385
 40
0.0241470252925385
 40
0.0247250356544288
 40
0.0247250356544288
 40
0.0247250356544288
 40
0.0247250356544288
 10
-1.999514409893154
 20
18.00173110007837
 30
0.0
 10
-1.999540945610071
 20
17.99647013088635
 30
0.0
 10
-1.99956248920844
 20
17.9910399742407
 30
0.0
 10
-1.999583768269616
 20
17.98369941443962
 30
0.0
 10
-1.999588494922662
 20
17.9818538828668
 30
0.0
 10
-1.999592629282693
 20
17.97999896448487
 30
0.0
  0
SPLINE
  5
2A02D
330
2A025
100
AcDbEntity
  8
0
100
AcDbSpline
210
0.0
220
0.0
230
1.0
 70
     8
 71
     3
 72
    12
 73
     8
 74
     0
 42
0.000000001
 43
0.0000000001
 40
0.0074208321099711
 40
0.0074208321099711
 40
0.0074208321099711
 40
0.0074208321099711
 40
0.0084086735868283
 40
0.0084086735868283
 40
0.0142507985346397
 40
0.0142507985346397
 40
0.0220571936988733
 40
0.0220571936988733
 40
0.0220571936988733
 40
0.0220571936988733
 10
-1.999498143705871
 20
18.00254454818599
 30
0.0
 10
-1.999498143706025
 20
18.00254454817978
 30
0.0
 10
-1.999500080887662
 20
18.00246675351059
 30
0.0
 10
-1.999524651211042
 20
18.00147487178446
 30
0.0
 10
-1.999601203652742
 20
17.99835646026917
 30
0.0
 10
-1.999787162190369
 20
17.99013470756823
 30
0.0
 10
-1.999889387492885
 20
17.98504268937662
 30
0.0
 10
-1.999937592864606
 20
17.98250337807327
 30
0.0
  0
SPLINE
  5
2A02E
330
2A025
100
AcDbEntity
  8
0
100
AcDbSpline
210
0.0
220
0.0
230
1.0
 70
     8
 71
     3
 72
     8
 73
     4
 74
     0
 42
0.000000001
 43
0.0000000001
 40
0.0339348570906533
 40
0.0339348570906533
 40
0.0339348570906533
 40
0.0339348570906533
 40
0.0362485493158454
 40
0.0362485493158454
 40
0.0362485493158454
 40
0.0362485493158454
 10
-1.99991453889637
 20
17.98394720217801
 30
0.0
 10
-1.999914538901206
 20
17.98394720190324
 30
0.0
 10
-1.999922915060811
 20
17.9834909096881
 30
0.0
 10
-1.999944041033878
 20
17.98223419251533
 30
0.0
  0
SPLINE
  5
2A02F
330
2A025
100
AcDbEntity
  8
0
100
AcDbSpline
210
0.0
220
0.0
230
1.0
 70
     8
 71
     3
 72
     8
 73
     4
 74
     0
 42
0.000000001
 43
0.0000000001
 40
0.0315135455761845
 40
0.0315135455761845
 40
0.0315135455761845
 40
0.0315135455761845
 40
0.0522786779072208
 40
0.0522786779072208
 40
0.0522786779072208
 40
0.0522786779072208
 10
-1.999919449692548
 20
17.98475932440687
 30
0.0
 10
-1.999919449695036
 20
17.98475932420922
 30
0.0
 10
-1.999932383618264
 20
17.98414031972706
 30
0.0
 10
-1.999960619753148
 20
17.97999974616442
 30
0.0
  0
SPLINE
  5
2A030
330
2A025
100
AcDbEntity
  8
0
100
AcDbSpline
210
0.0
220
0.0
230
1.0
 70
     8
 71
     3
 72
    26
 73
    22
 74
     0
 42
0.000000001
 43
0.0000000001
 40
0.1833584780330568
 40
0.1833584780330568
 40
0.1833584780330568
 40
0.1833584780330568
 40
0.2176281745553485
 40
0.2176281745553485
 40
0.254691607557696
 40
0.254691607557696
 40
0.281482049301228
 40
0.281482049301228
 40
0.2880580140849159
 40
0.2880580140849159
 40
0.2900741314565814
 40
0.2900741314565814
 40
0.2914829186181673
 40
0.2914829186181673
 40
0.2933716865755857
 40
0.2933716865755857
 40
0.2953861954534002
 40
0.2953861954534002
 40
0.2989603162939485
 40
0.2989603162939485
 40
0.3016302899225312
 40
0.3016302899225312
 40
0.3016302899225312
 40
0.3016302899225312
 10
-1.803596783544786
 20
19.0222736061705
 30
0.0
 10
-1.845091265347681
 20
18.9253084687171
 30
0.0
 10
-1.879194563420147
 20
18.82363779717131
 30
0.0
 10
-1.935236639319689
 20
18.6094893856638
 30
0.0
 10
-1.956353271749818
 20
18.49622288295048
 30
0.0
 10
-1.982146880962455
 20
18.29699910063789
 30
0.0
 10
-1.989919025647727
 20
18.21070224533647
 30
0.0
 10
-1.995959407559715
 20
18.10003353836602
 30
0.0
 10
-1.996985155817564
 20
18.07772870838
 30
0.0
 10
-1.998056049205972
 20
18.04955353902708
 30
0.0
 10
-1.998289665051357
 20
18.0429676710103
 30
0.0
 10
-1.998638637167007
 20
18.03248398800399
 30
0.0
 10
-1.99876960642164
 20
18.02834088002534
 30
0.0
 10
-1.999035883723107
 20
18.01956651660664
 30
0.0
 10
-1.999159801008319
 20
18.01518773593446
 30
0.0
 10
-1.99936751960444
 20
18.00755419995122
 30
0.0
 10
-1.999451677050314
 20
18.00426913179676
 30
0.0
 10
-1.999651233916104
 20
17.99621771300801
 30
0.0
 10
-1.999745232829613
 20
17.99205453691121
 30
0.0
 10
-1.999867174627091
 20
17.98644698776447
 30
0.0
 10
-1.999906572285448
 20
17.98455226502101
 30
0.0
 10
-1.999937082341619
 20
17.98304717970681
 30
0.0
  0
LINE
  5
2A031
330
2A025
100
AcDbEntity
  8
0
100
AcDbLine
 10
-1.999999999999937
 20
17.97999999999996
 30
0.0
 11
-1.999999999999937
 21
1.999999999999995
 31
0.0
  0
LINE
  5
2A032
330
2A025
100
AcDbEntity
  8
0
100
AcDbLine
 10
-1.999999999999941
 20
-2.000000000000003
 30
0.0
 11
-1.999999999999937
 21
1.999999999999996
 31
0.0
  0
LINE
  5
2A033
330
2A025
100
AcDbEntity
  8
0
100
AcDbLine
 10
-86.00000000000001
 20
-2.000000000000003
 30
0.0
 11
-86.00000000000001
 21
2.0
 31
0.0
  0
LINE
  5
2A034
330
2A025
100
AcDbEntity
  8
0
100
AcDbLine
 10
-2.000000000000006
 20
-2.0
 30
0.0
 11
-86.00000000000001
 21
-2.0
 31
0.0
  0
LINE
  5
2A035
330
2A025
100
AcDbEntity
  8
0
100
AcDbLine
 10
0.0
 20
33.55999999999998
 30
0.0
 11
0.0
 21
190.0
 31
0.0
  0
LINE
  5
2A036
330
2A025
100
AcDbEntity
  8
0
100
AcDbLine
 10
0.0
 20
33.55999999999998
 30
0.0
 11
0.0
 21
25.32000000000004
 31
0.0
  0
LINE
  5
2A037
330
2A025
100
AcDbEntity
  8
0
100
AcDbLine
 10
0.0
 20
25.32000000000004
 30
0.0
 11
0.0
 21
20.46251060667355
 31
0.0
  0
CIRCLE
  5
2A038
330
2A025
100
AcDbEntity
  8
0
100
AcDbCircle
 10
-38.50000000000004
 20
175.0
 30
0.0
 40
2.5
  0
LINE
  5
2A039
330
2A025
100
AcDbEntity
  8
0
100
AcDbLine
 10
-1.999999999999984
 20
25.32000000000004
 30
0.0
 11
0.0
 21
25.32000000000004
 31
0.0
  0
LINE
  5
2A03A
330
2A025
100
AcDbEntity
  8
0
100
AcDbLine
 10
-2.000000000000005
 20
20.46251060667355
 30
0.0
 11
-1.999999999999984
 21
25.32000000000004
 31
0.0
  0
LINE
  5
2A03B
330
2A025
100
AcDbEntity
  8
0
100
AcDbLine
 10
-1.999999999999984
 20
33.55999999999998
 30
0.0
 11
0.0
 21
33.55999999999998
 31
0.0
  0
LINE
  5
2A03C
330
2A025
100
AcDbEntity
  8
0
100
AcDbLine
 10
-1.999999999999984
 20
25.32000000000004
 30
0.0
 11
-1.999999999999984
 21
33.55999999999998
 31
0.0
  0
LINE
  5
2A03D
330
2A025
100
AcDbEntity
  8
0
100
AcDbLine
 10
-46.00000000000004
 20
33.55999999999998
 30
0.0
 11
-55.82004960297631
 21
25.32000000000004
 31
0.0
  0
LINE
  5
2A03E
330
2A025
100
AcDbEntity
  8
0
100
AcDbLine
 10
-55.82004960297631
 20
25.32000000000004
 30
0.0
 11
-81.8682408883347
 21
20.72700107773628
 31
0.0
  0
ARC
  5
2A03F
330
2A025
100
AcDbEntity
  8
0
100
AcDbCircle
 10
-81.00000000000006
 20
15.80296231267525
 30
0.0
 40
5.0
100
AcDbArc
 50
100.0
 51
180.0
  0
LINE
  5
2A040
330
2A025
100
AcDbEntity
  8
0
100
AcDbLine
 10
-46.00000000000001
 20
190.0
 30
0.0
 11
-46.00000000000004
 21
33.55999999999998
 31
0.0
  0
LINE
  5
2A041
330
2A025
100
AcDbEntity
  8
0
100
AcDbLine
 10
0.0
 20
190.0
 30
0.0
 11
-2.00000000000001
 21
190.0
 31
0.0
  0
LINE
  5
2A042
330
2A025
100
AcDbEntity
  8
0
100
AcDbLine
 10
-1.999999999999984
 20
33.55999999999998
 30
0.0
 11
-2.00000000000001
 21
190.0
 31
0.0
  0
LINE
  5
2A043
330
2A025
100
AcDbEntity
  8
0
100
AcDbLine
 10
-86.00000000000006
 20
15.80296231267525
 30
0.0
 11
-86.00000000000001
 21
1.999999999999999
 31
0.0
  0
LINE
  5
2A044
330
2A025
100
AcDbEntity
  8
0
100
AcDbLine
 10
-4.000000000000003
 20
190.0
 30
0.0
 11
-46.00000000000001
 21
190.0
 31
0.0
  0
LINE
  5
2A045
330
2A025
100
AcDbEntity
  8
0
100
AcDbLine
 10
-2.000000000000002
 20
190.0
 30
0.0
 11
-4.000000000000003
 21
190.0
 31
0.0
  0
CIRCLE
  5
2A046
330
2A025
100
AcDbEntity
  8
0
100
AcDbCircle
 10
-38.50000000000004
 20
35.0
 30
0.0
 40
2.5
  0
CIRCLE
  5
2A047
330
2A025
100
AcDbEntity
  8
0
100
AcDbCircle
 10
-38.50000000000004
 20
55.0
 30
0.0
 40
2.5
  0
CIRCLE
  5
2A048
330
2A025
100
AcDbEntity
  8
0
100
AcDbCircle
 10
-38.50000000000004
 20
75.0
 30
0.0
 40
2.5
  0
CIRCLE
  5
2A049
330
2A025
100
AcDbEntity
  8
0
100
AcDbCircle
 10
-38.50000000000004
 20
95.0
 30
0.0
 40
2.5
  0
CIRCLE
  5
2A04A
330
2A025
100
AcDbEntity
  8
0
100
AcDbCircle
 10
-38.50000000000004
 20
115.0
 30
0.0
 40
2.5
  0
CIRCLE
  5
2A04B
330
2A025
100
AcDbEntity
  8
0
100
AcDbCircle
 10
-38.50000000000004
 20
135.0
 30
0.0
 40
2.5
  0
CIRCLE
  5
2A04C
330
2A025
100
AcDbEntity
  8
0
100
AcDbCircle
 10
-38.50000000000004
 20
155.0
 30
0.0
 40
2.5
  0
ENDBLK
  5
2A027
330
2A025
100
AcDbEntity
  8
0
100
AcDbBlockEnd
  0
BLOCK
  5
2A04E
330
2A04D
100
AcDbEntity
  8
0
100
AcDbBlockBegin
  2
SAEL500_120_2-Top
 70
     0
 10
0.0
 20
0.0
 30
0.0
  3
SAEL500_120_2-Top
  1

  0
SPLINE
  5
2A050
330
2A04D
100
AcDbEntity
  8
0
100
AcDbSpline
210
0.0
220
0.0
230
1.0
 70
     8
 71
     3
 72
    14
 73
    10
 74
     0
 42
0.000000001
 43
0.0000000001
 40
0.5188985697045948
 40
0.5188985697045948
 40
0.5188985697045948
 40
0.5188985697045948
 40
0.6652191718947334
 40
0.6652191718947334
 40
0.6652191718947334
 40
0.9355086585100975
 40
0.9355086585100975
 40
0.9355086585100975
 40
1.0
 40
1.0
 40
1.0
 40
1.0
 10
61.28994262301978
 20
-1.05658746507838
 30
0.0
 10
61.0601101759526
 20
-1.202408152824042
 30
0.0
 10
60.85050242193311
 20
-1.34650067463322
 30
0.0
 10
60.66915930668857
 20
-1.476639799383838
 30
0.0
 10
60.33417478101676
 20
-1.717038189568893
 30
0.0
 10
60.10858645398247
 20
-1.91057820522258
 30
0.0
 10
60.02755061003591
 20
-1.976719719936448
 30
0.0
 10
60.00821537672615
 20
-1.99250115141381
 30
0.0
 10
60.00000613706451
 20
-1.999065688200383
 30
0.0
 10
59.99999999999996
 20
-1.999999999999904
 30
0.0
  0
LINE
  5
2A051
330
2A04D
100
AcDbEntity
  8
0
100
AcDbLine
 10
59.99999999999996
 20
-1.999999999999939
 30
0.0
 11
59.99999999999996
 21
-2.072029101524059
 31
0.0
  0
LINE
  5
2A052
330
2A04D
100
AcDbEntity
  8
0
100
AcDbLine
 10
64.13175911166533
 20
-1.999999999999985
 30
0.0
 11
64.13050953112473
 21
-2.000001201934007
 31
0.0
  0
SPLINE
  5
2A053
330
2A04D
100
AcDbEntity
  8
0
100
AcDbSpline
210
0.0
220
0.0
230
1.0
 70
     8
 71
     3
 72
    12
 73
     8
 74
     0
 42
0.000000001
 43
0.0000000001
 40
0.0
 40
0.0
 40
0.0
 40
0.0
 40
0.0081092467332072
 40
0.0081092467332072
 40
0.0105805684224074
 40
0.0105805684224074
 40
0.0106501728829898
 40
0.0106501728829898
 40
0.0106501728829898
 40
0.0106501728829898
 10
59.9999463233752
 20
-3.999998955333258
 30
0.0
 10
59.99998260335331
 20
-3.987607869026113
 30
0.0
 10
60.0000288865467
 20
-3.975891037711568
 30
0.0
 10
60.00006245390359
 20
-3.968408383102728
 30
0.0
 10
60.00006754895302
 20
-3.967305465517137
 30
0.0
 10
60.00006781890089
 20
-3.967245381534851
 30
0.0
 10
60.00006782260905
 20
-3.9672445545546
 30
0.0
 10
60.00006782260732
 20
-3.967244554942483
 30
0.0
  0
SPLINE
  5
2A054
330
2A04D
100
AcDbEntity
  8
0
100
AcDbSpline
210
0.0
220
0.0
230
1.0
 70
     8
 71
     3
 72
    28
 73
    24
 74
     0
 42
0.000000001
 43
0.0000000001
 40
0.00429068820268
 40
0.00429068820268
 40
0.00429068820268
 40
0.00429068820268
 40
0.0051875119920505
 40
0.0051875119920505
 40
0.0061261831289624
 40
0.0061261831289624
 40
0.0079766726048056
 40
0.0079766726048056
 40
0.0112142455753132
 40
0.0112142455753132
 40
0.0209239044935439
 40
0.0209239044935439
 40
0.0500590296845823
 40
0.0500590296845823
 40
0.1374916500400727
 40
0.1374916500400727
 40
0.1778987842741829
 40
0.1778987842741829
 40
0.1981472383462799
 40
0.1981472383462799
 40
0.2084535244898615
 40
0.2084535244898615
 40
0.2192721316358936
 40
0.2192721316358936
 40
0.2192721316358936
 40
0.2192721316358936
 10
59.99995503002601
 20
-3.99707484708173
 30
0.0
 10
59.99994485170225
 20
-3.996408617051907
 30
0.0
 10
59.99993011465953
 20
-3.995442924427246
 30
0.0
 10
59.99988166929028
 20
-3.992255483392499
 30
0.0
 10
59.99984656471792
 20
-3.989938701185013
 30
0.0
 10
59.99973524230385
 20
-3.982541375607164
 30
0.0
 10
59.9996525614291
 20
-3.976985592667695
 30
0.0
 10
59.99943060072425
 20
-3.961857946796754
 30
0.0
 10
59.99928998692134
 20
-3.952046829947843
 30
0.0
 10
59.99874230873958
 20
-3.912850750061453
 30
0.0
 10
59.99836141638419
 20
-3.883336961506449
 30
0.0
 10
59.99697569433539
 20
-3.765746242055628
 30
0.0
 10
59.99625343470935
 20
-3.678439038629761
 30
0.0
 10
59.99444193597759
 20
-3.332213115086103
 30
0.0
 10
59.99528412550361
 20
-3.071137793404408
 30
0.0
 10
59.99701764753481
 20
-2.675456315544407
 30
0.0
 10
59.99760274404671
 20
-2.549810830023424
 30
0.0
 10
59.99858184452087
 20
-2.36323588480342
 30
0.0
 10
59.9990193374342
 20
-2.298332115155997
 30
0.0
 10
59.99950529208867
 20
-2.20636966671561
 30
0.0
 10
59.99961185684725
 20
-2.17680025361556
 30
0.0
 10
59.99967131368642
 20
-2.121114037873562
 30
0.0
 10
59.99962264831061
 20
-2.093374572912451
 30
0.0
 10
59.99959797787068
 20
-2.072029101524059
 30
0.0
  0
SPLINE
  5
2A055
330
2A04D
100
AcDbEntity
  8
0
100
AcDbSpline
210
0.0
220
0.0
230
1.0
 70
     8
 71
     3
 72
    10
 73
     6
 74
     0
 42
0.000000001
 43
0.0000000001
 40
0.0
 40
0.0
 40
0.0
 40
0.0
 40
0.0142578775371905
 40
0.0142578775371905
 40
0.0186060998819119
 40
0.0186060998819119
 40
0.0186060998819119
 40
0.0186060998819119
 10
64.1305098355064
 20
-2.000001198236927
 30
0.0
 10
64.08339548133191
 20
-2.000046197985406
 30
0.0
 10
64.03611102337314
 20
-2.000140794716037
 30
0.0
 10
63.97489132287851
 20
-2.00050270637852
 30
0.0
 10
63.96060447397847
 20
-2.000601719221549
 30
0.0
 10
63.94630515696187
 20
-2.000720913971463
 30
0.0
  0
SPLINE
  5
2A056
330
2A04D
100
AcDbEntity
  8
0
100
AcDbSpline
210
0.0
220
0.0
230
1.0
 70
     8
 71
     3
 72
     8
 73
     4
 74
     0
 42
0.000000001
 43
0.0000000001
 40
0.0371070424177605
 40
0.0371070424177605
 40
0.0371070424177605
 40
0.0371070424177605
 40
0.0386949742656791
 40
0.0386949742656791
 40
0.0386949742656791
 40
0.0386949742656791
 10
63.97294671037514
 20
-2.000182978490165
 30
0.0
 10
63.97817092689539
 20
-2.000133848648894
 30
0.0
 10
63.98339928571518
 20
-2.000091228252437
 30
0.0
 10
63.98863138565473
 20
-2.000055018194046
 30
0.0
  0
SPLINE
  5
2A057
330
2A04D
100
AcDbEntity
  8
0
100
AcDbSpline
210
0.0
220
0.0
230
1.0
 70
     8
 71
     3
 72
     8
 73
     4
 74
     0
 42
0.000000001
 43
0.0000000001
 40
0.017116350186605
 40
0.017116350186605
 40
0.017116350186605
 40
0.017116350186605
 40
0.0175573141773668
 40
0.0175573141773668
 40
0.0175573141773668
 40
0.0175573141773668
 10
62.0000028110445
 20
-3.996646767229696
 30
0.0
 10
62.00001167119506
 20
-3.997774957318477
 30
0.0
 10
62.00002078703235
 20
-3.998894106878267
 30
0.0
 10
62.00003012162358
 20
-4.000000899730479
 30
0.0
  0
LINE
  5
2A058
330
2A04D
100
AcDbEntity
  8
0
100
AcDbLine
 10
-60.0
 20
-2.00000000000006
 30
0.0
 11
-60.0
 21
-2.071164918277484
 31
0.0
  0
SPLINE
  5
2A059
330
2A04D
100
AcDbEntity
  8
0
100
AcDbSpline
210
0.0
220
0.0
230
1.0
 70
     8
 71
     3
 72
    11
 73
     7
 74
     0
 42
0.000000001
 43
0.0000000001
 40
0.5165110364573028
 40
0.5165110364573028
 40
0.5165110364573028
 40
0.5165110364573028
 40
0.7616502545627253
 40
0.7616502545627253
 40
0.7616502545627253
 40
1.0
 40
1.0
 40
1.0
 40
1.0
 10
-61.30103524111607
 20
-1.048721509984654
 30
0.0
 10
-60.91453133239209
 20
-1.292566595501057
 30
0.0
 10
-60.58653163751054
 20
-1.532727636525434
 30
0.0
 10
-60.35494570856577
 20
-1.712905503749275
 30
0.0
 10
-60.12977387503604
 20
-1.888093093552898
 30
0.0
 10
-60.0000006235852
 20
-1.997912049311206
 30
0.0
 10
-59.99999999999388
 20
-1.999999999999931
 30
0.0
  0
SPLINE
  5
2A05A
330
2A04D
100
AcDbEntity
  8
0
100
AcDbSpline
210
0.0
220
0.0
230
1.0
 70
     8
 71
     3
 72
    10
 73
     6
 74
     0
 42
0.000000001
 43
0.0000000001
 40
0.0
 40
0.0
 40
0.0
 40
0.0
 40
0.0072944892637066
 40
0.0072944892637066
 40
0.0085765880442077
 40
0.0085765880442077
 40
0.0085765880442077
 40
0.0085765880442077
 10
-61.18000841700698
 20
-1.163161268991372
 30
0.0
 10
-61.17269480869715
 20
-1.170431529602659
 30
0.0
 10
-61.16785858002291
 20
-1.175173652754711
 30
0.0
 10
-61.16643387247046
 20
-1.176559070731432
 30
0.0
 10
-61.16632639085768
 20
-1.176663007248961
 30
0.0
 10
-61.16632639085544
 20
-1.176663007251128
 30
0.0
  0
SPLINE
  5
2A05B
330
2A04D
100
AcDbEntity
  8
0
100
AcDbSpline
210
0.0
220
0.0
230
1.0
 70
     8
 71
     3
 72
    14
 73
    10
 74
     0
 42
0.000000001
 43
0.0000000001
 40
0.0094375097067394
 40
0.0094375097067394
 40
0.0094375097067394
 40
0.0094375097067394
 40
0.0111326029561845
 40
0.0111326029561845
 40
0.0134302908215443
 40
0.0134302908215443
 40
0.0168843632962534
 40
0.0168843632962534
 40
0.0210563278463472
 40
0.0210563278463472
 40
0.0210563278463472
 40
0.0210563278463472
 10
-60.00014631260921
 20
-3.945150273027759
 30
0.0
 10
-60.00014631259151
 20
-3.945150275864612
 30
0.0
 10
-60.00014139922861
 20
-3.945923554872195
 30
0.0
 10
-60.00012193601206
 20
-3.949007846630895
 30
0.0
 10
-60.00010465089541
 20
-3.95177399304845
 30
0.0
 10
-60.00005685463205
 20
-3.960051765297261
 30
0.0
 10
-60.00002414933366
 20
-3.966283487209349
 30
0.0
 10
-59.99995869322479
 20
-3.98130058665054
 30
0.0
 10
-59.99992664642532
 20
-3.990462170217379
 30
0.0
 10
-59.99990096457832
 20
-3.999981642567509
 30
0.0
  0
SPLINE
  5
2A05C
330
2A04D
100
AcDbEntity
  8
0
100
AcDbSpline
210
0.0
220
0.0
230
1.0
 70
     8
 71
     3
 72
     8
 73
     4
 74
     0
 42
0.000000001
 43
0.0000000001
 40
0.0079871887453932
 40
0.0079871887453932
 40
0.0079871887453932
 40
0.0079871887453932
 40
0.0092774518278803
 40
0.0092774518278803
 40
0.0092774518278803
 40
0.0092774518278803
 10
-59.99997857542743
 20
-3.99712404402961
 30
0.0
 10
-59.99997857542997
 20
-3.997124044452808
 30
0.0
 10
-59.99997904140407
 20
-3.997206559323269
 30
0.0
 10
-59.99997991232095
 20
-3.997357012158829
 30
0.0
  0
SPLINE
  5
2A05D
330
2A04D
100
AcDbEntity
  8
0
100
AcDbSpline
210
0.0
220
0.0
230
1.0
 70
     8
 71
     3
 72
    30
 73
    26
 74
     0
 42
0.000000001
 43
0.0000000001
 40
0.0
 40
0.0
 40
0.0
 40
0.0
 40
0.004862400139248
 40
0.004862400139248
 40
0.0122186643011596
 40
0.0122186643011596
 40
0.0268750544870156
 40
0.0268750544870156
 40
0.0440059307510209
 40
0.0440059307510209
 40
0.0953984103894458
 40
0.0953984103894458
 40
0.1380154373903624
 40
0.1380154373903624
 40
0.179890090352958
 40
0.179890090352958
 40
0.2008027138323721
 40
0.2008027138323721
 40
0.2110702086123663
 40
0.2110702086123663
 40
0.2139138855467746
 40
0.2139138855467746
 40
0.2154679218333457
 40
0.2154679218333457
 40
0.2161375048295286
 40
0.2161375048295286
 40
0.2161375048295286
 40
0.2161375048295286
 10
-59.99966022137633
 20
-2.071164918277484
 30
0.0
 10
-59.99967488844029
 20
-2.079837299686408
 30
0.0
 10
-59.99969278088493
 20
-2.09067603890334
 30
0.0
 10
-59.99972396360366
 20
-2.119182102859975
 30
0.0
 10
-59.99972800060589
 20
-2.137980358759046
 30
0.0
 10
-59.99960508044439
 20
-2.197111519731352
 30
0.0
 10
-59.99930224173201
 20
-2.241973328152245
 30
0.0
 10
-59.99857391741681
 20
-2.341021643674226
 30
0.0
 10
-59.99822906279631
 20
-2.3944752136054
 30
0.0
 10
-59.99698174236698
 20
-2.60389837006784
 30
0.0
 10
-59.99601925076547
 20
-2.763475787000361
 30
0.0
 10
-59.99481339517569
 20
-3.051778956757418
 30
0.0
 10
-59.99450379676526
 20
-3.180643561568876
 30
0.0
 10
-59.99469318642689
 20
-3.43216897157505
 30
0.0
 10
-59.99518695751156
 20
-3.555109879430254
 30
0.0
 10
-59.99675873462657
 20
-3.742450026513574
 30
0.0
 10
-59.99742195458975
 20
-3.805556836265301
 30
0.0
 10
-59.99859369236502
 20
-3.899906562440152
 30
0.0
 10
-59.99901535100374
 20
-3.931471913085555
 30
0.0
 10
-59.99955174227633
 20
-3.969485235424002
 30
0.0
 10
-59.99967114090221
 20
-3.977807848849531
 30
0.0
 10
-59.99981726959803
 20
-3.98789007407525
 30
0.0
 10
-59.99986044496158
 20
-3.990847356464671
 30
0.0
 10
-59.99989904313344
 20
-3.993486670700087
 30
0.0
 10
-59.99990837707959
 20
-3.994124171108486
 30
0.0
 10
-59.9999161136489
 20
-3.994652203068955
 30
0.0
  0
LINE
  5
2A05E
330
2A04D
100
AcDbEntity
  8
0
100
AcDbLine
 10
-60.0
 20
-2.00000000000006
 30
0.0
 11
-58.0
 21
-2.000000000000059
 31
0.0
  0
LINE
  5
2A05F
330
2A04D
100
AcDbEntity
  8
0
100
AcDbLine
 10
-58.0
 20
-2.000000000000006
 30
0.0
 11
58.0
 21
-2.000000000000006
 31
0.0
  0
LINE
  5
2A060
330
2A04D
100
AcDbEntity
  8
0
100
AcDbLine
 10
57.99999999999994
 20
-1.999999999999941
 30
0.0
 11
59.99999999999994
 21
-1.999999999999939
 31
0.0
  0
LINE
  5
2A061
330
2A04D
100
AcDbEntity
  8
0
100
AcDbLine
 10
64.0
 20
0.0
 30
0.0
 11
101.5
 21
0.0
 31
0.0
  0
ARC
  5
2A062
330
2A04D
100
AcDbEntity
  8
0
100
AcDbCircle
 10
64.0
 20
-4.000000000000004
 30
0.0
 40
4.000000000000003
100
AcDbArc
 50
90.0
 51
180.0
  0
LINE
  5
2A063
330
2A04D
100
AcDbEntity
  8
0
100
AcDbLine
 10
60.0
 20
-55.82004960297631
 30
0.0
 11
60.0
 21
-46.00000000000004
 31
0.0
  0
LINE
  5
2A064
330
2A04D
100
AcDbEntity
  8
0
100
AcDbLine
 10
61.99999999999999
 20
-55.82004960297631
 30
0.0
 11
60.0
 21
-55.82004960297631
 31
0.0
  0
LINE
  5
2A065
330
2A04D
100
AcDbEntity
  8
0
100
AcDbLine
 10
61.99999999999999
 20
-46.00000000000004
 30
0.0
 11
61.99999999999999
 21
-55.82004960297631
 31
0.0
  0
LINE
  5
2A066
330
2A04D
100
AcDbEntity
  8
0
100
AcDbLine
 10
60.0
 20
-81.8682408883347
 30
0.0
 11
60.0
 21
-55.82004960297631
 31
0.0
  0
LINE
  5
2A067
330
2A04D
100
AcDbEntity
  8
0
100
AcDbLine
 10
61.99999999999999
 20
-55.82004960297631
 30
0.0
 11
61.99999999999999
 21
-81.8682408883347
 31
0.0
  0
LINE
  5
2A068
330
2A04D
100
AcDbEntity
  8
0
100
AcDbLine
 10
60.0
 20
-81.8682408883347
 30
0.0
 11
60.0
 21
-86.00000000000006
 31
0.0
  0
LINE
  5
2A069
330
2A04D
100
AcDbEntity
  8
0
100
AcDbLine
 10
61.99999999999999
 20
-86.00000000000006
 30
0.0
 11
60.0
 21
-86.00000000000006
 31
0.0
  0
LINE
  5
2A06A
330
2A04D
100
AcDbEntity
  8
0
100
AcDbLine
 10
62.0
 20
-86.00000000000006
 30
0.0
 11
62.0
 21
-81.8682408883347
 31
0.0
  0
LINE
  5
2A06B
330
2A04D
100
AcDbEntity
  8
0
100
AcDbLine
 10
60.0
 20
-46.00000000000001
 30
0.0
 11
61.99999999999999
 21
-46.00000000000001
 31
0.0
  0
LINE
  5
2A06C
330
2A04D
100
AcDbEntity
  8
0
100
AcDbLine
 10
101.5
 20
0.0
 30
0.0
 11
101.5
 21
-2.00000000000001
 31
0.0
  0
LINE
  5
2A06D
330
2A04D
100
AcDbEntity
  8
0
100
AcDbLine
 10
62.0
 20
-4.000000000000003
 30
0.0
 11
61.99999999999999
 21
-46.00000000000001
 31
0.0
  0
LINE
  5
2A06E
330
2A04D
100
AcDbEntity
  8
0
100
AcDbLine
 10
60.0
 20
-46.00000000000001
 30
0.0
 11
60.0
 21
-4.000000000000003
 31
0.0
  0
LINE
  5
2A06F
330
2A04D
100
AcDbEntity
  8
0
100
AcDbLine
 10
60.0
 20
-86.00000000000001
 30
0.0
 11
57.99999999999998
 21
-86.00000000000001
 31
0.0
  0
ARC
  5
2A070
330
2A04D
100
AcDbEntity
  8
0
100
AcDbCircle
 10
64.0
 20
-4.000000000000004
 30
0.0
 40
2.000000000000001
100
AcDbArc
 50
90.0
 51
180.0
  0
LINE
  5
2A071
330
2A04D
100
AcDbEntity
  8
0
100
AcDbLine
 10
101.5
 20
-2.00000000000001
 30
0.0
 11
64.0
 21
-2.000000000000001
 31
0.0
  0
LINE
  5
2A072
330
2A04D
100
AcDbEntity
  8
0
100
AcDbLine
 10
-101.5
 20
-2.00000000000001
 30
0.0
 11
-64.0
 21
-2.000000000000001
 31
0.0
  0
LINE
  5
2A073
330
2A04D
100
AcDbEntity
  8
0
100
AcDbLine
 10
-101.5
 20
0.0
 30
0.0
 11
-101.5
 21
-2.00000000000001
 31
0.0
  0
LINE
  5
2A074
330
2A04D
100
AcDbEntity
  8
0
100
AcDbLine
 10
-62.0
 20
-4.000000000000003
 30
0.0
 11
-61.99999999999999
 21
-46.00000000000001
 31
0.0
  0
LINE
  5
2A075
330
2A04D
100
AcDbEntity
  8
0
100
AcDbLine
 10
-60.0
 20
-46.00000000000001
 30
0.0
 11
-60.0
 21
-4.000000000000003
 31
0.0
  0
LINE
  5
2A076
330
2A04D
100
AcDbEntity
  8
0
100
AcDbLine
 10
-64.0
 20
0.0
 30
0.0
 11
-101.5
 21
0.0
 31
0.0
  0
ARC
  5
2A077
330
2A04D
100
AcDbEntity
  8
0
100
AcDbCircle
 10
-64.0
 20
-4.000000000000004
 30
0.0
 40
2.000000000000001
100
AcDbArc
 50
0.0
 51
90.0
  0
ARC
  5
2A078
330
2A04D
100
AcDbEntity
  8
0
100
AcDbCircle
 10
-64.0
 20
-4.000000000000004
 30
0.0
 40
4.000000000000003
100
AcDbArc
 50
0.0
 51
90.0
  0
LINE
  5
2A079
330
2A04D
100
AcDbEntity
  8
0
100
AcDbLine
 10
-57.99999999999998
 20
-86.00000000000001
 30
0.0
 11
57.99999999999998
 21
-86.00000000000001
 31
0.0
  0
CIRCLE
  5
2A07A
330
2A04D
100
AcDbEntity
  8
0
100
AcDbCircle
 10
0.0
 20
-67.99999999999998
 30
0.0
 40
2.5
  0
CIRCLE
  5
2A07B
330
2A04D
100
AcDbEntity
  8
0
100
AcDbCircle
 10
0.0
 20
-47.99999999999998
 30
0.0
 40
2.5
  0
LINE
  5
2A07C
330
2A04D
100
AcDbEntity
  8
0
100
AcDbLine
 10
-60.0
 20
-46.00000000000004
 30
0.0
 11
-60.0
 21
-55.82004960297631
 31
0.0
  0
LINE
  5
2A07D
330
2A04D
100
AcDbEntity
  8
0
100
AcDbLine
 10
-61.99999999999999
 20
-55.82004960297631
 30
0.0
 11
-61.99999999999999
 21
-46.00000000000004
 31
0.0
  0
LINE
  5
2A07E
330
2A04D
100
AcDbEntity
  8
0
100
AcDbLine
 10
-61.99999999999999
 20
-55.82004960297631
 30
0.0
 11
-60.0
 21
-55.82004960297631
 31
0.0
  0
LINE
  5
2A07F
330
2A04D
100
AcDbEntity
  8
0
100
AcDbLine
 10
-60.0
 20
-55.82004960297631
 30
0.0
 11
-60.0
 21
-81.8682408883347
 31
0.0
  0
LINE
  5
2A080
330
2A04D
100
AcDbEntity
  8
0
100
AcDbLine
 10
-61.99999999999999
 20
-81.8682408883347
 30
0.0
 11
-61.99999999999999
 21
-55.82004960297631
 31
0.0
  0
LINE
  5
2A081
330
2A04D
100
AcDbEntity
  8
0
100
AcDbLine
 10
-60.0
 20
-86.00000000000006
 30
0.0
 11
-60.0
 21
-81.8682408883347
 31
0.0
  0
LINE
  5
2A082
330
2A04D
100
AcDbEntity
  8
0
100
AcDbLine
 10
-62.0
 20
-81.8682408883347
 30
0.0
 11
-62.0
 21
-86.00000000000006
 31
0.0
  0
LINE
  5
2A083
330
2A04D
100
AcDbEntity
  8
0
100
AcDbLine
 10
-60.0
 20
-86.00000000000006
 30
0.0
 11
-61.99999999999999
 21
-86.00000000000006
 31
0.0
  0
LINE
  5
2A084
330
2A04D
100
AcDbEntity
  8
0
100
AcDbLine
 10
-61.99999999999999
 20
-46.00000000000001
 30
0.0
 11
-60.0
 21
-46.00000000000001
 31
0.0
  0
LINE
  5
2A085
330
2A04D
100
AcDbEntity
  8
0
100
AcDbLine
 10
-60.0
 20
-86.00000000000001
 30
0.0
 11
-57.99999999999998
 21
-86.00000000000001
 31
0.0
  0
ENDBLK
  5
2A04F
330
2A04D
100
AcDbEntity
  8
0
100
AcDbBlockEnd
  0
BLOCK
  5
2A087
330
2A086
100
AcDbEntity
  8
0
100
AcDbBlockBegin
  2
SAEL500_120_2-Bottom
 70
     0
 10
0.0
 20
0.0
 30
0.0
  3
SAEL500_120_2-Bottom
  1

  0
LINE
  5
2A089
330
2A086
100
AcDbEntity
  8
0
100
AcDbLine
 10
64.1317591116654
 20
0.0
 30
0.0
 11
64.0
 21
0.0
 31
0.0
  0
SPLINE
  5
2A08A
330
2A086
100
AcDbEntity
  8
0
100
AcDbSpline
210
0.0
220
0.0
230
1.0
 70
     8
 71
     3
 72
    17
 73
    13
 74
     0
 42
0.000000001
 43
0.0000000001
 40
0.0
 40
0.0
 40
0.0
 40
0.0
 40
0.263094554691075
 40
0.263094554691075
 40
0.263094554691075
 40
0.6652191718947334
 40
0.6652191718947334
 40
0.6652191718947334
 40
0.9355086585100975
 40
0.9355086585100975
 40
0.9355086585100975
 40
1.0
 40
1.0
 40
1.0
 40
1.0
 10
64.13175911166542
 20
-0.0000000000000022
 30
0.0
 10
63.65968744609002
 20
0.0000028677165418
 30
0.0
 10
63.1340557202041
 20
0.1353978453775473
 30
0.0
 10
62.63783379564365
 20
0.3412741587538842
 30
0.0
 10
61.87938764803623
 20
0.6559440454224596
 30
0.0
 10
61.16753431136132
 20
1.118985819423057
 30
0.0
 10
60.66915930668857
 20
1.476639799383838
 30
0.0
 10
60.33417478101676
 20
1.717038189568893
 30
0.0
 10
60.10858645398247
 20
1.91057820522258
 30
0.0
 10
60.02755061003591
 20
1.976719719936448
 30
0.0
 10
60.00821537672615
 20
1.99250115141381
 30
0.0
 10
60.00000613706451
 20
1.999065688200383
 30
0.0
 10
59.99999999999996
 20
1.999999999999904
 30
0.0
  0
ARC
  5
2A08B
330
2A086
100
AcDbEntity
  8
0
100
AcDbCircle
 10
64.0
 20
4.000000000000004
 30
0.0
 40
3.999999999999994
100
AcDbArc
 50
227.3580443702554
 51
270.0
  0
SPLINE
  5
2A08C
330
2A086
100
AcDbEntity
  8
0
100
AcDbSpline
210
0.0
220
0.0
230
1.0
 70
     8
 71
     3
 72
    14
 73
    10
 74
     0
 42
0.000000001
 43
0.0000000001
 40
0.0
 40
0.0
 40
0.0
 40
0.0
 40
0.2870001856762676
 40
0.2870001856762676
 40
0.2870001856762676
 40
0.8282911260758659
 40
0.8282911260758659
 40
0.8282911260758659
 40
1.0
 40
1.0
 40
1.0
 40
1.0
 10
64.13175911166533
 20
1.999999999999985
 30
0.0
 10
63.77222392421559
 20
2.000346318720898
 30
0.0
 10
63.46620915170642
 20
2.000215842365164
 30
0.0
 10
63.1820670376894
 20
2.000098106197932
 30
0.0
 10
62.64616650598419
 20
1.999876052262564
 30
0.0
 10
62.2426430999776
 20
2.000046339025919
 30
0.0
 10
62.07927432876505
 20
2.000163544094235
 30
0.0
 10
62.02745031759914
 20
2.000200724007654
 30
0.0
 10
62.00121049601789
 20
2.000026720759639
 30
0.0
 10
61.99999999999996
 20
2.000000000000087
 30
0.0
  0
ARC
  5
2A08D
330
2A086
100
AcDbEntity
  8
0
100
AcDbCircle
 10
64.0
 20
4.000000000000004
 30
0.0
 40
1.999999999999992
100
AcDbArc
 50
180.0541372143156
 51
268.5006047387055
  0
ARC
  5
2A08E
330
2A086
100
AcDbEntity
  8
0
100
AcDbCircle
 10
64.0
 20
4.000000000000004
 30
0.0
 40
1.999999999999992
100
AcDbArc
 50
269.5183340402181
 51
269.6743077379697
  0
SPLINE
  5
2A08F
330
2A086
100
AcDbEntity
  8
0
100
AcDbSpline
210
0.0
220
0.0
230
1.0
 70
     8
 71
     3
 72
    14
 73
    10
 74
     0
 42
0.000000001
 43
0.0000000001
 40
0.0118649783382782
 40
0.0118649783382782
 40
0.0118649783382782
 40
0.0118649783382782
 40
0.0118716600590409
 40
0.0118716600590409
 40
0.0130350277147324
 40
0.0130350277147324
 40
0.0155595049205317
 40
0.0155595049205317
 40
0.0169778308719058
 40
0.0169778308719058
 40
0.0169778308719058
 40
0.0169778308719058
 10
63.87281974298528
 20
2.001908314498077
 30
0.0
 10
63.87281974693019
 20
2.001908314404295
 30
0.0
 10
63.8728236342143
 20
2.00190822199262
 30
0.0
 10
63.87412916551128
 20
2.001877218059045
 30
0.0
 10
63.88060237663117
 20
2.001729193812946
 30
0.0
 10
63.89283488092029
 20
2.00146616110432
 30
0.0
 10
63.90117337956585
 20
2.001303563820922
 30
0.0
 10
63.91422703765528
 20
2.001075642004844
 30
0.0
 10
63.91893778408683
 20
2.000998888979798
 30
0.0
 10
63.92365492797631
 20
2.000928691293702
 30
0.0
  0
SPLINE
  5
2A090
330
2A086
100
AcDbEntity
  8
0
100
AcDbSpline
210
0.0
220
0.0
230
1.0
 70
     8
 71
     3
 72
     8
 73
     4
 74
     0
 42
0.000000001
 43
0.0000000001
 40
0.0
 40
0.0
 40
0.0
 40
0.0
 40
0.0004577657641437
 40
0.0004577657641437
 40
0.0004577657641437
 40
0.0004577657641437
 10
62.00001567016393
 20
3.999999878025659
 30
0.0
 10
62.00001056904508
 20
3.999567572128739
 30
0.0
 10
62.00000531490238
 20
3.999115250781989
 30
0.0
 10
61.99999999999995
 20
3.998649690007651
 30
0.0
  0
SPLINE
  5
2A091
330
2A086
100
AcDbEntity
  8
0
100
AcDbSpline
210
0.0
220
0.0
230
1.0
 70
     8
 71
     3
 72
     8
 73
     4
 74
     0
 42
0.000000001
 43
0.0000000001
 40
0.0
 40
0.0
 40
0.0
 40
0.0
 40
0.0004828733926188
 40
0.0004828733926188
 40
0.0004828733926188
 40
0.0004828733926188
 10
62.00001979668461
 20
3.999999484541842
 30
0.0
 10
62.00001348640903
 20
3.99955184185353
 30
0.0
 10
62.00000687973184
 20
3.999077910577873
 30
0.0
 10
61.99999999999994
 20
3.998577730432519
 30
0.0
  0
SPLINE
  5
2A092
330
2A086
100
AcDbEntity
  8
0
100
AcDbSpline
210
0.0
220
0.0
230
1.0
 70
     8
 71
     3
 72
     8
 73
     4
 74
     0
 42
0.000000001
 43
0.0000000001
 40
0.0
 40
0.0
 40
0.0
 40
0.0
 40
0.000486206719042
 40
0.000486206719042
 40
0.000486206719042
 40
0.000486206719042
 10
62.00003012162359
 20
4.000000899730478
 30
0.0
 10
62.00001982930704
 20
3.998780550376355
 30
0.0
 10
62.0000097614361
 20
3.997544074369907
 30
0.0
 10
61.99999999999993
 20
3.996296821566651
 30
0.0
  0
LINE
  5
2A093
330
2A086
100
AcDbEntity
  8
0
100
AcDbLine
 10
-64.0
 20
0.0
 30
0.0
 11
-64.1317591116654
 21
0.0
 31
0.0
  0
ARC
  5
2A094
330
2A086
100
AcDbEntity
  8
0
100
AcDbCircle
 10
-64.0
 20
4.000000000000004
 30
0.0
 40
3.999999999999993
100
AcDbArc
 50
270.0
 51
312.4822782988545
  0
SPLINE
  5
2A095
330
2A086
100
AcDbEntity
  8
0
100
AcDbSpline
210
0.0
220
0.0
230
1.0
 70
     8
 71
     3
 72
    14
 73
    10
 74
     0
 42
0.000000001
 43
0.0000000001
 40
0.0
 40
0.0
 40
0.0
 40
0.0
 40
0.3894396598111331
 40
0.3894396598111331
 40
0.3894396598111331
 40
0.7616502545627253
 40
0.7616502545627253
 40
0.7616502545627253
 40
1.0
 40
1.0
 40
1.0
 40
1.0
 10
-64.1317591116654
 20
0.0000000000000155
 30
0.0
 10
-63.4114963841058
 20
0.0000033433566178
 30
0.0
 10
-62.63815665537602
 20
0.3049729407906056
 30
0.0
 10
-61.9439647733011
 20
0.674391785045483
 30
0.0
 10
-61.28048439376262
 20
1.02746729820518
 30
0.0
 10
-60.70657747526074
 20
1.439329893780501
 30
0.0
 10
-60.35494570856577
 20
1.712905503749275
 30
0.0
 10
-60.12977387503604
 20
1.888093093552898
 30
0.0
 10
-60.0000006235852
 20
1.997912049311206
 30
0.0
 10
-59.99999999999388
 20
1.999999999999931
 30
0.0
  0
SPLINE
  5
2A096
330
2A086
100
AcDbEntity
  8
0
100
AcDbSpline
210
0.0
220
0.0
230
1.0
 70
     8
 71
     3
 72
    11
 73
     7
 74
     0
 42
0.000000001
 43
0.0000000001
 40
-1.0
 40
-1.0
 40
-1.0
 40
-1.0
 40
-0.3390351069594717
 40
-0.3390351069594717
 40
-0.3390351069594717
 40
0.0
 40
0.0
 40
0.0
 40
0.0
 10
-61.99999999999999
 20
2.000000000000074
 30
0.0
 10
-61.99998686142269
 20
2.000833819687057
 30
0.0
 10
-62.40933450472081
 20
2.000388046962478
 30
0.0
 10
-63.03132982783153
 20
2.000035420164045
 30
0.0
 10
-63.35037589687319
 20
1.999854543894242
 30
0.0
 10
-63.72934079943483
 20
1.999932245803339
 30
0.0
 10
-64.13175911206898
 20
1.99999999886216
 30
0.0
  0
ARC
  5
2A097
330
2A086
100
AcDbEntity
  8
0
100
AcDbCircle
 10
-64.0
 20
4.000000000000004
 30
0.0
 40
1.999999999999992
100
AcDbArc
 50
270.7301370748801
 51
0.0
  0
LINE
  5
2A098
330
2A086
100
AcDbEntity
  8
0
100
AcDbLine
 10
58.0
 20
2.000000000000006
 30
0.0
 11
-58.0
 21
2.000000000000006
 31
0.0
  0
LINE
  5
2A099
330
2A086
100
AcDbEntity
  8
0
100
AcDbLine
 10
-62.00000000000001
 20
2.000000000000063
 30
0.0
 11
-58.0
 21
2.000000000000059
 31
0.0
  0
LINE
  5
2A09A
330
2A086
100
AcDbEntity
  8
0
100
AcDbLine
 10
57.99999999999994
 20
1.999999999999941
 30
0.0
 11
61.99999999999995
 21
1.999999999999937
 31
0.0
  0
LINE
  5
2A09B
330
2A086
100
AcDbEntity
  8
0
100
AcDbLine
 10
-57.99999999999998
 20
86.00000000000001
 30
0.0
 11
-61.99999999999999
 21
86.00000000000001
 31
0.0
  0
LINE
  5
2A09C
330
2A086
100
AcDbEntity
  8
0
100
AcDbLine
 10
-62.00000000000001
 20
2.000000000000063
 30
0.0
 11
-61.99999999999999
 21
86.00000000000001
 31
0.0
  0
LINE
  5
2A09D
330
2A086
100
AcDbEntity
  8
0
100
AcDbLine
 10
61.99999999999995
 20
1.999999999999937
 30
0.0
 11
61.99999999999999
 21
86.00000000000001
 31
0.0
  0
LINE
  5
2A09E
330
2A086
100
AcDbEntity
  8
0
100
AcDbLine
 10
57.99999999999998
 20
86.00000000000001
 30
0.0
 11
61.99999999999999
 21
86.00000000000001
 31
0.0
  0
LINE
  5
2A09F
330
2A086
100
AcDbEntity
  8
0
100
AcDbLine
 10
101.5
 20
0.0
 30
0.0
 11
91.67995039702379
 21
0.0
 31
0.0
  0
LINE
  5
2A0A0
330
2A086
100
AcDbEntity
  8
0
100
AcDbLine
 10
91.67995039702379
 20
0.0
 30
0.0
 11
64.1317591116654
 21
0.0
 31
0.0
  0
LINE
  5
2A0A1
330
2A086
100
AcDbEntity
  8
0
100
AcDbLine
 10
91.67995039702379
 20
1.999999999999984
 30
0.0
 11
91.67995039702379
 21
0.0
 31
0.0
  0
LINE
  5
2A0A2
330
2A086
100
AcDbEntity
  8
0
100
AcDbLine
 10
64.1317591116654
 20
2.000000000000005
 30
0.0
 11
91.67995039702379
 21
1.999999999999984
 31
0.0
  0
LINE
  5
2A0A3
330
2A086
100
AcDbEntity
  8
0
100
AcDbLine
 10
101.5
 20
1.999999999999984
 30
0.0
 11
101.5
 21
0.0
 31
0.0
  0
LINE
  5
2A0A4
330
2A086
100
AcDbEntity
  8
0
100
AcDbLine
 10
91.67995039702379
 20
1.999999999999984
 30
0.0
 11
101.5
 21
1.999999999999984
 31
0.0
  0
LINE
  5
2A0A5
330
2A086
100
AcDbEntity
  8
0
100
AcDbLine
 10
-101.5
 20
1.999999999999984
 30
0.0
 11
-91.67995039702379
 21
1.999999999999984
 31
0.0
  0
LINE
  5
2A0A6
330
2A086
100
AcDbEntity
  8
0
100
AcDbLine
 10
-91.67995039702379
 20
1.999999999999984
 30
0.0
 11
-64.1317591116654
 21
2.000000000000005
 31
0.0
  0
LINE
  5
2A0A7
330
2A086
100
AcDbEntity
  8
0
100
AcDbLine
 10
-64.1317591116654
 20
0.0
 30
0.0
 11
-91.67995039702379
 21
0.0
 31
0.0
  0
LINE
  5
2A0A8
330
2A086
100
AcDbEntity
  8
0
100
AcDbLine
 10
-91.67995039702379
 20
1.999999999999984
 30
0.0
 11
-91.67995039702379
 21
0.0
 31
0.0
  0
LINE
  5
2A0A9
330
2A086
100
AcDbEntity
  8
0
100
AcDbLine
 10
-91.67995039702379
 20
0.0
 30
0.0
 11
-101.5
 21
0.0
 31
0.0
  0
LINE
  5
2A0AA
330
2A086
100
AcDbEntity
  8
0
100
AcDbLine
 10
-101.5
 20
0.0
 30
0.0
 11
-101.5
 21
1.999999999999984
 31
0.0
  0
CIRCLE
  5
2A0AB
330
2A086
100
AcDbEntity
  8
0
100
AcDbCircle
 10
0.0
 20
47.99999999999998
 30
0.0
 40
2.5
  0
CIRCLE
  5
2A0AC
330
2A086
100
AcDbEntity
  8
0
100
AcDbCircle
 10
0.0
 20
67.99999999999998
 30
0.0
 40
2.5
  0
LINE
  5
2A0AD
330
2A086
100
AcDbEntity
  8
0
100
AcDbLine
 10
57.99999999999998
 20
86.00000000000001
 30
0.0
 11
-58.0
 21
86.00000000000001
 31
0.0
  0
ENDBLK
  5
2A088
330
2A086
100
AcDbEntity
  8
0
100
AcDbBlockEnd
  0
BLOCK
  5
2A0AF
330
2A0AE
100
AcDbEntity
  8
0
100
AcDbBlockBegin
  2
SAEL500_120_2-ISO
 70
     0
 10
0.0
 20
0.0
 30
0.0
  3
SAEL500_120_2-ISO
  1

  0
SPLINE
  5
2A0B1
330
2A0AE
100
AcDbEntity
  8
0
100
AcDbSpline
210
0.0
220
0.0
230
1.0
 70
     8
 71
     3
 72
    14
 73
    10
 74
     0
 42
0.000000001
 43
0.0000000001
 40
0.0
 40
0.0
 40
0.0
 40
0.0
 40
0.2870001856762676
 40
0.2870001856762676
 40
0.2870001856762676
 40
0.8282911260758659
 40
0.8282911260758659
 40
0.8282911260758659
 40
1.0
 40
1.0
 40
1.0
 40
1.0
 10
74.12644971316142
 20
-69.60954500725019
 30
0.0
 10
73.87197505972453
 20
-69.51466915004104
 30
0.0
 10
73.65568219965597
 20
-69.49291989044986
 30
0.0
 10
73.45484663605607
 20
-69.52638221628733
 30
0.0
 10
73.07606475188933
 20
-69.58949316437899
 30
0.0
 10
72.79061020420947
 20
-69.86047408236756
 30
0.0
 10
72.67500816175237
 20
-70.29988689846618
 30
0.0
 10
72.63833676185976
 20
-70.43927788805937
 30
0.0
 10
72.61990544495915
 20
-70.59628284196097
 30
0.0
 10
72.61906838944657
 20
-70.76621941669791
 30
0.0
  0
LINE
  5
2A0B2
330
2A0AE
100
AcDbEntity
  8
0
100
AcDbLine
 10
72.61906838944665
 20
-70.76621941669782
 30
0.0
 11
71.20485482707353
 21
-71.58271599762556
 31
0.0
  0
LINE
  5
2A0B3
330
2A0AE
100
AcDbEntity
  8
0
100
AcDbLine
 10
74.03328195181973
 20
-69.55575457515978
 30
0.0
 11
74.12644971316146
 21
-69.60954500725022
 31
0.0
  0
ELLIPSE
  5
2A0B4
330
2A0AE
100
AcDbEntity
  8
0
100
AcDbEllipse
 10
72.61906838944665
 20
-70.3722511560875
 30
0.0
 11
1.999999999999991
 21
-0.0000000000001196
 31
0.0
210
0.0
220
0.0
230
1.0
 40
0.5773502691896258
 41
0.7853981633976846
 42
2.35619449019259
  0
LINE
  5
2A0B5
330
2A0AE
100
AcDbEntity
  8
0
100
AcDbLine
 10
71.20485482707355
 20
-71.58271599762558
 30
0.0
 11
71.20485482707355
 21
-69.55575457515978
 31
0.0
  0
ELLIPSE
  5
2A0B6
330
2A0AE
100
AcDbEntity
  8
0
100
AcDbEllipse
 10
-17.89059960243143
 20
-18.11646997671305
 30
0.0
 11
3.999999999999993
 21
-0.0000000000000006
 31
0.0
210
0.0
220
0.0
230
1.0
 40
0.5773502691896257
 41
5.497787143782133
 42
6.283185307179587
  0
LINE
  5
2A0B7
330
2A0AE
100
AcDbEntity
  8
0
100
AcDbLine
 10
-15.06217247768524
 20
-19.7494631385685
 30
0.0
 11
-15.06217247768524
 21
-19.93779320118851
 31
0.0
  0
LINE
  5
2A0B8
330
2A0AE
100
AcDbEntity
  8
0
100
AcDbLine
 10
-15.06217247768524
 20
-19.93779320118851
 30
0.0
 11
-15.06217247768524
 21
-21.7764245610343
 31
0.0
  0
LINE
  5
2A0B9
330
2A0AE
100
AcDbEntity
  8
0
100
AcDbLine
 10
-13.73682245101761
 20
-21.01123336636725
 30
0.0
 11
-15.06217247768525
 21
-21.77642456103429
 31
0.0
  0
LINE
  5
2A0BA
330
2A0AE
100
AcDbEntity
  8
0
100
AcDbLine
 10
-13.64795891531219
 20
-20.95992798010659
 30
0.0
 11
-13.73682245101761
 21
-21.01123336636725
 31
0.0
  0
SPLINE
  5
2A0BB
330
2A0AE
100
AcDbEntity
  8
0
100
AcDbSpline
210
0.0
220
0.0
230
1.0
 70
     8
 71
     3
 72
    11
 73
     7
 74
     0
 42
0.000000001
 43
0.0000000001
 40
0.5566212351339248
 40
0.5566212351339248
 40
0.5566212351339248
 40
0.5566212351339248
 40
0.7616502545627253
 40
0.7616502545627253
 40
0.7616502545627253
 40
1.0
 40
1.0
 40
1.0
 40
1.0
 10
-13.84881453891889
 20
-18.66860289155244
 30
0.0
 10
-13.77476335708456
 20
-18.99668358271359
 30
0.0
 10
-13.72634013079277
 20
-19.34019951867643
 30
0.0
 10
-13.69593696765184
 20
-19.69729200814585
 30
0.0
 10
-13.66059276996063
 20
-20.11241814102071
 30
0.0
 10
-13.64648295216263
 20
-20.52145788668007
 30
0.0
 10
-13.64795891530776
 20
-20.95992798008019
 30
0.0
  0
SPLINE
  5
2A0BC
330
2A0AE
100
AcDbEntity
  8
0
100
AcDbSpline
210
0.0
220
0.0
230
1.0
 70
     8
 71
     3
 72
    16
 73
    12
 74
     0
 42
0.000000001
 43
0.0000000001
 40
0.0002612202499973
 40
0.0002612202499973
 40
0.0002612202499973
 40
0.0002612202499973
 40
0.0136518165617861
 40
0.0136518165617861
 40
0.0248504486062011
 40
0.0248504486062011
 40
0.0422523565194801
 40
0.0422523565194801
 40
0.0590825432497295
 40
0.0590825432497295
 40
0.0689002196711507
 40
0.0689002196711507
 40
0.0689002196711507
 40
0.0689002196711507
 10
-13.89059611462671
 20
-18.11646996941924
 30
0.0
 10
-13.89050274967809
 20
-18.1611157793759
 30
0.0
 10
-13.89024330904698
 20
-18.20601989366215
 30
0.0
 10
-13.88885631397692
 20
-18.28644307418387
 30
0.0
 10
-13.88786287415611
 20
-18.32259912758118
 30
0.0
 10
-13.88409525270387
 20
-18.41033353849164
 30
0.0
 10
-13.88054050339725
 20
-18.46010548318835
 30
0.0
 10
-13.87161921935447
 20
-18.54513171845137
 30
0.0
 10
-13.86633402518764
 20
-18.58177713383138
 30
0.0
 10
-13.85675388858676
 20
-18.63523694522968
 30
0.0
 10
-13.85293956420176
 20
-18.65410227323863
 30
0.0
 10
-13.84872672413938
 20
-18.672923134141
 30
0.0
  0
LINE
  5
2A0BD
330
2A0AE
100
AcDbEntity
  8
0
100
AcDbLine
 10
-13.64795891531219
 20
-20.95992798010659
 30
0.0
 11
-13.64795891531219
 21
-34.00754334333163
 31
0.0
  0
ELLIPSE
  5
2A0BE
330
2A0AE
100
AcDbEntity
  8
0
100
AcDbEllipse
 10
-12.23374535293909
 20
-34.82403992425936
 30
0.0
 11
1.000000000000104
 21
-1.732050807568816
 31
0.0
210
0.0
220
0.0
230
1.0
 40
0.5773502691896266
 41
3.926990816987
 42
5.497787143781896
  0
LINE
  5
2A0BF
330
2A0AE
100
AcDbEntity
  8
0
100
AcDbLine
 10
-12.23374535293906
 20
-36.45703308611479
 30
0.0
 11
40.0921564548654
 21
-66.66740658044061
 31
0.0
  0
LINE
  5
2A0C0
330
2A0AE
100
AcDbEntity
  8
0
100
AcDbLine
 10
46.20807781976036
 20
-70.1984354268053
 30
0.0
 11
47.05771054192161
 21
-70.68897110765741
 31
0.0
  0
LINE
  5
2A0C1
330
2A0AE
100
AcDbEntity
  8
0
100
AcDbLine
 10
72.61906838944665
 20
-70.76621941669782
 30
0.0
 11
72.61906838944665
 21
-83.81383477992285
 31
0.0
  0
ELLIPSE
  5
2A0C2
330
2A0AE
100
AcDbEntity
  8
0
100
AcDbEllipse
 10
69.79064126470047
 20
-82.18084161806741
 30
0.0
 11
2.000000000000003
 21
-3.46410161513775
 31
0.0
210
0.0
220
0.0
230
1.0
 40
0.5773502691896266
 41
0.0
 42
0.7853981633974457
  0
ELLIPSE
  5
2A0C3
330
2A0AE
100
AcDbEntity
  8
0
100
AcDbEllipse
 10
-71.63071497260904
 20
-69.11689632322382
 30
0.0
 11
2.000000000000209
 21
-3.464101615137637
 31
0.0
210
0.0
220
0.0
230
1.0
 40
0.577350269189626
 41
3.926990816987
 42
5.497787143781892
  0
LINE
  5
2A0C4
330
2A0AE
100
AcDbEntity
  8
0
100
AcDbLine
 10
-71.63071497260904
 20
-70.74988948507928
 30
0.0
 11
-12.23374535293906
 21
-36.45703308611479
 31
0.0
  0
LINE
  5
2A0C5
330
2A0AE
100
AcDbEntity
  8
0
100
AcDbLine
 10
-71.63071497260904
 20
-72.38288264693473
 30
0.0
 11
-71.63071497260904
 21
-70.74988948507928
 31
0.0
  0
ELLIPSE
  5
2A0C6
330
2A0AE
100
AcDbEntity
  8
0
100
AcDbEllipse
 10
-71.63071497260904
 20
-69.11689632322382
 30
0.0
 11
1.000000000000104
 21
-1.732050807568818
 31
0.0
210
0.0
220
0.0
230
1.0
 40
0.577350269189626
 41
3.926990816986995
 42
5.497787143781895
  0
LINE
  5
2A0C7
330
2A0AE
100
AcDbEntity
  8
0
100
AcDbLine
 10
-74.45914209735524
 20
-67.48390316136838
 30
0.0
 11
-73.04492853498214
 21
-68.3003997422961
 31
0.0
  0
LINE
  5
2A0C8
330
2A0AE
100
AcDbEntity
  8
0
100
AcDbLine
 10
-73.04492853498214
 20
-68.3003997422961
 30
0.0
 11
-13.64795891531219
 21
-34.00754334333163
 31
0.0
  0
LINE
  5
2A0C9
330
2A0AE
100
AcDbEntity
  8
0
100
AcDbLine
 10
72.61906838944665
 20
-83.81383477992285
 30
0.0
 11
13.22209876977664
 21
-118.1066911788873
 31
0.0
  0
ELLIPSE
  5
2A0CA
330
2A0AE
100
AcDbEntity
  8
0
100
AcDbEllipse
 10
10.39367164503045
 20
-116.4736980170319
 30
0.0
 11
2.000000000000002
 21
-3.464101615137756
 31
0.0
210
0.0
220
0.0
230
1.0
 40
0.5773502691896258
 41
5.497787143782137
 42
7.068583470577033
  0
ELLIPSE
  5
2A0CB
330
2A0AE
100
AcDbEntity
  8
0
100
AcDbEllipse
 10
88.17541757555069
 20
46.00912158758553
 30
0.0
 11
-3.249999999999998
 21
5.629165124598848
 31
0.0
210
0.0
220
0.0
230
1.0
 40
0.5773502691896257
 41
0.219325486300594
 42
2.9222671672892
  0
ELLIPSE
  5
2A0CC
330
2A0AE
100
AcDbEntity
  8
0
100
AcDbEllipse
 10
95.95359216860272
 20
45.60087329712165
 30
0.0
 11
1.250000000000129
 21
-2.165063509461021
 31
0.0
210
0.0
220
0.0
230
1.0
 40
0.5773502691896257
 41
3.742856870268601
 42
5.681921090500121
  0
LINE
  5
2A0CD
330
2A0AE
100
AcDbEntity
  8
0
100
AcDbLine
 10
75.44749551419283
 20
69.68752243448957
 30
0.0
 11
101.9639998086883
 21
54.3782115420947
 31
0.0
  0
LINE
  5
2A0CE
330
2A0AE
100
AcDbEntity
  8
0
100
AcDbLine
 10
101.9639998086884
 20
-73.35451357823874
 30
0.0
 11
101.9639998086883
 21
54.37821154209469
 31
0.0
  0
ELLIPSE
  5
2A0CF
330
2A0AE
100
AcDbEntity
  8
0
100
AcDbEllipse
 10
72.61906838944665
 20
68.05452927263411
 30
0.0
 11
4.000000000000002
 21
-0.0000000000002381
 31
0.0
210
0.0
220
0.0
230
1.0
 40
0.5773502691896258
 41
0.7853981633976881
 42
2.356194490192583
  0
LINE
  5
2A0D0
330
2A0AE
100
AcDbEntity
  8
0
100
AcDbLine
 10
11.80788520740358
 20
-117.2901945979596
 30
0.0
 11
10.39367164503044
 21
-118.1066911788873
 31
0.0
  0
ELLIPSE
  5
2A0D1
330
2A0AE
100
AcDbEntity
  8
0
100
AcDbEllipse
 10
45.39545731376454
 20
43.35550769957039
 30
0.0
 11
1.249999999999871
 21
2.16506350946117
 31
0.0
210
0.0
220
0.0
230
1.0
 40
0.5773502691896259
 41
3.742856870268584
 42
5.681921090500106
  0
ELLIPSE
  5
2A0D2
330
2A0AE
100
AcDbEntity
  8
0
100
AcDbEllipse
 10
46.80967087613763
 20
42.53901111864267
 30
0.0
 11
-1.25
 21
-2.165063509461095
 31
0.0
210
0.0
220
0.0
230
1.0
 40
0.577350269189626
 41
0.0
 42
6.283185307179586
  0
LINE
  5
2A0D3
330
2A0AE
100
AcDbEntity
  8
0
100
AcDbLine
 10
74.12644971316146
 20
-69.60954500725023
 30
0.0
 11
93.60596258046255
 21
-76.88992352332549
 31
0.0
  0
LINE
  5
2A0D4
330
2A0AE
100
AcDbEntity
  8
0
100
AcDbLine
 10
100.5497862463153
 20
-74.17101015916646
 30
0.0
 11
101.9639998086884
 21
-73.35451357823874
 31
0.0
  0
LINE
  5
2A0D5
330
2A0AE
100
AcDbEntity
  8
0
100
AcDbLine
 10
93.60596258046255
 20
-76.88992352332549
 30
0.0
 11
100.5497862463153
 21
-74.17101015916646
 31
0.0
  0
LINE
  5
2A0D6
330
2A0AE
100
AcDbEntity
  8
0
100
AcDbLine
 10
33.14833278901264
 20
-85.92858117485594
 30
0.0
 11
40.09215645486543
 21
-75.19163088532613
 31
0.0
  0
LINE
  5
2A0D7
330
2A0AE
100
AcDbEntity
  8
0
100
AcDbLine
 10
34.56254635138574
 20
-86.74507775578366
 30
0.0
 11
33.14833278901264
 21
-85.92858117485594
 31
0.0
  0
LINE
  5
2A0D8
330
2A0AE
100
AcDbEntity
  8
0
100
AcDbLine
 10
41.50637001723852
 20
-76.00812746625385
 30
0.0
 11
34.56254635138574
 21
-86.74507775578366
 31
0.0
  0
LINE
  5
2A0D9
330
2A0AE
100
AcDbEntity
  8
0
100
AcDbLine
 10
41.50637001723852
 20
-76.00812746625385
 30
0.0
 11
40.09215645486543
 21
-75.19163088532613
 31
0.0
  0
LINE
  5
2A0DA
330
2A0AE
100
AcDbEntity
  8
0
100
AcDbLine
 10
14.7294800934914
 20
-100.3128786530122
 30
0.0
 11
33.14833278901264
 21
-85.92858117485594
 31
0.0
  0
LINE
  5
2A0DB
330
2A0AE
100
AcDbEntity
  8
0
100
AcDbLine
 10
16.14369365586449
 20
-101.12937523394
 30
0.0
 11
14.7294800934914
 21
-100.3128786530122
 31
0.0
  0
LINE
  5
2A0DC
330
2A0AE
100
AcDbEntity
  8
0
100
AcDbLine
 10
34.56254635138574
 20
-86.74507775578366
 30
0.0
 11
16.14369365586449
 21
-101.12937523394
 31
0.0
  0
ELLIPSE
  5
2A0DD
330
2A0AE
100
AcDbEntity
  8
0
100
AcDbEllipse
 10
15.34341911333626
 20
-103.9788816106667
 30
0.0
 11
2.500000000000259
 21
4.330127018922041
 31
0.0
210
0.0
220
0.0
230
1.0
 40
0.577350269189626
 41
0.9599310885970755
 42
2.356194490192587
  0
LINE
  5
2A0DE
330
2A0AE
100
AcDbEntity
  8
0
100
AcDbLine
 10
13.22209876977661
 20
-106.8366196439138
 30
0.0
 11
11.80788520740352
 21
-106.020123062986
 31
0.0
  0
ELLIPSE
  5
2A0DF
330
2A0AE
100
AcDbEntity
  8
0
100
AcDbEllipse
 10
16.75763267570936
 20
-104.7953781915944
 30
0.0
 11
-2.499999999999744
 21
-4.330127018922339
 31
0.0
210
0.0
220
0.0
230
1.0
 40
0.577350269189626
 41
4.101523742186527
 42
5.497787143781944
  0
LINE
  5
2A0E0
330
2A0AE
100
AcDbEntity
  8
0
100
AcDbLine
 10
40.09215645486543
 20
-75.19163088532613
 30
0.0
 11
40.09215645486545
 21
52.54109423500731
 31
0.0
  0
LINE
  5
2A0E1
330
2A0AE
100
AcDbEntity
  8
0
100
AcDbLine
 10
41.50637001723854
 20
51.72459765407958
 30
0.0
 11
41.50637001723852
 21
-76.00812746625385
 31
0.0
  0
LINE
  5
2A0E2
330
2A0AE
100
AcDbEntity
  8
0
100
AcDbLine
 10
40.09215645486545
 20
52.54109423500732
 30
0.0
 11
41.50637001723854
 21
51.72459765407958
 31
0.0
  0
LINE
  5
2A0E3
330
2A0AE
100
AcDbEntity
  8
0
100
AcDbLine
 10
101.9639998086883
 20
54.3782115420947
 30
0.0
 11
100.5497862463152
 21
53.56171496116698
 31
0.0
  0
LINE
  5
2A0E4
330
2A0AE
100
AcDbEntity
  8
0
100
AcDbLine
 10
100.5497862463153
 20
-74.17101015916646
 30
0.0
 11
100.5497862463152
 21
53.56171496116697
 31
0.0
  0
LINE
  5
2A0E5
330
2A0AE
100
AcDbEntity
  8
0
100
AcDbLine
 10
13.22209876977661
 20
-106.8366196439138
 30
0.0
 11
13.22209876977664
 21
-118.1066911788873
 31
0.0
  0
LINE
  5
2A0E6
330
2A0AE
100
AcDbEntity
  8
0
100
AcDbLine
 10
71.20485482707355
 20
-69.55575457515978
 30
0.0
 11
71.20485482707355
 21
68.87102585356183
 31
0.0
  0
LINE
  5
2A0E7
330
2A0AE
100
AcDbEntity
  8
0
100
AcDbLine
 10
71.20485482707355
 20
68.87102585356183
 30
0.0
 11
41.50637001723854
 21
51.72459765407958
 31
0.0
  0
LINE
  5
2A0E8
330
2A0AE
100
AcDbEntity
  8
0
100
AcDbLine
 10
40.09215645486545
 20
52.54109423500732
 30
0.0
 11
69.79064126470046
 21
69.68752243448957
 31
0.0
  0
LINE
  5
2A0E9
330
2A0AE
100
AcDbEntity
  8
0
100
AcDbLine
 10
11.80788520740354
 20
-117.2901945979596
 30
0.0
 11
11.80788520740352
 21
-106.020123062986
 31
0.0
  0
LINE
  5
2A0EA
330
2A0AE
100
AcDbEntity
  8
0
100
AcDbLine
 10
10.39367164503044
 20
-118.1066911788873
 30
0.0
 11
10.39367164503044
 21
-119.7396843407428
 31
0.0
  0
LINE
  5
2A0EB
330
2A0AE
100
AcDbEntity
  8
0
100
AcDbLine
 10
11.80788520740354
 20
-117.2901945979596
 30
0.0
 11
13.22209876977664
 21
-118.1066911788873
 31
0.0
  0
ELLIPSE
  5
2A0EC
330
2A0AE
100
AcDbEntity
  8
0
100
AcDbEllipse
 10
10.39367164503045
 20
-116.4736980170319
 30
0.0
 11
1.000000000000001
 21
-1.732050807568878
 31
0.0
210
0.0
220
0.0
230
1.0
 40
0.5773502691896258
 41
5.497787143782142
 42
7.068583470577038
  0
LINE
  5
2A0ED
330
2A0AE
100
AcDbEntity
  8
0
100
AcDbLine
 10
74.03328195181973
 20
-69.55575457515978
 30
0.0
 11
74.03328195181974
 21
68.87102585356183
 31
0.0
  0
ELLIPSE
  5
2A0EE
330
2A0AE
100
AcDbEntity
  8
0
100
AcDbEllipse
 10
72.61906838944665
 20
68.05452927263411
 30
0.0
 11
-2.000000000000001
 21
-0.0000000000001193
 31
0.0
210
0.0
220
0.0
230
1.0
 40
0.5773502691896258
 41
3.926990816987
 42
5.497787143781896
  0
LINE
  5
2A0EF
330
2A0AE
100
AcDbEntity
  8
0
100
AcDbLine
 10
71.20485482707355
 20
68.87102585356183
 30
0.0
 11
69.79064126470046
 21
69.68752243448957
 31
0.0
  0
LINE
  5
2A0F0
330
2A0AE
100
AcDbEntity
  8
0
100
AcDbLine
 10
74.03328195181974
 20
68.87102585356183
 30
0.0
 11
75.44749551419283
 21
69.68752243448957
 31
0.0
  0
LINE
  5
2A0F1
330
2A0AE
100
AcDbEntity
  8
0
100
AcDbLine
 10
100.5497862463152
 20
53.56171496116698
 30
0.0
 11
74.03328195181974
 21
68.87102585356183
 31
0.0
  0
ELLIPSE
  5
2A0F2
330
2A0AE
100
AcDbEntity
  8
0
100
AcDbEllipse
 10
86.7612040131776
 20
45.19262500665779
 30
0.0
 11
-3.249999999999999
 21
5.629165124598848
 31
0.0
210
0.0
220
0.0
230
0.9999999999999996
 40
0.5773502691896258
 41
0.0
 42
6.283185307179586
  0
ELLIPSE
  5
2A0F3
330
2A0AE
100
AcDbEntity
  8
0
100
AcDbEllipse
 10
94.53937860622962
 20
44.78437671619393
 30
0.0
 11
-1.25
 21
2.165063509461095
 31
0.0
210
0.0
220
0.0
230
1.0
 40
0.5773502691896258
 41
0.0
 42
6.283185307179586
  0
LINE
  5
2A0F4
330
2A0AE
100
AcDbEntity
  8
0
100
AcDbLine
 10
12.39367164503045
 20
-119.9377996321697
 30
0.0
 11
71.79064126470049
 21
-85.64494323320516
 31
0.0
  0
ELLIPSE
  5
2A0F5
330
2A0AE
100
AcDbEntity
  8
0
100
AcDbEllipse
 10
88.17541757555067
 20
-60.13543393301883
 30
0.0
 11
-3.25
 21
5.629165124598853
 31
0.0
210
0.0
220
0.0
230
1.0
 40
0.5773502691896258
 41
0.2193254863005922
 42
2.922267167289199
  0
ELLIPSE
  5
2A0F6
330
2A0AE
100
AcDbEntity
  8
0
100
AcDbEllipse
 10
86.76120401317758
 20
-60.95193051394655
 30
0.0
 11
-3.249999999999999
 21
5.629165124598848
 31
0.0
210
0.0
220
0.0
230
0.9999999999999996
 40
0.5773502691896258
 41
0.0
 42
6.283185307179586
  0
ELLIPSE
  5
2A0F7
330
2A0AE
100
AcDbEntity
  8
0
100
AcDbEllipse
 10
88.17541757555069
 20
-2.980673268078026
 30
0.0
 11
-3.25
 21
5.62916512459885
 31
0.0
210
0.0
220
0.0
230
0.9999999999999998
 40
0.5773502691896258
 41
0.2193254863005922
 42
2.9222671672892
  0
ELLIPSE
  5
2A0F8
330
2A0AE
100
AcDbEntity
  8
0
100
AcDbEllipse
 10
86.7612040131776
 20
-3.797169849005754
 30
0.0
 11
-3.249999999999999
 21
5.629165124598848
 31
0.0
210
0.0
220
0.0
230
0.9999999999999996
 40
0.5773502691896258
 41
0.0
 42
6.283185307179586
  0
ELLIPSE
  5
2A0F9
330
2A0AE
100
AcDbEntity
  8
0
100
AcDbEllipse
 10
80.39724298249868
 20
-51.56221983327771
 30
0.0
 11
1.250000000000128
 21
-2.165063509461021
 31
0.0
210
0.0
220
0.0
230
1.0
 40
0.5773502691896258
 41
3.742856870268582
 42
5.681921090500122
  0
ELLIPSE
  5
2A0FA
330
2A0AE
100
AcDbEntity
  8
0
100
AcDbEllipse
 10
80.39724298249868
 20
-35.23228821472321
 30
0.0
 11
1.250000000000128
 21
-2.165063509461021
 31
0.0
210
0.0
220
0.0
230
1.0
 40
0.5773502691896258
 41
3.74285687026858
 42
5.681921090500122
  0
ELLIPSE
  5
2A0FB
330
2A0AE
100
AcDbEntity
  8
0
100
AcDbEllipse
 10
80.39724298249868
 20
-18.90235659616869
 30
0.0
 11
1.250000000000128
 21
-2.165063509461021
 31
0.0
210
0.0
220
0.0
230
1.0
 40
0.5773502691896258
 41
3.742856870268578
 42
5.681921090500122
  0
ELLIPSE
  5
2A0FC
330
2A0AE
100
AcDbEntity
  8
0
100
AcDbEllipse
 10
80.39724298249868
 20
-2.572424977614184
 30
0.0
 11
1.250000000000128
 21
-2.165063509461021
 31
0.0
210
0.0
220
0.0
230
1.0
 40
0.5773502691896258
 41
3.742856870268578
 42
5.681921090500122
  0
ELLIPSE
  5
2A0FD
330
2A0AE
100
AcDbEntity
  8
0
100
AcDbEllipse
 10
80.39724298249868
 20
13.75750664094034
 30
0.0
 11
1.250000000000128
 21
-2.165063509461021
 31
0.0
210
0.0
220
0.0
230
1.0
 40
0.5773502691896258
 41
3.742856870268578
 42
5.681921090500122
  0
ELLIPSE
  5
2A0FE
330
2A0AE
100
AcDbEntity
  8
0
100
AcDbEllipse
 10
80.39724298249868
 20
30.08743825949485
 30
0.0
 11
1.250000000000128
 21
-2.165063509461021
 31
0.0
210
0.0
220
0.0
230
1.0
 40
0.5773502691896258
 41
3.74285687026858
 42
5.681921090500122
  0
ELLIPSE
  5
2A0FF
330
2A0AE
100
AcDbEntity
  8
0
100
AcDbEllipse
 10
80.39724298249868
 20
46.41736987804937
 30
0.0
 11
1.250000000000128
 21
-2.165063509461021
 31
0.0
210
0.0
220
0.0
230
1.0
 40
0.5773502691896258
 41
3.742856870268585
 42
5.681921090500111
  0
ELLIPSE
  5
2A100
330
2A0AE
100
AcDbEntity
  8
0
100
AcDbEllipse
 10
78.98302942012559
 20
-52.37871641420544
 30
0.0
 11
-1.25
 21
2.165063509461095
 31
0.0
210
0.0
220
0.0
230
1.0
 40
0.5773502691896258
 41
0.0
 42
6.283185307179586
  0
ELLIPSE
  5
2A101
330
2A0AE
100
AcDbEntity
  8
0
100
AcDbEllipse
 10
78.98302942012559
 20
-36.04878479565093
 30
0.0
 11
-1.25
 21
2.165063509461095
 31
0.0
210
0.0
220
0.0
230
1.0
 40
0.5773502691896258
 41
0.0
 42
6.283185307179586
  0
ELLIPSE
  5
2A102
330
2A0AE
100
AcDbEntity
  8
0
100
AcDbEllipse
 10
78.98302942012559
 20
-19.71885317709641
 30
0.0
 11
-1.25
 21
2.165063509461095
 31
0.0
210
0.0
220
0.0
230
1.0
 40
0.5773502691896258
 41
0.0
 42
6.283185307179586
  0
ELLIPSE
  5
2A103
330
2A0AE
100
AcDbEntity
  8
0
100
AcDbEllipse
 10
78.98302942012559
 20
-3.388921558541904
 30
0.0
 11
-1.25
 21
2.165063509461095
 31
0.0
210
0.0
220
0.0
230
1.0
 40
0.5773502691896258
 41
0.0
 42
6.283185307179586
  0
ELLIPSE
  5
2A104
330
2A0AE
100
AcDbEntity
  8
0
100
AcDbEllipse
 10
78.98302942012559
 20
12.94101006001262
 30
0.0
 11
-1.25
 21
2.165063509461095
 31
0.0
210
0.0
220
0.0
230
1.0
 40
0.5773502691896258
 41
0.0
 42
6.283185307179586
  0
ELLIPSE
  5
2A105
330
2A0AE
100
AcDbEntity
  8
0
100
AcDbEllipse
 10
78.98302942012559
 20
29.27094167856713
 30
0.0
 11
-1.25
 21
2.165063509461095
 31
0.0
210
0.0
220
0.0
230
1.0
 40
0.5773502691896258
 41
0.0
 42
6.283185307179586
  0
ELLIPSE
  5
2A106
330
2A0AE
100
AcDbEntity
  8
0
100
AcDbEllipse
 10
78.98302942012559
 20
45.60087329712165
 30
0.0
 11
-1.25
 21
2.165063509461095
 31
0.0
210
0.0
220
0.0
230
1.0
 40
0.5773502691896258
 41
0.0
 42
6.283185307179586
  0
ELLIPSE
  5
2A107
330
2A0AE
100
AcDbEntity
  8
0
100
AcDbEllipse
 10
80.39724298249868
 20
62.74730149660388
 30
0.0
 11
1.250000000000128
 21
-2.165063509461021
 31
0.0
210
0.0
220
0.0
230
1.0
 40
0.5773502691896258
 41
3.742856870268585
 42
5.681921090500111
  0
ELLIPSE
  5
2A108
330
2A0AE
100
AcDbEntity
  8
0
100
AcDbEllipse
 10
-21.42613350836418
 20
119.9020621615447
 30
0.0
 11
1.25
 21
-2.165063509461095
 31
0.0
210
0.0
220
0.0
230
1.0
 40
0.5773502691896259
 41
0.0
 42
6.283185307179586
  0
ELLIPSE
  5
2A109
330
2A0AE
100
AcDbEntity
  8
0
100
AcDbEllipse
 10
-20.01191994599108
 20
120.7185587424724
 30
0.0
 11
1.250000000000129
 21
-2.165063509461021
 31
0.0
210
0.0
220
0.0
230
1.0
 40
0.5773502691896259
 41
3.742856870268576
 42
5.68192109050012
  0
ELLIPSE
  5
2A10A
330
2A0AE
100
AcDbEntity
  8
0
100
AcDbEllipse
 10
78.98302942012559
 20
61.93080491567616
 30
0.0
 11
-1.25
 21
2.165063509461095
 31
0.0
210
0.0
220
0.0
230
1.0
 40
0.5773502691896258
 41
0.0
 42
6.283185307179586
  0
ELLIPSE
  5
2A10B
330
2A0AE
100
AcDbEntity
  8
0
100
AcDbEllipse
 10
95.95359216860272
 20
-68.70864803275996
 30
0.0
 11
1.250000000000128
 21
-2.165063509461021
 31
0.0
210
0.0
220
0.0
230
1.0
 40
0.5773502691896258
 41
3.742856870268573
 42
5.681921090500111
  0
ELLIPSE
  5
2A10C
330
2A0AE
100
AcDbEntity
  8
0
100
AcDbEllipse
 10
95.95359216860272
 20
-52.37871641420544
 30
0.0
 11
1.250000000000128
 21
-2.165063509461021
 31
0.0
210
0.0
220
0.0
230
1.0
 40
0.5773502691896258
 41
3.742856870268573
 42
5.681921090500111
  0
ELLIPSE
  5
2A10D
330
2A0AE
100
AcDbEntity
  8
0
100
AcDbEllipse
 10
95.95359216860272
 20
-36.04878479565093
 30
0.0
 11
1.250000000000128
 21
-2.165063509461021
 31
0.0
210
0.0
220
0.0
230
1.0
 40
0.5773502691896258
 41
3.742856870268578
 42
5.681921090500111
  0
ELLIPSE
  5
2A10E
330
2A0AE
100
AcDbEntity
  8
0
100
AcDbEllipse
 10
95.95359216860272
 20
-19.71885317709641
 30
0.0
 11
1.250000000000128
 21
-2.165063509461021
 31
0.0
210
0.0
220
0.0
230
1.0
 40
0.5773502691896258
 41
3.742856870268576
 42
5.681921090500111
  0
ELLIPSE
  5
2A10F
330
2A0AE
100
AcDbEntity
  8
0
100
AcDbEllipse
 10
95.95359216860272
 20
-3.388921558541895
 30
0.0
 11
1.250000000000128
 21
-2.165063509461021
 31
0.0
210
0.0
220
0.0
230
1.0
 40
0.5773502691896258
 41
3.742856870268575
 42
5.681921090500111
  0
ELLIPSE
  5
2A110
330
2A0AE
100
AcDbEntity
  8
0
100
AcDbEllipse
 10
95.95359216860272
 20
12.94101006001263
 30
0.0
 11
1.250000000000128
 21
-2.165063509461021
 31
0.0
210
0.0
220
0.0
230
1.0
 40
0.5773502691896258
 41
3.742856870268576
 42
5.681921090500111
  0
ELLIPSE
  5
2A111
330
2A0AE
100
AcDbEntity
  8
0
100
AcDbEllipse
 10
95.95359216860272
 20
29.27094167856713
 30
0.0
 11
1.250000000000128
 21
-2.165063509461021
 31
0.0
210
0.0
220
0.0
230
1.0
 40
0.5773502691896258
 41
3.742856870268578
 42
5.681921090500111
  0
ELLIPSE
  5
2A112
330
2A0AE
100
AcDbEntity
  8
0
100
AcDbEllipse
 10
94.53937860622962
 20
-69.52514461368767
 30
0.0
 11
-1.25
 21
2.165063509461095
 31
0.0
210
0.0
220
0.0
230
1.0
 40
0.5773502691896258
 41
0.0
 42
6.283185307179586
  0
ELLIPSE
  5
2A113
330
2A0AE
100
AcDbEntity
  8
0
100
AcDbEllipse
 10
94.53937860622962
 20
-53.19521299513318
 30
0.0
 11
-1.25
 21
2.165063509461095
 31
0.0
210
0.0
220
0.0
230
1.0
 40
0.5773502691896258
 41
0.0
 42
6.283185307179586
  0
ELLIPSE
  5
2A114
330
2A0AE
100
AcDbEntity
  8
0
100
AcDbEllipse
 10
94.53937860622962
 20
-36.86528137657865
 30
0.0
 11
-1.25
 21
2.165063509461095
 31
0.0
210
0.0
220
0.0
230
1.0
 40
0.5773502691896258
 41
0.0
 42
6.283185307179586
  0
ELLIPSE
  5
2A115
330
2A0AE
100
AcDbEntity
  8
0
100
AcDbEllipse
 10
94.53937860622962
 20
-20.53534975802413
 30
0.0
 11
-1.25
 21
2.165063509461095
 31
0.0
210
0.0
220
0.0
230
1.0
 40
0.5773502691896258
 41
0.0
 42
6.283185307179586
  0
ELLIPSE
  5
2A116
330
2A0AE
100
AcDbEntity
  8
0
100
AcDbEllipse
 10
94.53937860622962
 20
-4.205418139469623
 30
0.0
 11
-1.25
 21
2.165063509461095
 31
0.0
210
0.0
220
0.0
230
1.0
 40
0.5773502691896258
 41
0.0
 42
6.283185307179586
  0
ELLIPSE
  5
2A117
330
2A0AE
100
AcDbEntity
  8
0
100
AcDbEllipse
 10
94.53937860622962
 20
12.1245134790849
 30
0.0
 11
-1.25
 21
2.165063509461095
 31
0.0
210
0.0
220
0.0
230
1.0
 40
0.5773502691896258
 41
0.0
 42
6.283185307179586
  0
ELLIPSE
  5
2A118
330
2A0AE
100
AcDbEntity
  8
0
100
AcDbEllipse
 10
94.53937860622962
 20
28.45444509763941
 30
0.0
 11
-1.25
 21
2.165063509461095
 31
0.0
210
0.0
220
0.0
230
1.0
 40
0.5773502691896258
 41
0.0
 42
6.283185307179586
  0
ELLIPSE
  5
2A119
330
2A0AE
100
AcDbEntity
  8
0
100
AcDbEllipse
 10
-29.20430810141618
 20
112.1453446427313
 30
0.0
 11
-3.25
 21
5.62916512459885
 31
0.0
210
0.0
220
0.0
230
1.0
 40
0.577350269189626
 41
4.712388980384693
 42
7.853981633974483
  0
ELLIPSE
  5
2A11A
330
2A0AE
100
AcDbEntity
  8
0
100
AcDbEllipse
 10
-27.79009453904309
 20
112.961841223659
 30
0.0
 11
-3.250000000000001
 21
5.62916512459885
 31
0.0
210
0.0
220
0.0
230
0.9999999999999998
 40
0.577350269189626
 41
0.2193254863005866
 42
1.570796326794894
  0
ELLIPSE
  5
2A11B
330
2A0AE
100
AcDbEntity
  8
0
100
AcDbEllipse
 10
-36.98248269446822
 20
120.7185587424724
 30
0.0
 11
1.25
 21
-2.165063509461095
 31
0.0
210
0.0
220
0.0
230
1.0
 40
0.5773502691896259
 41
0.0
 42
6.283185307179586
  0
ELLIPSE
  5
2A11C
330
2A0AE
100
AcDbEntity
  8
0
100
AcDbEllipse
 10
-35.56826913209512
 20
121.5350553234001
 30
0.0
 11
1.250000000000129
 21
-2.165063509461021
 31
0.0
210
0.0
220
0.0
230
1.0
 40
0.5773502691896259
 41
3.742856870268576
 42
5.681921090500117
  0
LINE
  5
2A11D
330
2A0AE
100
AcDbEntity
  8
0
100
AcDbLine
 10
-16.47638604005834
 20
119.4938138710808
 30
0.0
 11
-16.47638604005833
 21
121.1268070329363
 31
0.0
  0
ELLIPSE
  5
2A11E
330
2A0AE
100
AcDbEntity
  8
0
100
AcDbEllipse
 10
-17.89059960243143
 20
120.3103104520085
 30
0.0
 11
2.000000000000001
 21
0.0
 31
0.0
210
0.0
220
0.0
230
1.0
 40
0.5773502691896257
 41
5.497787143782129
 42
7.068583470577027
  0
LINE
  5
2A11F
330
2A0AE
100
AcDbEntity
  8
0
100
AcDbLine
 10
-16.47638604005833
 20
119.4938138710808
 30
0.0
 11
-15.06217247768524
 21
118.6773172901531
 31
0.0
  0
ELLIPSE
  5
2A120
330
2A0AE
100
AcDbEntity
  8
0
100
AcDbEllipse
 10
-17.89059960243143
 20
120.3103104520085
 30
0.0
 11
4.000000000000002
 21
-0.0000000000000003
 31
0.0
210
0.0
220
0.0
230
1.0
 40
0.5773502691896258
 41
5.497787143782137
 42
7.068583470577035
  0
LINE
  5
2A121
330
2A0AE
100
AcDbEntity
  8
0
100
AcDbLine
 10
-15.06217247768524
 20
118.6773172901531
 30
0.0
 11
-15.06217247768524
 21
-19.7494631385685
 31
0.0
  0
LINE
  5
2A122
330
2A0AE
100
AcDbEntity
  8
0
100
AcDbLine
 10
-16.47638604005833
 20
121.1268070329363
 30
0.0
 11
-15.06217247768524
 21
121.943303613864
 31
0.0
  0
LINE
  5
2A123
330
2A0AE
100
AcDbEntity
  8
0
100
AcDbLine
 10
-13.89059960243144
 20
-18.11646997671305
 30
0.0
 11
-13.89059960243144
 21
120.3103104520085
 31
0.0
  0
LINE
  5
2A124
330
2A0AE
100
AcDbEntity
  8
0
100
AcDbLine
 10
-42.99289033455387
 20
136.4361179253311
 30
0.0
 11
-16.47638604005833
 21
121.1268070329363
 31
0.0
  0
LINE
  5
2A125
330
2A0AE
100
AcDbEntity
  8
0
100
AcDbLine
 10
-42.99289033455387
 20
104.1845029786859
 30
0.0
 11
-42.99289033455387
 21
136.4361179253311
 31
0.0
  0
LINE
  5
2A126
330
2A0AE
100
AcDbEntity
  8
0
100
AcDbLine
 10
-41.57867677218078
 20
137.2526145062588
 30
0.0
 11
-42.99289033455387
 21
136.4361179253311
 31
0.0
  0
LINE
  5
2A127
330
2A0AE
100
AcDbEntity
  8
0
100
AcDbLine
 10
-16.47638604005833
 20
119.4938138710808
 30
0.0
 11
-46.17487084989334
 21
102.3473856715986
 31
0.0
  0
LINE
  5
2A128
330
2A0AE
100
AcDbEntity
  8
0
100
AcDbLine
 10
-74.45914209735524
 20
-56.21383162639481
 30
0.0
 11
-74.45914209735524
 21
-67.48390316136838
 31
0.0
  0
LINE
  5
2A129
330
2A0AE
100
AcDbEntity
  8
0
100
AcDbLine
 10
-44.76065728752025
 20
101.5308890906708
 30
0.0
 11
-15.06217247768524
 21
118.6773172901531
 31
0.0
  0
LINE
  5
2A12A
330
2A0AE
100
AcDbEntity
  8
0
100
AcDbLine
 10
-15.06217247768524
 20
121.943303613864
 30
0.0
 11
-41.57867677218078
 21
137.2526145062588
 31
0.0
  0
LINE
  5
2A12B
330
2A0AE
100
AcDbEntity
  8
0
100
AcDbLine
 10
-73.04492853498214
 20
-68.3003997422961
 30
0.0
 11
-73.04492853498214
 21
-57.03032820732253
 31
0.0
  0
LINE
  5
2A12C
330
2A0AE
100
AcDbEntity
  8
0
100
AcDbLine
 10
-40.03366670933695
 20
4.127666448954938
 30
0.0
 11
-39.3789411189481
 21
3.115291069686874
 31
0.0
  0
LINE
  5
2A12D
330
2A0AE
100
AcDbEntity
  8
0
100
AcDbLine
 10
-44.76065728752026
 20
-26.20183602966258
 30
0.0
 11
-51.70448095337303
 21
-36.9387863191924
 31
0.0
  0
LINE
  5
2A12E
330
2A0AE
100
AcDbEntity
  8
0
100
AcDbLine
 10
-46.17487084989335
 20
-25.38533944873486
 30
0.0
 11
-44.76065728752026
 21
-26.20183602966258
 31
0.0
  0
LINE
  5
2A12F
330
2A0AE
100
AcDbEntity
  8
0
100
AcDbLine
 10
-53.11869451574612
 20
-36.12228973826468
 30
0.0
 11
-46.17487084989335
 21
-25.38533944873486
 31
0.0
  0
LINE
  5
2A130
330
2A0AE
100
AcDbEntity
  8
0
100
AcDbLine
 10
-53.11869451574612
 20
-36.12228973826468
 30
0.0
 11
-51.70448095337303
 21
-36.9387863191924
 31
0.0
  0
LINE
  5
2A131
330
2A0AE
100
AcDbEntity
  8
0
100
AcDbLine
 10
-51.70448095337303
 20
-36.9387863191924
 30
0.0
 11
-70.12333364889427
 21
-51.32308379734874
 31
0.0
  0
LINE
  5
2A132
330
2A0AE
100
AcDbEntity
  8
0
100
AcDbLine
 10
-71.53754721126737
 20
-50.50658721642101
 30
0.0
 11
-53.11869451574612
 21
-36.12228973826468
 31
0.0
  0
LINE
  5
2A133
330
2A0AE
100
AcDbEntity
  8
0
100
AcDbLine
 10
-71.53754721126737
 20
-50.50658721642101
 30
0.0
 11
-70.12333364889427
 21
-51.32308379734874
 31
0.0
  0
ELLIPSE
  5
2A134
330
2A0AE
100
AcDbEntity
  8
0
100
AcDbEllipse
 10
-69.50939462904942
 20
-54.9890867550032
 30
0.0
 11
-2.499999999999741
 21
-4.330127018922341
 31
0.0
210
0.0
220
0.0
230
1.0
 40
0.5773502691896258
 41
4.101523742186527
 42
5.497787143781941
  0
ELLIPSE
  5
2A135
330
2A0AE
100
AcDbEntity
  8
0
100
AcDbEllipse
 10
-70.92360819142252
 20
-54.17259017407547
 30
0.0
 11
2.500000000000259
 21
4.330127018922041
 31
0.0
210
0.0
220
0.0
230
1.0
 40
0.577350269189626
 41
0.9599310885970746
 42
2.356194490192589
  0
LINE
  5
2A136
330
2A0AE
100
AcDbEntity
  8
0
100
AcDbLine
 10
-73.04492853498214
 20
-57.03032820732253
 30
0.0
 11
-74.45914209735524
 21
-56.21383162639481
 31
0.0
  0
LINE
  5
2A137
330
2A0AE
100
AcDbEntity
  8
0
100
AcDbLine
 10
-44.76065728752025
 20
101.5308890906708
 30
0.0
 11
-44.76065728752026
 21
-26.20183602966257
 31
0.0
  0
LINE
  5
2A138
330
2A0AE
100
AcDbEntity
  8
0
100
AcDbLine
 10
-46.17487084989334
 20
102.3473856715986
 30
0.0
 11
-44.76065728752025
 21
101.5308890906708
 31
0.0
  0
LINE
  5
2A139
330
2A0AE
100
AcDbEntity
  8
0
100
AcDbLine
 10
-46.17487084989335
 20
-25.38533944873486
 30
0.0
 11
-46.17487084989334
 21
102.3473856715986
 31
0.0
  0
LINE
  5
2A13A
330
2A0AE
100
AcDbEntity
  8
0
100
AcDbLine
 10
-71.63071497260904
 20
-70.74988948507928
 30
0.0
 11
10.39367164503045
 21
-118.1066911788873
 31
0.0
  0
ELLIPSE
  5
2A13B
330
2A0AE
100
AcDbEntity
  8
0
100
AcDbEllipse
 10
-17.89059960243142
 20
-87.07982110363378
 30
0.0
 11
-2.499999999999999
 21
0.0000000000001493
 31
0.0
210
0.0
220
0.0
230
1.0
 40
0.5773502691896258
 41
0.0
 42
6.283185307179586
  0
ELLIPSE
  5
2A13C
330
2A0AE
100
AcDbEntity
  8
0
100
AcDbEllipse
 10
-3.748463978700464
 20
-78.91485529435652
 30
0.0
 11
-2.499999999999999
 21
0.0000000000001493
 31
0.0
210
0.0
220
0.0
230
1.0
 40
0.5773502691896258
 41
0.0
 42
6.283185307179586
  0
ELLIPSE
  5
2A13D
330
2A0AE
100
AcDbEntity
  8
0
100
AcDbEllipse
 10
-3.748463978700464
 20
-80.54784845621197
 30
0.0
 11
-2.5
 21
-0.0000000000001492
 31
0.0
210
0.0
220
0.0
230
1.0
 40
0.5773502691896257
 41
3.742856870268582
 42
5.681921090500122
  0
ELLIPSE
  5
2A13E
330
2A0AE
100
AcDbEntity
  8
0
100
AcDbEllipse
 10
-17.89059960243142
 20
-88.71281426548922
 30
0.0
 11
-2.5
 21
-0.0000000000001492
 31
0.0
210
0.0
220
0.0
230
1.0
 40
0.5773502691896257
 41
3.742856870268575
 42
5.68192109050012
  0
LINE
  5
2A13F
330
2A0AE
100
AcDbEntity
  8
0
100
AcDbLine
 10
10.39367164503044
 20
-119.7396843407428
 30
0.0
 11
-71.63071497260904
 21
-72.38288264693473
 31
0.0
  0
ELLIPSE
  5
2A140
330
2A0AE
100
AcDbEntity
  8
0
100
AcDbEllipse
 10
45.39545731376454
 20
-70.95401363031122
 30
0.0
 11
1.249999999999871
 21
2.16506350946117
 31
0.0
210
0.0
220
0.0
230
1.0
 40
0.5773502691896259
 41
3.742856870268584
 42
5.681921090500118
  0
ELLIPSE
  5
2A141
330
2A0AE
100
AcDbEntity
  8
0
100
AcDbEllipse
 10
46.80967087613763
 20
-71.77051021123896
 30
0.0
 11
-1.25
 21
-2.165063509461095
 31
0.0
210
0.0
220
0.0
230
1.0
 40
0.577350269189626
 41
0.0
 42
6.283185307179586
  0
ELLIPSE
  5
2A142
330
2A0AE
100
AcDbEntity
  8
0
100
AcDbEllipse
 10
45.39545731376454
 20
-54.6240820117567
 30
0.0
 11
1.249999999999871
 21
2.16506350946117
 31
0.0
210
0.0
220
0.0
230
1.0
 40
0.5773502691896259
 41
3.742856870268584
 42
5.681921090500118
  0
ELLIPSE
  5
2A143
330
2A0AE
100
AcDbEntity
  8
0
100
AcDbEllipse
 10
46.80967087613763
 20
-55.44057859268443
 30
0.0
 11
-1.25
 21
-2.165063509461095
 31
0.0
210
0.0
220
0.0
230
1.0
 40
0.577350269189626
 41
0.0
 42
6.283185307179586
  0
ELLIPSE
  5
2A144
330
2A0AE
100
AcDbEntity
  8
0
100
AcDbEllipse
 10
45.39545731376454
 20
-38.29415039320219
 30
0.0
 11
1.249999999999871
 21
2.16506350946117
 31
0.0
210
0.0
220
0.0
230
1.0
 40
0.5773502691896259
 41
3.742856870268584
 42
5.681921090500121
  0
ELLIPSE
  5
2A145
330
2A0AE
100
AcDbEntity
  8
0
100
AcDbEllipse
 10
46.80967087613763
 20
-39.11064697412992
 30
0.0
 11
-1.25
 21
-2.165063509461095
 31
0.0
210
0.0
220
0.0
230
1.0
 40
0.577350269189626
 41
0.0
 42
6.283185307179586
  0
ELLIPSE
  5
2A146
330
2A0AE
100
AcDbEntity
  8
0
100
AcDbEllipse
 10
45.39545731376454
 20
-21.96421877464768
 30
0.0
 11
1.249999999999871
 21
2.16506350946117
 31
0.0
210
0.0
220
0.0
230
1.0
 40
0.5773502691896259
 41
3.742856870268584
 42
5.681921090500121
  0
ELLIPSE
  5
2A147
330
2A0AE
100
AcDbEntity
  8
0
100
AcDbEllipse
 10
46.80967087613763
 20
-22.7807153555754
 30
0.0
 11
-1.25
 21
-2.165063509461095
 31
0.0
210
0.0
220
0.0
230
1.0
 40
0.577350269189626
 41
0.0
 42
6.283185307179586
  0
ELLIPSE
  5
2A148
330
2A0AE
100
AcDbEntity
  8
0
100
AcDbEllipse
 10
45.39545731376454
 20
-5.634287156093158
 30
0.0
 11
1.249999999999871
 21
2.16506350946117
 31
0.0
210
0.0
220
0.0
230
1.0
 40
0.5773502691896259
 41
3.742856870268584
 42
5.681921090500121
  0
ELLIPSE
  5
2A149
330
2A0AE
100
AcDbEntity
  8
0
100
AcDbEllipse
 10
46.80967087613763
 20
-6.450783737020886
 30
0.0
 11
-1.25
 21
-2.165063509461095
 31
0.0
210
0.0
220
0.0
230
1.0
 40
0.577350269189626
 41
0.0
 42
6.283185307179586
  0
ELLIPSE
  5
2A14A
330
2A0AE
100
AcDbEntity
  8
0
100
AcDbEllipse
 10
45.39545731376454
 20
10.69564446246136
 30
0.0
 11
1.249999999999871
 21
2.16506350946117
 31
0.0
210
0.0
220
0.0
230
1.0
 40
0.5773502691896259
 41
3.742856870268584
 42
5.681921090500122
  0
ELLIPSE
  5
2A14B
330
2A0AE
100
AcDbEntity
  8
0
100
AcDbEllipse
 10
46.80967087613763
 20
9.879147881533638
 30
0.0
 11
-1.25
 21
-2.165063509461095
 31
0.0
210
0.0
220
0.0
230
1.0
 40
0.577350269189626
 41
0.0
 42
6.283185307179586
  0
ELLIPSE
  5
2A14C
330
2A0AE
100
AcDbEntity
  8
0
100
AcDbEllipse
 10
45.39545731376454
 20
27.02557608101586
 30
0.0
 11
1.249999999999871
 21
2.16506350946117
 31
0.0
210
0.0
220
0.0
230
1.0
 40
0.5773502691896259
 41
3.742856870268584
 42
5.681921090500121
  0
ELLIPSE
  5
2A14D
330
2A0AE
100
AcDbEntity
  8
0
100
AcDbEllipse
 10
46.80967087613763
 20
26.20907950008815
 30
0.0
 11
-1.25
 21
-2.165063509461095
 31
0.0
210
0.0
220
0.0
230
1.0
 40
0.577350269189626
 41
0.0
 42
6.283185307179586
  0
ELLIPSE
  5
2A14E
330
2A0AE
100
AcDbEntity
  8
0
100
AcDbEllipse
 10
-40.87156999099422
 20
-12.98275638444266
 30
0.0
 11
1.24999999999987
 21
2.16506350946117
 31
0.0
210
0.0
220
0.0
230
0.9999999999999998
 40
0.5773502691896258
 41
3.742856870268584
 42
5.681921090500117
  0
ELLIPSE
  5
2A14F
330
2A0AE
100
AcDbEntity
  8
0
100
AcDbEllipse
 10
-39.45735642862113
 20
-13.79925296537039
 30
0.0
 11
1.249999999999999
 21
2.165063509461096
 31
0.0
210
0.0
220
0.0
230
1.0
 40
0.5773502691896258
 41
0.0
 42
6.283185307179586
  0
ELLIPSE
  5
2A150
330
2A0AE
100
AcDbEntity
  8
0
100
AcDbEllipse
 10
-40.87156999099422
 20
3.347175234111849
 30
0.0
 11
1.24999999999987
 21
2.16506350946117
 31
0.0
210
0.0
220
0.0
230
0.9999999999999998
 40
0.5773502691896258
 41
3.742856870268584
 42
5.681921090500117
  0
ELLIPSE
  5
2A151
330
2A0AE
100
AcDbEntity
  8
0
100
AcDbEllipse
 10
-39.45735642862113
 20
2.530678653184121
 30
0.0
 11
1.249999999999999
 21
2.165063509461096
 31
0.0
210
0.0
220
0.0
230
1.0
 40
0.5773502691896258
 41
0.0
 42
6.283185307179586
  0
ELLIPSE
  5
2A152
330
2A0AE
100
AcDbEntity
  8
0
100
AcDbEllipse
 10
-40.87156999099422
 20
19.67710685266636
 30
0.0
 11
1.24999999999987
 21
2.16506350946117
 31
0.0
210
0.0
220
0.0
230
0.9999999999999998
 40
0.5773502691896258
 41
3.742856870268584
 42
5.681921090500124
  0
ELLIPSE
  5
2A153
330
2A0AE
100
AcDbEntity
  8
0
100
AcDbEllipse
 10
-39.45735642862113
 20
18.86061027173863
 30
0.0
 11
1.249999999999999
 21
2.165063509461096
 31
0.0
210
0.0
220
0.0
230
1.0
 40
0.5773502691896258
 41
0.0
 42
6.283185307179586
  0
ELLIPSE
  5
2A154
330
2A0AE
100
AcDbEntity
  8
0
100
AcDbEllipse
 10
-40.87156999099422
 20
36.00703847122087
 30
0.0
 11
1.24999999999987
 21
2.16506350946117
 31
0.0
210
0.0
220
0.0
230
0.9999999999999998
 40
0.5773502691896258
 41
3.742856870268584
 42
5.681921090500122
  0
ELLIPSE
  5
2A155
330
2A0AE
100
AcDbEntity
  8
0
100
AcDbEllipse
 10
-39.45735642862113
 20
35.19054189029315
 30
0.0
 11
1.249999999999999
 21
2.165063509461096
 31
0.0
210
0.0
220
0.0
230
1.0
 40
0.5773502691896258
 41
0.0
 42
6.283185307179586
  0
ELLIPSE
  5
2A156
330
2A0AE
100
AcDbEntity
  8
0
100
AcDbEllipse
 10
-40.87156999099422
 20
52.33697008977539
 30
0.0
 11
1.24999999999987
 21
2.16506350946117
 31
0.0
210
0.0
220
0.0
230
0.9999999999999998
 40
0.5773502691896258
 41
3.742856870268584
 42
5.681921090500118
  0
ELLIPSE
  5
2A157
330
2A0AE
100
AcDbEntity
  8
0
100
AcDbEllipse
 10
-39.45735642862113
 20
51.52047350884767
 30
0.0
 11
1.249999999999999
 21
2.165063509461096
 31
0.0
210
0.0
220
0.0
230
1.0
 40
0.5773502691896258
 41
0.0
 42
6.283185307179586
  0
ELLIPSE
  5
2A158
330
2A0AE
100
AcDbEntity
  8
0
100
AcDbEllipse
 10
-40.87156999099422
 20
68.6669017083299
 30
0.0
 11
1.24999999999987
 21
2.16506350946117
 31
0.0
210
0.0
220
0.0
230
0.9999999999999998
 40
0.5773502691896258
 41
3.742856870268584
 42
5.681921090500118
  0
ELLIPSE
  5
2A159
330
2A0AE
100
AcDbEntity
  8
0
100
AcDbEllipse
 10
-39.45735642862113
 20
67.85040512740218
 30
0.0
 11
1.249999999999999
 21
2.165063509461096
 31
0.0
210
0.0
220
0.0
230
1.0
 40
0.5773502691896258
 41
0.0
 42
6.283185307179586
  0
ELLIPSE
  5
2A15A
330
2A0AE
100
AcDbEntity
  8
0
100
AcDbEllipse
 10
-40.87156999099422
 20
84.99683332688441
 30
0.0
 11
1.24999999999987
 21
2.16506350946117
 31
0.0
210
0.0
220
0.0
230
0.9999999999999998
 40
0.5773502691896258
 41
3.742856870268584
 42
5.681921090500106
  0
ELLIPSE
  5
2A15B
330
2A0AE
100
AcDbEntity
  8
0
100
AcDbEllipse
 10
-39.45735642862113
 20
84.18033674595669
 30
0.0
 11
1.249999999999999
 21
2.165063509461096
 31
0.0
210
0.0
220
0.0
230
1.0
 40
0.5773502691896258
 41
0.0
 42
6.283185307179586
  0
ELLIPSE
  5
2A15C
330
2A0AE
100
AcDbEntity
  8
0
100
AcDbEllipse
 10
-40.87156999099422
 20
101.3267649454389
 30
0.0
 11
1.24999999999987
 21
2.16506350946117
 31
0.0
210
0.0
220
0.0
230
0.9999999999999998
 40
0.5773502691896258
 41
3.742856870268584
 42
5.681921090500106
  0
ELLIPSE
  5
2A15D
330
2A0AE
100
AcDbEntity
  8
0
100
AcDbEllipse
 10
-39.45735642862113
 20
100.5102683645112
 30
0.0
 11
1.249999999999999
 21
2.165063509461096
 31
0.0
210
0.0
220
0.0
230
1.0
 40
0.5773502691896258
 41
0.0
 42
6.283185307179586
  0
ENDBLK
  5
2A0B0
330
2A0AE
100
AcDbEntity
  8
0
100
AcDbBlockEnd
  0
ENDSEC
  0
SECTION
  2
ENTITIES
  0
INSERT
  5
2A15E
330
1F
100
AcDbEntity
  8
0
100
AcDbBlockReference
  2
SAEL500_120_2-Front
 10
0.0
 20
0.0
 30
0.0
  0
INSERT
  5
2A15F
330
1F
100
AcDbEntity
  8
0
100
AcDbBlockReference
  2
SAEL500_120_2-Left
 10
159.1
 20
0.0
 30
0.0
  0
INSERT
  5
2A160
330
1F
100
AcDbEntity
  8
0
100
AcDbBlockReference
  2
SAEL500_120_2-Right
 10
-159.1
 20
0.0
 30
0.0
  0
INSERT
  5
2A161
330
1F
100
AcDbEntity
  8
0
100
AcDbBlockReference
  2
SAEL500_120_2-Top
 10
0.0
 20
-59.6
 30
0.0
  0
INSERT
  5
2A162
330
1F
100
AcDbEntity
  8
0
100
AcDbBlockReference
  2
SAEL500_120_2-Bottom
 10
0.0
 20
247.6
 30
0.0
  0
INSERT
  5
2A163
330
1F
100
AcDbEntity
  8
0
100
AcDbBlockReference
  2
SAEL500_120_2-ISO
 10
233.5591420973554
 20
-196.8526145062588
 30
0.0
  0
MTEXT
  5
2A164
330
1F
100
AcDbEntity
  8
0
100
AcDbMText
 10
0.0
 20
-203.2
 30
0.0
 40
16.74736842105264
 41
0.0
 71
     5
 72
     5
  1
SAEL500/120/2
 73
     1
 44
1.0
1001
ACAD
1000
MTEXTBEGIN
1070
    73
1070
     1
1070
    44
1040
1.0
1070
    74
1070
     0
1000
MTEXTEND
  0
ENDSEC
  0
SECTION
  2
OBJECTS
  0
DICTIONARY
  5
C
330
0
100
AcDbDictionary
281
     1
  3
ACAD_CIP_PREVIOUS_PRODUCT_INFO
350
216
  3
ACAD_COLOR
350
6B
  3
ACAD_DETAILVIEWSTYLE
350
21B
  3
ACAD_GROUP
350
D
  3
ACAD_LAYOUT
350
1A
  3
ACAD_MATERIAL
350
6A
  3
ACAD_MLEADERSTYLE
350
12D
  3
ACAD_MLINESTYLE
350
17
  3
ACAD_PLOTSETTINGS
350
19
  3
ACAD_PLOTSTYLENAME
350
E
  3
ACAD_SCALELIST
350
10C
  3
ACAD_SECTIONVIEWSTYLE
350
219
  3
ACAD_TABLESTYLE
350
7E
  3
ACAD_VISUALSTYLE
350
EF
  3
ACDB_RECOMPOSE_DATA
350
2A265
  3
AcDbVariableDictionary
350
5E
  3
DWGPROPS
350
2A266
  0
DICTIONARY
  5
2A1B5
330
8
100
AcDbDictionary
280
     1
281
     1
  0
DICTIONARY
  5
1FF
330
2
100
AcDbDictionary
280
     1
281
     1
  3
ACAD_LAYERSTATES
360
200
  0
DICTIONARY
  5
13C
330
10
100
AcDbDictionary
280
     1
281
     1
  0
DICTIONARY
  5
1CE
330
1F
100
AcDbDictionary
280
     1
281
     1
  3
ACAD_LAYOUTSELFREF
360
2A1BD
  0
DICTIONARY
  5
2A168
330
D2
100
AcDbDictionary
280
     1
281
     1
  3
ACAD_LAYOUTSELFREF
360
2A1C6
  0
DICTIONARY
  5
2A16A
330
D6
100
AcDbDictionary
280
     1
281
     1
  3
ACAD_LAYOUTSELFREF
360
2A1C9
  0
XRECORD
  5
216
102
{ACAD_REACTORS
330
C
102
}
330
C
100
AcDbXrecord
280
     1
300
ACD
300
2021
300
87393ACD_2021_0F
  0
DICTIONARY
  5
6B
102
{ACAD_REACTORS
330
C
102
}
330
C
100
AcDbDictionary
281
     1
  0
DICTIONARY
  5
21B
102
{ACAD_REACTORS
330
C
102
}
330
C
100
AcDbDictionary
281
     1
  3
Metric50
350
21C
  0
DICTIONARY
  5
D
102
{ACAD_REACTORS
330
C
102
}
330
C
100
AcDbDictionary
281
     1
  0
DICTIONARY
  5
1A
102
{ACAD_REACTORS
330
C
102
}
330
C
100
AcDbDictionary
281
     1
  3
Layout1
350
D3
  3
Layout2
350
D7
  3
Model
350
22
  0
DICTIONARY
  5
6A
102
{ACAD_REACTORS
330
C
102
}
330
C
100
AcDbDictionary
281
     1
  3
ByBlock
350
ED
  3
ByLayer
350
EC
  3
Global
350
EE
  0
DICTIONARY
  5
12D
102
{ACAD_REACTORS
330
C
102
}
330
C
100
AcDbDictionary
281
     1
  3
Standard
350
12E
  0
DICTIONARY
  5
17
102
{ACAD_REACTORS
330
C
102
}
330
C
100
AcDbDictionary
281
     1
  3
Standard
350
18
  0
DICTIONARY
  5
19
102
{ACAD_REACTORS
330
C
102
}
330
C
100
AcDbDictionary
281
     1
  0
ACDBDICTIONARYWDFLT
  5
E
102
{ACAD_REACTORS
330
C
102
}
330
C
100
AcDbDictionary
281
     1
  3
Normal
350
F
100
AcDbDictionaryWithDefault
340
F
  0
DICTIONARY
  5
10C
102
{ACAD_REACTORS
330
C
102
}
330
C
100
AcDbDictionary
281
     1
  3
A0
350
10D
  3
A1
350
1BE
  3
A2
350
1BF
  3
A3
350
1C0
  3
A4
350
1C1
  3
A5
350
1C2
  3
A6
350
1C3
  3
A7
350
1C4
  3
A8
350
1C5
  3
A9
350
1C6
  3
B0
350
1C7
  3
B1
350
1C8
  3
B2
350
1C9
  3
B3
350
1CA
  3
B4
350
1CB
  3
B5
350
1CC
  3
B6
350
1CD
  0
DICTIONARY
  5
219
102
{ACAD_REACTORS
330
C
102
}
330
C
100
AcDbDictionary
281
     1
  3
Metric50
350
21A
  0
DICTIONARY
  5
7E
102
{ACAD_REACTORS
330
C
102
}
330
C
100
AcDbDictionary
281
     1
  3
Standard
350
7F
  0
DICTIONARY
  5
EF
102
{ACAD_REACTORS
330
C
102
}
330
C
100
AcDbDictionary
281
     1
  3
2dWireframe
350
F5
  3
Basic
350
F4
  3
Brighten
350
FB
  3
ColorChange
350
FF
  3
Conceptual
350
F8
  3
Dim
350
FA
  3
EdgeColorOff
350
1E6
  3
Facepattern
350
FE
  3
Flat
350
F0
  3
FlatWithEdges
350
F1
  3
Gouraud
350
F2
  3
GouraudWithEdges
350
F3
  3
Hidden
350
F7
  3
JitterOff
350
1E4
  3
Linepattern
350
FD
  3
OverhangOff
350
1E5
  3
Realistic
350
F9
  3
Shaded
350
1F3
  3
Shaded with edges
350
1F2
  3
Shades of Gray
350
1EF
  3
Sketchy
350
1F0
  3
Thicken
350
FC
  3
Wireframe
350
F6
  3
X-Ray
350
1F1
  0
XRECORD
  5
2A265
102
{ACAD_REACTORS
330
C
102
}
330
C
100
AcDbXrecord
280
     1
 90
        1
330
7F
  0
DICTIONARY
  5
5E
102
{ACAD_REACTORS
330
C
102
}
330
C
100
AcDbDictionary
281
     1
  3
CANNOSCALE
350
146
  3
CENTEREXE
350
259
  3
CENTERLTYPEFILE
350
25A
  3
CMLEADERSTYLE
350
145
  3
CTABLESTYLE
350
84
  3
CVIEWDETAILSTYLE
350
227
  3
CVIEWSECTIONSTYLE
350
228
  3
DIMASSOC
350
5F
  3
HIDETEXT
350
63
  3
INDEXCTL
350
2A212
  3
LAYEREVAL
350
1AE
  3
LAYERNOTIFY
350
1AF
  3
LIGHTINGUNITS
350
2A210
  3
MSLTSCALE
350
2A20F
  3
PSOLHEIGHT
350
2A262
  3
PSOLWIDTH
350
2A261
  3
SORTENTS
350
2A211
  3
XCLIPFRAME
350
2A263
  0
XRECORD
  5
2A266
102
{ACAD_REACTORS
330
C
102
}
330
C
100
AcDbXrecord
280
     1
  1
DWGPROPS COOKIE
  2

  3

  4

  6

  7

  8
truole
  9

300
=
301
=
302
=
303
=
304
=
305
=
306
=
307
=
308
=
309
=
 40
0.0102199074074074
 41
2460398.356956019
 42
2460398.3915625
  1

 90
        0
  0
DICTIONARY
  5
200
102
{ACAD_REACTORS
330
1FF
102
}
330
1FF
100
AcDbDictionary
281
     1
  0
XRECORD
  5
2A1BD
102
{ACAD_REACTORS
330
1CE
102
}
330
1CE
100
AcDbXrecord
280
     1
340
1F
  0
XRECORD
  5
2A1C6
102
{ACAD_REACTORS
330
2A168
102
}
330
2A168
100
AcDbXrecord
280
     1
340
D2
  0
XRECORD
  5
2A1C9
102
{ACAD_REACTORS
330
2A16A
102
}
330
2A16A
100
AcDbXrecord
280
     1
340
D6
  0
ACDBDETAILVIEWSTYLE
  5
21C
102
{ACAD_XDICTIONARY
360
2A2A5
102
}
102
{ACAD_REACTORS
330
21B
102
}
330
21B
100
AcDbModelDocViewStyle
 70
     0
  3
Metric50
290
     0
100
AcDbDetailViewStyle
 70
     0
 71
     0
 90
        3
 71
     1
340
11
 40
5.0
340
0
 40
5.0
300

 40
0.0
280
     1
 71
     2
340
16
 90
       25
 71
     3
340
11
 40
5.0
 90
        0
 40
15.0
 90
        1
300
%<\AcVar ViewDetailId>% (%<\AcVar ViewScale \f "%sn">%)
 71
     4
340
16
 90
       25
340
16
 90
       25
280
     0
  0
LAYOUT
  5
D3
102
{ACAD_XDICTIONARY
360
2A26A
102
}
102
{ACAD_REACTORS
330
1A
102
}
330
1A
100
AcDbPlotSettings
  1

  2
C:\Documents and Settings\basas\Application Data\Autodesk\AutoCAD 2005\R16.1\enu\plotters\Default Windows System Printer.pc3
  4

  6

 40
0.0
 41
0.0
 42
0.0
 43
0.0
 44
0.0
 45
0.0
 46
0.0
 47
0.0
 48
0.0
 49
0.0
140
0.0
141
0.0
142
1.0
143
1.0
 70
   688
 72
     0
 73
     0
 74
     5
  7

 75
    16
147
1.0
148
0.0
149
0.0
100
AcDbLayout
  1
Layout1
 70
     1
 71
     1
 10
0.0
 20
0.0
 11
12.0
 21
9.0
 12
0.0
 22
0.0
 32
0.0
 14
0.0
 24
0.0
 34
0.0
 15
0.0
 25
0.0
 35
0.0
146
0.0
 13
0.0
 23
0.0
 33
0.0
 16
1.0
 26
0.0
 36
0.0
 17
0.0
 27
1.0
 37
0.0
 76
     0
330
D2
  0
LAYOUT
  5
D7
102
{ACAD_XDICTIONARY
360
2A26C
102
}
102
{ACAD_REACTORS
330
1A
102
}
330
1A
100
AcDbPlotSettings
  1

  2
C:\Documents and Settings\basas\Application Data\Autodesk\AutoCAD 2005\R16.1\enu\plotters\Default Windows System Printer.pc3
  4

  6

 40
0.0
 41
0.0
 42
0.0
 43
0.0
 44
0.0
 45
0.0
 46
0.0
 47
0.0
 48
0.0
 49
0.0
140
0.0
141
0.0
142
1.0
143
1.0
 70
   688
 72
     0
 73
     0
 74
     5
  7

 75
    16
147
1.0
148
0.0
149
0.0
100
AcDbLayout
  1
Layout2
 70
     1
 71
     2
 10
0.0
 20
0.0
 11
12.0
 21
9.0
 12
0.0
 22
0.0
 32
0.0
 14
0.0
 24
0.0
 34
0.0
 15
0.0
 25
0.0
 35
0.0
146
0.0
 13
0.0
 23
0.0
 33
0.0
 16
1.0
 26
0.0
 36
0.0
 17
0.0
 27
1.0
 37
0.0
 76
     0
330
D6
  0
LAYOUT
  5
22
102
{ACAD_XDICTIONARY
360
2A267
102
}
102
{ACAD_REACTORS
330
1A
102
}
330
1A
100
AcDbPlotSettings
  1

  2
none_device
  4
ISO_A4_(210.00_x_297.00_MM)
  6

 40
7.5
 41
20.0
 42
7.5
 43
20.0
 44
210.0
 45
297.0
 46
11.54999923706054
 47
-13.65000009536743
 48
0.0
 49
0.0
140
0.0
141
0.0
142
1.0
143
8.704084754739808
 70
 11952
 72
     1
 73
     0
 74
     0
  7

 75
     0
147
0.1148885871608098
148
0.0
149
0.0
100
AcDbLayout
  1
Model
 70
     1
 71
     0
 10
0.0
 20
0.0
 11
12.0
 21
9.0
 12
0.0
 22
0.0
 32
0.0
 14
0.0
 24
0.0
 34
0.0
 15
0.0
 25
0.0
 35
0.0
146
0.0
 13
0.0
 23
0.0
 33
0.0
 16
1.0
 26
0.0
 36
0.0
 17
0.0
 27
1.0
 37
0.0
 76
     0
330
1F
331
EA
1001
ACAD_PSEXT
1000
None
1000
None
1000
Not applicable
1000
The layout will not be plotted unless a new plotter configuration name is selected.
1070
     0
  0
MATERIAL
  5
ED
102
{ACAD_XDICTIONARY
360
1F9
102
}
102
{ACAD_REACTORS
330
6A
102
}
330
6A
100
AcDbMaterial
  1
ByBlock
  0
MATERIAL
  5
EC
102
{ACAD_XDICTIONARY
360
1F7
102
}
102
{ACAD_REACTORS
330
6A
102
}
330
6A
100
AcDbMaterial
  1
ByLayer
  0
MATERIAL
  5
EE
102
{ACAD_XDICTIONARY
360
173
102
}
102
{ACAD_REACTORS
330
6A
102
}
330
6A
100
AcDbMaterial
  1
Global
 43
0.0007999999797903
 43
0.0
 43
0.0
 43
0.0
 43
0.0
 43
0.0007999999797903
 43
0.0
 43
0.0
 43
0.0
 43
0.0
 43
1.0
 43
0.0
 43
0.0
 43
0.0
 43
0.0
 43
1.0
 49
0.0007999999797903
 49
0.0
 49
0.0
 49
0.0
 49
0.0
 49
0.0007999999797903
 49
0.0
 49
0.0
 49
0.0
 49
0.0
 49
1.0
 49
0.0
 49
0.0
 49
0.0
 49
0.0
 49
1.0
142
0.0007999999797903
142
0.0
142
0.0
142
0.0
142
0.0
142
0.0007999999797903
142
0.0
142
0.0
142
0.0
142
0.0
142
1.0
142
0.0
142
0.0
142
0.0
142
0.0
142
1.0
144
0.0007999999797903
144
0.0
144
0.0
144
0.0
144
0.0
144
0.0007999999797903
144
0.0
144
0.0
144
0.0
144
0.0
144
1.0
144
0.0
144
0.0
144
0.0
144
0.0
144
1.0
1001
ACAD
1070
    -1
1070
     3
1070
     0
1000

1071
        0
1070
     0
  0
MLEADERSTYLE
  5
12E
102
{ACAD_XDICTIONARY
360
2A291
102
}
102
{ACAD_REACTORS
330
12D
102
}
330
12D
100
AcDbMLeaderStyle
170
     2
171
     1
172
     0
 90
        2
 40
0.0
 41
0.0
173
     1
 91
-1056964608
340
14
 92
       -2
290
     1
 42
2.0
291
     1
 43
8.0
  3
Standard
 44
4.0
300

342
11
174
     1
178
     1
175
     1
176
     0
 93
-1056964608
 45
4.0
292
     0
297
     0
 46
4.0
 94
-1056964608
 47
1.0
 49
1.0
140
1.0
293
     1
141
0.0
294
     1
177
     0
142
1.0
295
     0
296
     0
143
3.75
1001
ACAD_MLEADERVER
1070
     2
  0
MLINESTYLE
  5
18
102
{ACAD_REACTORS
330
17
102
}
330
17
100
AcDbMlineStyle
  2
STANDARD
 70
     0
  3

 62
   256
 51
90.0
 52
90.0
 71
     2
 49
0.5
 62
   256
  6
BYLAYER
 49
-0.5
 62
   256
  6
BYLAYER
  0
ACDBPLACEHOLDER
  5
F
102
{ACAD_REACTORS
330
E
102
}
330
E
  0
SCALE
  5
10D
102
{ACAD_REACTORS
330
10C
102
}
330
10C
100
AcDbScale
 70
     0
300
1:1
140
1.0
141
1.0
290
     1
  0
SCALE
  5
1BE
102
{ACAD_REACTORS
330
10C
102
}
330
10C
100
AcDbScale
 70
     0
300
1:2
140
1.0
141
2.0
290
     0
  0
SCALE
  5
1BF
102
{ACAD_REACTORS
330
10C
102
}
330
10C
100
AcDbScale
 70
     0
300
1:4
140
1.0
141
4.0
290
     0
  0
SCALE
  5
1C0
102
{ACAD_REACTORS
330
10C
102
}
330
10C
100
AcDbScale
 70
     0
300
1:5
140
1.0
141
5.0
290
     0
  0
SCALE
  5
1C1
102
{ACAD_REACTORS
330
10C
102
}
330
10C
100
AcDbScale
 70
     0
300
1:8
140
1.0
141
8.0
290
     0
  0
SCALE
  5
1C2
102
{ACAD_REACTORS
330
10C
102
}
330
10C
100
AcDbScale
 70
     0
300
1:10
140
1.0
141
10.0
290
     0
  0
SCALE
  5
1C3
102
{ACAD_REACTORS
330
10C
102
}
330
10C
100
AcDbScale
 70
     0
300
1:16
140
1.0
141
16.0
290
     0
  0
SCALE
  5
1C4
102
{ACAD_REACTORS
330
10C
102
}
330
10C
100
AcDbScale
 70
     0
300
1:20
140
1.0
141
20.0
290
     0
  0
SCALE
  5
1C5
102
{ACAD_REACTORS
330
10C
102
}
330
10C
100
AcDbScale
 70
     0
300
1:30
140
1.0
141
30.0
290
     0
  0
SCALE
  5
1C6
102
{ACAD_REACTORS
330
10C
102
}
330
10C
100
AcDbScale
 70
     0
300
1:40
140
1.0
141
40.0
290
     0
  0
SCALE
  5
1C7
102
{ACAD_REACTORS
330
10C
102
}
330
10C
100
AcDbScale
 70
     0
300
1:50
140
1.0
141
50.0
290
     0
  0
SCALE
  5
1C8
102
{ACAD_REACTORS
330
10C
102
}
330
10C
100
AcDbScale
 70
     0
300
1:100
140
1.0
141
100.0
290
     0
  0
SCALE
  5
1C9
102
{ACAD_REACTORS
330
10C
102
}
330
10C
100
AcDbScale
 70
     0
300
2:1
140
2.0
141
1.0
290
     0
  0
SCALE
  5
1CA
102
{ACAD_REACTORS
330
10C
102
}
330
10C
100
AcDbScale
 70
     0
300
4:1
140
4.0
141
1.0
290
     0
  0
SCALE
  5
1CB
102
{ACAD_REACTORS
330
10C
102
}
330
10C
100
AcDbScale
 70
     0
300
8:1
140
8.0
141
1.0
290
     0
  0
SCALE
  5
1CC
102
{ACAD_REACTORS
330
10C
102
}
330
10C
100
AcDbScale
 70
     0
300
10:1
140
10.0
141
1.0
290
     0
  0
SCALE
  5
1CD
102
{ACAD_REACTORS
330
10C
102
}
330
10C
100
AcDbScale
 70
     0
300
100:1
140
100.0
141
1.0
290
     0
  0
ACDBSECTIONVIEWSTYLE
  5
21A
102
{ACAD_XDICTIONARY
360
2A2A3
102
}
102
{ACAD_REACTORS
330
219
102
}
330
219
100
AcDbModelDocViewStyle
 70
     0
  3
Metric50
290
     0
100
AcDbSectionViewStyle
 70
     0
 71
     0
 90
      102
 71
     1
340
11
 40
5.0
340
0
340
0
 40
5.0
300
I, O, Q, S, X, Z
 40
10.0
 90
        0
 40
2.5
 90
        0
 71
     2
340
16
 90
       25
340
16
 90
       50
 40
5.0
 40
2.5
 40
5.0
 71
     3
340
11
 40
5.0
 90
        0
 40
15.0
 90
        1
300
%<\AcVar ViewSectionStartId>%-%<\AcVar ViewSectionEndId>% (%<\AcVar ViewScale \f "%sn">%)
 71
     4
300
ANSI31
 40
1.0
 90
        0
290
     0
290
     0
 90
        6
 40
0.0
 40
1.570796326794896
 40
0.2617993877991494
 40
1.308996938995747
 40
-0.2617993877991494
 40
1.832595714594046
  0
TABLESTYLE
  5
7F
102
{ACAD_XDICTIONARY
360
162
102
}
102
{ACAD_REACTORS
330
7E
102
}
330
7E
100
AcDbTableStyle
  3
Standard
 70
     0
 71
     0
 40
1.5
 41
1.5
280
     0
281
     0
  7
Standard
140
4.5
170
     2
 62
     0
 63
     7
283
     0
274
    -2
284
     1
 64
     0
275
    -2
285
     1
 65
     0
276
    -2
286
     1
 66
     0
277
    -2
287
     1
 67
     0
278
    -2
288
     1
 68
     0
279
    -2
289
     1
 69
     0
  7
Standard
140
6.0
170
     5
 62
     0
 63
     7
283
     0
274
    -2
284
     1
 64
     0
275
    -2
285
     1
 65
     0
276
    -2
286
     1
 66
     0
277
    -2
287
     1
 67
     0
278
    -2
288
     1
 68
     0
279
    -2
289
     1
 69
     0
  7
Standard
140
4.5
170
     5
 62
     0
 63
     7
283
     0
274
    -2
284
     1
 64
     0
275
    -2
285
     1
 65
     0
276
    -2
286
     1
 66
     0
277
    -2
287
     1
 67
     0
278
    -2
288
     1
 68
     0
279
    -2
289
     1
 69
     0
  0
VISUALSTYLE
  5
F5
102
{ACAD_XDICTIONARY
360
2A27B
102
}
102
{ACAD_REACTORS
330
EF
102
}
330
EF
100
AcDbVisualStyle
  2
2dWireframe
 70
     4
 71
     0
 72
     2
 73
     1
 90
        0
 40
-0.6
 41
-30.0
 62
     5
 63
     7
 74
     1
 91
        4
 64
     7
 65
   257
 75
     1
175
     1
 42
1.0
 92
        0
 66
   257
 43
1.0
 76
     1
 77
     6
 78
     2
 67
     7
 79
     5
170
     0
171
     0
290
     0
174
     0
 93
        1
 44
0.0
173
     0
291
     0
 45
0.0
1001
ACAD
1000
AcDbSavedByObjectVersion
1070
     0
  0
VISUALSTYLE
  5
F4
102
{ACAD_XDICTIONARY
360
2A279
102
}
102
{ACAD_REACTORS
330
EF
102
}
330
EF
100
AcDbVisualStyle
  2
Basic
 70
     7
 71
     1
 72
     0
 73
     1
 90
        0
 40
-0.6
 41
-30.0
 62
     5
 63
     7
 74
     0
 91
        4
 64
     7
 65
   257
 75
     1
175
     1
 42
1.0
 92
        8
 66
     7
 43
1.0
 76
     1
 77
     6
 78
     2
 67
     7
 79
     5
170
     0
171
     0
290
     0
174
     0
 93
        1
 44
0.0
173
     0
291
     1
 45
0.0
1001
ACAD
1000
AcDbSavedByObjectVersion
1070
     0
  0
VISUALSTYLE
  5
FB
102
{ACAD_XDICTIONARY
360
2A287
102
}
102
{ACAD_REACTORS
330
EF
102
}
330
EF
100
AcDbVisualStyle
  2
Brighten
 70
    12
 71
     2
 72
     2
 73
     1
 90
        0
 40
-0.6
 41
-30.0
 62
     5
 63
     7
 74
     1
 91
        4
 64
     7
 65
   257
 75
     1
175
     1
 42
1.0
 92
        8
 66
     7
 43
1.0
 76
     1
 77
     6
 78
     2
 67
     7
 79
     5
170
     0
171
     0
290
     0
174
     0
 93
        1
 44
50.0
173
     0
291
     1
 45
0.0
1001
ACAD
1000
AcDbSavedByObjectVersion
1070
     0
  0
VISUALSTYLE
  5
FF
102
{ACAD_XDICTIONARY
360
2A28F
102
}
102
{ACAD_REACTORS
330
EF
102
}
330
EF
100
AcDbVisualStyle
  2
ColorChange
 70
    16
 71
     2
 72
     2
 73
     3
 90
        0
 40
-0.6
 41
-30.0
 62
     5
 63
     8
 74
     1
 91
        4
 64
     7
 65
   257
 75
     1
175
     1
 42
1.0
 92
        8
 66
     8
 43
1.0
 76
     1
 77
     6
 78
     2
 67
     7
 79
     5
170
     0
171
     0
290
     0
174
     0
 93
        1
 44
0.0
173
     0
291
     1
 45
0.0
1001
ACAD
1000
AcDbSavedByObjectVersion
1070
     0
  0
VISUALSTYLE
  5
F8
102
{ACAD_XDICTIONARY
360
2A281
102
}
102
{ACAD_REACTORS
330
EF
102
}
330
EF
100
AcDbVisualStyle
  2
Conceptual
 70
     9
 71
     3
 72
     2
 73
     1
 90
        0
 40
-0.6
 41
-30.0
 62
     5
 63
     7
 74
     2
 91
        2
 64
     7
 65
   257
 75
     1
175
     1
 42
40.0
 92
        8
 66
     7
 43
1.0
 76
     1
 77
     6
 78
     2
 67
     7
 79
     3
170
     0
171
     0
290
     0
174
     0
 93
        1
 44
0.0
173
     0
291
     0
 45
0.0
1001
ACAD
1000
AcDbSavedByObjectVersion
1070
     0
  0
VISUALSTYLE
  5
FA
102
{ACAD_XDICTIONARY
360
2A285
102
}
102
{ACAD_REACTORS
330
EF
102
}
330
EF
100
AcDbVisualStyle
  2
Dim
 70
    11
 71
     2
 72
     2
 73
     1
 90
        0
 40
-0.6
 41
-30.0
 62
     5
 63
     7
 74
     1
 91
        4
 64
     7
 65
   257
 75
     1
175
     1
 42
1.0
 92
        8
 66
     7
 43
1.0
 76
     1
 77
     6
 78
     2
 67
     7
 79
     5
170
     0
171
     0
290
     0
174
     0
 93
        1
 44
-50.0
173
     0
291
     1
 45
0.0
1001
ACAD
1000
AcDbSavedByObjectVersion
1070
     0
  0
VISUALSTYLE
  5
1E6
102
{ACAD_XDICTIONARY
360
2A297
102
}
102
{ACAD_REACTORS
330
EF
102
}
330
EF
100
AcDbVisualStyle
  2
EdgeColorOff
 70
    22
 71
     2
 72
     2
 73
     0
 90
        0
 40
-0.6
 41
-30.0
 62
     5
 63
     7
 74
     1
 91
        4
 64
     7
 65
   257
 75
     1
175
     1
 42
1.0
 92
        8
 66
     7
 43
1.0
 76
     1
 77
     6
 78
     2
 67
     7
 79
     5
170
     0
171
     0
290
     0
174
     0
 93
        1
 44
0.0
173
     0
291
     1
 45
0.0
1001
ACAD
1000
AcDbSavedByObjectVersion
1070
     0
  0
VISUALSTYLE
  5
FE
102
{ACAD_XDICTIONARY
360
2A28D
102
}
102
{ACAD_REACTORS
330
EF
102
}
330
EF
100
AcDbVisualStyle
  2
Facepattern
 70
    15
 71
     2
 72
     2
 73
     1
 90
        0
 40
-0.6
 41
-30.0
 62
     5
 63
     7
 74
     1
 91
        4
 64
     7
 65
   257
 75
     1
175
     1
 42
1.0
 92
        8
 66
     7
 43
1.0
 76
     1
 77
     6
 78
     2
 67
     7
 79
     5
170
     0
171
     0
290
     0
174
     0
 93
        1
 44
0.0
173
     0
291
     1
 45
0.0
1001
ACAD
1000
AcDbSavedByObjectVersion
1070
     0
  0
VISUALSTYLE
  5
F0
102
{ACAD_XDICTIONARY
360
2A271
102
}
102
{ACAD_REACTORS
330
EF
102
}
330
EF
100
AcDbVisualStyle
  2
Flat
 70
     0
 71
     2
 72
     1
 73
     1
 90
        2
 40
-0.6
 41
30.0
 62
     5
 63
     7
 74
     0
 91
        0
 64
     7
 65
   257
 75
     1
175
     1
 42
1.0
 92
        8
 66
     7
 43
1.0
 76
     1
 77
     6
 78
     2
 67
     7
 79
     5
170
     0
171
     0
290
     0
174
     0
 93
       13
 44
0.0
173
     0
291
     1
 45
0.0
1001
ACAD
1000
AcDbSavedByObjectVersion
1070
     0
  0
VISUALSTYLE
  5
F1
102
{ACAD_XDICTIONARY
360
2A273
102
}
102
{ACAD_REACTORS
330
EF
102
}
330
EF
100
AcDbVisualStyle
  2
FlatWithEdges
 70
     1
 71
     2
 72
     1
 73
     1
 90
        2
 40
-0.6
 41
30.0
 62
     5
 63
     7
 74
     1
 91
        0
 64
     7
 65
   257
 75
     1
175
     1
 42
1.0
 92
        0
 66
   257
 43
1.0
 76
     1
 77
     6
 78
     2
 67
     7
 79
     5
170
     0
171
     0
290
     0
174
     0
 93
       13
 44
0.0
173
     0
291
     1
 45
0.0
1001
ACAD
1000
AcDbSavedByObjectVersion
1070
     0
  0
VISUALSTYLE
  5
F2
102
{ACAD_XDICTIONARY
360
2A275
102
}
102
{ACAD_REACTORS
330
EF
102
}
330
EF
100
AcDbVisualStyle
  2
Gouraud
 70
     2
 71
     2
 72
     2
 73
     1
 90
        2
 40
-0.6
 41
30.0
 62
     5
 63
     7
 74
     0
 91
        0
 64
     7
 65
   257
 75
     1
175
     1
 42
1.0
 92
        0
 66
     7
 43
1.0
 76
     1
 77
     6
 78
     2
 67
     7
 79
     5
170
     0
171
     0
290
     0
174
     0
 93
       13
 44
0.0
173
     0
291
     1
 45
0.0
1001
ACAD
1000
AcDbSavedByObjectVersion
1070
     0
  0
VISUALSTYLE
  5
F3
102
{ACAD_XDICTIONARY
360
2A277
102
}
102
{ACAD_REACTORS
330
EF
102
}
330
EF
100
AcDbVisualStyle
  2
GouraudWithEdges
 70
     3
 71
     2
 72
     2
 73
     1
 90
        2
 40
-0.6
 41
30.0
 62
     5
 63
     7
 74
     1
 91
        0
 64
     7
 65
   257
 75
     1
175
     1
 42
1.0
 92
        0
 66
   257
 43
1.0
 76
     1
 77
     6
 78
     2
 67
     7
 79
     5
170
     0
171
     0
290
     0
174
     0
 93
       13
 44
0.0
173
     0
291
     1
 45
0.0
1001
ACAD
1000
AcDbSavedByObjectVersion
1070
     0
  0
VISUALSTYLE
  5
F7
102
{ACAD_XDICTIONARY
360
2A27F
102
}
102
{ACAD_REACTORS
330
EF
102
}
330
EF
100
AcDbVisualStyle
  2
Hidden
 70
     6
 71
     1
 72
     2
 73
     2
 90
        0
 40
-0.6
 41
-30.0
 62
     5
 63
     7
 74
     2
 91
        2
 64
     7
 65
   257
 75
     2
175
     1
 42
40.0
 92
        0
 66
   257
 43
1.0
 76
     1
 77
     6
 78
     2
 67
     7
 79
     3
170
     0
171
     0
290
     0
174
     0
 93
        1
 44
0.0
173
     0
291
     0
 45
0.0
1001
ACAD
1000
AcDbSavedByObjectVersion
1070
     0
  0
VISUALSTYLE
  5
1E4
102
{ACAD_XDICTIONARY
360
2A293
102
}
102
{ACAD_REACTORS
330
EF
102
}
330
EF
100
AcDbVisualStyle
  2
JitterOff
 70
    20
 71
     2
 72
     2
 73
     0
 90
        0
 40
-0.6
 41
-30.0
 62
     5
 63
     7
 74
     1
 91
        4
 64
     7
 65
   257
 75
     1
175
     1
 42
1.0
 92
       10
 66
     7
 43
1.0
 76
     1
 77
     6
 78
     2
 67
     7
 79
     5
170
     0
171
     0
290
     0
174
     0
 93
        1
 44
0.0
173
     0
291
     1
 45
0.0
1001
ACAD
1000
AcDbSavedByObjectVersion
1070
     0
  0
VISUALSTYLE
  5
FD
102
{ACAD_XDICTIONARY
360
2A28B
102
}
102
{ACAD_REACTORS
330
EF
102
}
330
EF
100
AcDbVisualStyle
  2
Linepattern
 70
    14
 71
     2
 72
     2
 73
     1
 90
        0
 40
-0.6
 41
-30.0
 62
     5
 63
     7
 74
     1
 91
        4
 64
     7
 65
   257
 75
     7
175
     7
 42
1.0
 92
        8
 66
     7
 43
1.0
 76
     1
 77
     6
 78
     2
 67
     7
 79
     5
170
     0
171
     0
290
     0
174
     0
 93
        1
 44
0.0
173
     0
291
     1
 45
0.0
1001
ACAD
1000
AcDbSavedByObjectVersion
1070
     0
  0
VISUALSTYLE
  5
1E5
102
{ACAD_XDICTIONARY
360
2A295
102
}
102
{ACAD_REACTORS
330
EF
102
}
330
EF
100
AcDbVisualStyle
  2
OverhangOff
 70
    21
 71
     2
 72
     2
 73
     0
 90
        0
 40
-0.6
 41
-30.0
 62
     5
 63
     7
 74
     1
 91
        4
 64
     7
 65
   257
 75
     1
175
     1
 42
1.0
 92
        9
 66
     7
 43
1.0
 76
     1
 77
     6
 78
     2
 67
     7
 79
     5
170
     0
171
     0
290
     0
174
     0
 93
        1
 44
0.0
173
     0
291
     1
 45
0.0
1001
ACAD
1000
AcDbSavedByObjectVersion
1070
     0
  0
VISUALSTYLE
  5
F9
102
{ACAD_XDICTIONARY
360
2A283
102
}
102
{ACAD_REACTORS
330
EF
102
}
330
EF
100
AcDbVisualStyle
  2
Realistic
 70
     8
 71
     2
 72
     2
 73
     0
 90
        2
 40
-0.6
 41
30.0
 62
     5
 63
     7
 74
     0
 91
        0
 64
     7
 65
   257
 75
     1
175
     1
 42
1.0
 92
        8
 66
   257
 43
1.0
 76
     1
 77
     6
 78
     2
 67
     7
 79
     3
170
     0
171
     0
290
     0
174
     0
 93
       13
 44
0.0
173
     0
291
     0
 45
0.0
1001
ACAD
1000
AcDbSavedByObjectVersion
1070
     0
  0
VISUALSTYLE
  5
1F3
102
{ACAD_XDICTIONARY
360
2A2A1
102
}
102
{ACAD_REACTORS
330
EF
102
}
330
EF
100
AcDbVisualStyle
  2
Shaded
 70
    27
 71
     2
 72
     2
 73
     1
 90
        2
 40
-0.6
 41
30.0
 62
     5
 63
     7
 74
     0
 91
        4
 64
     7
 65
   257
 75
     1
175
     1
 42
1.0
 92
        8
 66
   257
 43
1.0
 76
     1
 77
     6
 78
     2
 67
     8
 79
     3
170
     0
171
     0
290
     0
174
     0
 93
        5
 44
0.0
173
     0
291
     0
 45
0.0
1001
ACAD
1000
AcDbSavedByObjectVersion
1070
     0
  0
VISUALSTYLE
  5
1F2
102
{ACAD_XDICTIONARY
360
2A29F
102
}
102
{ACAD_REACTORS
330
EF
102
}
330
EF
100
AcDbVisualStyle
  2
Shaded with edges
 70
    26
 71
     2
 72
     2
 73
     1
 90
        2
 40
-0.6
 41
30.0
 62
     5
 63
     7
 74
     1
 91
        2
 64
     7
 65
   257
 75
     2
175
     1
 42
1.0
 92
        8
 66
   257
 43
1.0
 76
     1
 77
     6
 78
     2
 67
     7
 79
     3
170
     0
171
     0
290
     0
174
     0
 93
        5
 44
0.0
173
     0
291
     0
 45
0.0
1001
ACAD
1000
AcDbSavedByObjectVersion
1070
     0
  0
VISUALSTYLE
  5
1EF
102
{ACAD_XDICTIONARY
360
2A299
102
}
102
{ACAD_REACTORS
330
EF
102
}
330
EF
100
AcDbVisualStyle
  2
Shades of Gray
 70
    23
 71
     2
 72
     2
 73
     3
 90
        0
 40
-0.6
 41
-30.0
 62
     5
 63
     7
 74
     2
 91
        2
 64
     7
 65
     7
 75
     1
175
     1
 42
40.0
 92
        8
 66
     7
 43
1.0
 76
     1
 77
     6
 78
     2
 67
     7
 79
     3
170
     0
171
     0
290
     0
174
     0
 93
        1
 44
0.0
173
     0
291
     0
 45
0.0
1001
ACAD
1000
AcDbSavedByObjectVersion
1070
     0
  0
VISUALSTYLE
  5
1F0
102
{ACAD_XDICTIONARY
360
2A29B
102
}
102
{ACAD_REACTORS
330
EF
102
}
330
EF
100
AcDbVisualStyle
  2
Sketchy
 70
    24
 71
     1
 72
     2
 73
     2
 90
        0
 40
-0.6
 41
-30.0
 62
     5
 63
     7
 74
     2
 91
        2
 64
     7
 65
     7
 75
     1
175
     1
 42
40.0
 92
       11
 66
     7
 43
1.0
 76
     1
 77
     6
 78
     2
 67
     7
 79
     6
170
     0
171
     0
290
     0
174
     0
 93
        1
 44
0.0
173
     0
291
     0
 45
0.0
1001
ACAD
1000
AcDbSavedByObjectVersion
1070
     0
  0
VISUALSTYLE
  5
FC
102
{ACAD_XDICTIONARY
360
2A289
102
}
102
{ACAD_REACTORS
330
EF
102
}
330
EF
100
AcDbVisualStyle
  2
Thicken
 70
    13
 71
     2
 72
     2
 73
     1
 90
        0
 40
-0.6
 41
-30.0
 62
     5
 63
     7
 74
     1
 91
        4
 64
     7
 65
   257
 75
     1
175
     1
 42
1.0
 92
       12
 66
     7
 43
1.0
 76
     1
 77
     6
 78
     2
 67
     7
 79
     5
170
     0
171
     0
290
     0
174
     0
 93
        1
 44
0.0
173
     0
291
     1
 45
0.0
1001
ACAD
1000
AcDbSavedByObjectVersion
1070
     0
  0
VISUALSTYLE
  5
F6
102
{ACAD_XDICTIONARY
360
2A27D
102
}
102
{ACAD_REACTORS
330
EF
102
}
330
EF
100
AcDbVisualStyle
  2
Wireframe
 70
     5
 71
     0
 72
     2
 73
     0
 90
        0
 40
-0.6
 41
-30.0
 62
     5
 63
     7
 74
     1
 91
        4
 64
     7
 65
   257
 75
     1
175
     1
 42
1.0
 92
        0
 66
   257
 43
1.0
 76
     1
 77
     6
 78
     2
 67
     7
 79
     3
170
     0
171
     0
290
     0
174
     0
 93
        1
 44
0.0
173
     0
291
     0
 45
0.0
1001
ACAD
1000
AcDbSavedByObjectVersion
1070
     0
  0
VISUALSTYLE
  5
1F1
102
{ACAD_XDICTIONARY
360
2A29D
102
}
102
{ACAD_REACTORS
330
EF
102
}
330
EF
100
AcDbVisualStyle
  2
X-Ray
 70
    25
 71
     2
 72
     2
 73
     1
 90
        1
 40
0.5
 41
-30.0
 62
     5
 63
     7
 74
     1
 91
        0
 64
     7
 65
   257
 75
     1
175
     1
 42
1.0
 92
        8
 66
     7
 43
1.0
 76
     1
 77
     6
 78
     2
 67
     7
 79
     3
170
     0
171
     0
290
     0
174
     0
 93
       13
 44
0.0
173
     0
291
     0
 45
0.0
1001
ACAD
1000
AcDbSavedByObjectVersion
1070
     0
  0
DICTIONARYVAR
  5
146
102
{ACAD_REACTORS
330
5E
102
}
330
5E
100
DictionaryVariables
280
     0
  1
1:1
  0
DICTIONARYVAR
  5
259
102
{ACAD_REACTORS
330
5E
102
}
330
5E
100
DictionaryVariables
280
     0
  1
3.500000
  0
DICTIONARYVAR
  5
25A
102
{ACAD_REACTORS
330
5E
102
}
330
5E
100
DictionaryVariables
280
     0
  1
acadiso.lin
  0
DICTIONARYVAR
  5
145
102
{ACAD_REACTORS
330
5E
102
}
330
5E
100
DictionaryVariables
280
     0
  1
STANDARD
  0
DICTIONARYVAR
  5
84
102
{ACAD_REACTORS
330
5E
102
}
330
5E
100
DictionaryVariables
280
     0
  1
STANDARD
  0
DICTIONARYVAR
  5
227
102
{ACAD_REACTORS
330
5E
102
}
330
5E
100
DictionaryVariables
280
     0
  1
Metric50
  0
DICTIONARYVAR
  5
228
102
{ACAD_REACTORS
330
5E
102
}
330
5E
100
DictionaryVariables
280
     0
  1
Metric50
  0
DICTIONARYVAR
  5
5F
102
{ACAD_REACTORS
330
5E
102
}
330
5E
100
DictionaryVariables
280
     0
  1
2
  0
DICTIONARYVAR
  5
63
102
{ACAD_REACTORS
330
5E
102
}
330
5E
100
DictionaryVariables
280
     0
  1
1
  0
DICTIONARYVAR
  5
2A212
102
{ACAD_REACTORS
330
5E
102
}
330
5E
100
DictionaryVariables
280
     0
  1
0
  0
DICTIONARYVAR
  5
1AE
102
{ACAD_REACTORS
330
5E
102
}
330
5E
100
DictionaryVariables
280
     0
  1
0
  0
DICTIONARYVAR
  5
1AF
102
{ACAD_REACTORS
330
5E
102
}
330
5E
100
DictionaryVariables
280
     0
  1
0
  0
DICTIONARYVAR
  5
2A210
102
{ACAD_REACTORS
330
5E
102
}
330
5E
100
DictionaryVariables
280
     0
  1
2
  0
DICTIONARYVAR
  5
2A20F
102
{ACAD_REACTORS
330
5E
102
}
330
5E
100
DictionaryVariables
280
     0
  1
1
  0
DICTIONARYVAR
  5
2A262
102
{ACAD_REACTORS
330
5E
102
}
330
5E
100
DictionaryVariables
280
     0
  1
80.000000
  0
DICTIONARYVAR
  5
2A261
102
{ACAD_REACTORS
330
5E
102
}
330
5E
100
DictionaryVariables
280
     0
  1
5.000000
  0
DICTIONARYVAR
  5
2A211
102
{ACAD_REACTORS
330
5E
102
}
330
5E
100
DictionaryVariables
280
     0
  1
127
  0
DICTIONARYVAR
  5
2A263
102
{ACAD_REACTORS
330
5E
102
}
330
5E
100
DictionaryVariables
280
     0
  1
2
  0
DICTIONARY
  5
2A2A5
330
21C
100
AcDbDictionary
280
     1
281
     1
  3
ACAD_XREC_ROUNDTRIP
360
2A2A6
  0
DICTIONARY
  5
2A26A
330
D3
100
AcDbDictionary
280
     1
281
     1
  3
ACAD_XREC_ROUNDTRIP
360
2A26B
  0
DICTIONARY
  5
2A26C
330
D7
100
AcDbDictionary
280
     1
281
     1
  3
ACAD_XREC_ROUNDTRIP
360
2A26D
  0
DICTIONARY
  5
2A267
330
22
100
AcDbDictionary
280
     1
281
     1
  3
ACAD_XREC_ROUNDTRIP
360
2A268
  0
DICTIONARY
  5
1F9
330
ED
100
AcDbDictionary
280
     1
281
     1
  3
ACAD_XREC_ROUNDTRIP
360
2A26F
  3
FBXASSET
360
1FA
  0
DICTIONARY
  5
1F7
330
EC
100
AcDbDictionary
280
     1
281
     1
  3
ACAD_XREC_ROUNDTRIP
360
2A26E
  3
FBXASSET
360
1F8
  0
DICTIONARY
  5
173
330
EE
100
AcDbDictionary
280
     1
281
     1
  3
ACAD_XREC_ROUNDTRIP
360
2A270
  3
BUMPTILE
360
175
  3
DIFFUSETILE
360
174
  3
FBXASSET
360
1FB
  3
OPACITYTILE
360
176
  3
REFLECTIONTILE
360
177
  0
DICTIONARY
  5
2A291
330
12E
100
AcDbDictionary
280
     1
281
     1
  3
ACAD_XREC_ROUNDTRIP
360
2A292
  0
DICTIONARY
  5
2A2A3
330
21A
100
AcDbDictionary
280
     1
281
     1
  3
ACAD_XREC_ROUNDTRIP
360
2A2A4
  0
DICTIONARY
  5
162
330
7F
100
AcDbDictionary
280
     1
281
     1
  3
ACAD_ROUNDTRIP_2008_TABLESTYLE_CELLSTYLEMAP
360
2A264
  3
ACAD_XREC_ROUNDTRIP
360
2A269
  0
DICTIONARY
  5
2A27B
330
F5
100
AcDbDictionary
280
     1
281
     1
  3
ACAD_XREC_ROUNDTRIP
360
2A27C
  0
DICTIONARY
  5
2A279
330
F4
100
AcDbDictionary
280
     1
281
     1
  3
ACAD_XREC_ROUNDTRIP
360
2A27A
  0
DICTIONARY
  5
2A287
330
FB
100
AcDbDictionary
280
     1
281
     1
  3
ACAD_XREC_ROUNDTRIP
360
2A288
  0
DICTIONARY
  5
2A28F
330
FF
100
AcDbDictionary
280
     1
281
     1
  3
ACAD_XREC_ROUNDTRIP
360
2A290
  0
DICTIONARY
  5
2A281
330
F8
100
AcDbDictionary
280
     1
281
     1
  3
ACAD_XREC_ROUNDTRIP
360
2A282
  0
DICTIONARY
  5
2A285
330
FA
100
AcDbDictionary
280
     1
281
     1
  3
ACAD_XREC_ROUNDTRIP
360
2A286
  0
DICTIONARY
  5
2A297
330
1E6
100
AcDbDictionary
280
     1
281
     1
  3
ACAD_XREC_ROUNDTRIP
360
2A298
  0
DICTIONARY
  5
2A28D
330
FE
100
AcDbDictionary
280
     1
281
     1
  3
ACAD_XREC_ROUNDTRIP
360
2A28E
  0
DICTIONARY
  5
2A271
330
F0
100
AcDbDictionary
280
     1
281
     1
  3
ACAD_XREC_ROUNDTRIP
360
2A272
  0
DICTIONARY
  5
2A273
330
F1
100
AcDbDictionary
280
     1
281
     1
  3
ACAD_XREC_ROUNDTRIP
360
2A274
  0
DICTIONARY
  5
2A275
330
F2
100
AcDbDictionary
280
     1
281
     1
  3
ACAD_XREC_ROUNDTRIP
360
2A276
  0
DICTIONARY
  5
2A277
330
F3
100
AcDbDictionary
280
     1
281
     1
  3
ACAD_XREC_ROUNDTRIP
360
2A278
  0
DICTIONARY
  5
2A27F
330
F7
100
AcDbDictionary
280
     1
281
     1
  3
ACAD_XREC_ROUNDTRIP
360
2A280
  0
DICTIONARY
  5
2A293
330
1E4
100
AcDbDictionary
280
     1
281
     1
  3
ACAD_XREC_ROUNDTRIP
360
2A294
  0
DICTIONARY
  5
2A28B
330
FD
100
AcDbDictionary
280
     1
281
     1
  3
ACAD_XREC_ROUNDTRIP
360
2A28C
  0
DICTIONARY
  5
2A295
330
1E5
100
AcDbDictionary
280
     1
281
     1
  3
ACAD_XREC_ROUNDTRIP
360
2A296
  0
DICTIONARY
  5
2A283
330
F9
100
AcDbDictionary
280
     1
281
     1
  3
ACAD_XREC_ROUNDTRIP
360
2A284
  0
DICTIONARY
  5
2A2A1
330
1F3
100
AcDbDictionary
280
     1
281
     1
  3
ACAD_XREC_ROUNDTRIP
360
2A2A2
  0
DICTIONARY
  5
2A29F
330
1F2
100
AcDbDictionary
280
     1
281
     1
  3
ACAD_XREC_ROUNDTRIP
360
2A2A0
  0
DICTIONARY
  5
2A299
330
1EF
100
AcDbDictionary
280
     1
281
     1
  3
ACAD_XREC_ROUNDTRIP
360
2A29A
  0
DICTIONARY
  5
2A29B
330
1F0
100
AcDbDictionary
280
     1
281
     1
  3
ACAD_XREC_ROUNDTRIP
360
2A29C
  0
DICTIONARY
  5
2A289
330
FC
100
AcDbDictionary
280
     1
281
     1
  3
ACAD_XREC_ROUNDTRIP
360
2A28A
  0
DICTIONARY
  5
2A27D
330
F6
100
AcDbDictionary
280
     1
281
     1
  3
ACAD_XREC_ROUNDTRIP
360
2A27E
  0
DICTIONARY
  5
2A29D
330
1F1
100
AcDbDictionary
280
     1
281
     1
  3
ACAD_XREC_ROUNDTRIP
360
2A29E
  0
XRECORD
  5
2A2A6
102
{ACAD_REACTORS
330
2A2A5
102
}
330
2A2A5
100
AcDbXrecord
280
     1
102
DISPLAYNAME
  1
Metric50
102
FLAGS
 90
        0
  0
XRECORD
  5
2A26B
102
{ACAD_REACTORS
330
2A26A
102
}
330
2A26A
100
AcDbXrecord
280
     1
102
SHADEPLOT
 70
     0
102
SHADEPLOTRESLEVEL
 70
     2
102
SHADEPLOTCUSTOMDPI
 70
   300
  0
XRECORD
  5
2A26D
102
{ACAD_REACTORS
330
2A26C
102
}
330
2A26C
100
AcDbXrecord
280
     1
102
SHADEPLOT
 70
     0
102
SHADEPLOTRESLEVEL
 70
     2
102
SHADEPLOTCUSTOMDPI
 70
   300
  0
XRECORD
  5
2A268
102
{ACAD_REACTORS
330
2A267
102
}
330
2A267
100
AcDbXrecord
280
     1
102
SHADEPLOT
 70
     0
102
SHADEPLOTRESLEVEL
 70
     2
102
SHADEPLOTCUSTOMDPI
 70
   300
  0
XRECORD
  5
2A26F
102
{ACAD_REACTORS
330
1F9
102
}
330
1F9
100
AcDbXrecord
280
     1
102
MATERIAL
148
0.0
149
0.0
149
0.0
 93
        0
 94
       63
282
     0
 72
     1
 77
     1
171
     1
175
     1
179
     1
273
     0
  0
XRECORD
  5
1FA
102
{ACAD_REACTORS
330
1F9
102
}
330
1F9
100
AcDbXrecord
280
     1
 70
     1
 90
429727718
  1
D62C5603-E3A1-4AEA-B7FB-FE5D8D0755AF
310
504B03040A0000080000CC70623B3DEE336E79000000790000001B0000006175746F6465736B2D64657369676E2D7061636B6167652E786D6C3C3F786D6C2076657273696F6E3D22312E302220656E636F64696E673D227574662D3822203F3E3C666F726D6174733E3C666F726D61743E687474703A2F2F736368656D612E
310
6175746F6465736B2E636F6D2F64657369676E2D7061636B6167652F323030393C2F666F726D61743E3C2F666F726D6174733E504B0304140006080800CC70623BD486FD9CA0000000F4000000130000005B436F6E74656E745F54797065735D2E786D6C7D8EC10E82300C865F65E91D8A1E8C310C0EEA1BF002731658846E
310
D98AC1B77784ABF1D8FE5FBFBF75BBCE937A534CCEB38643598122B6FEE978D0B0485F9C41B54DDD7D022595594E1A469170414C76A4D9A4D207E29CF43ECE46F218070CC6BECC4078ACAA135ACF422C856C0E68EA1BF5669944DDD7BCDE7B1F8E415D77AECB980613C2E4AC91FC167A2B244592486606FC29C8FD7F045B9A
310
EF7053A7E60B504B0304140006080800CC70623B853B8169EB0000007C01000008000000636F72652E786D6C8D90416EC3201045AF62CDB6C206821CC7C244919D9CA01740401C94182C03558F5F9C3852BBEB6A467FFE9B197D7EFC9E1EC5975982F5AE035262288C535E5B377690E21535501C055FBC8FBF6C503839990E
310
5619041F179FE64D52DE45E362569DD7661365082642A11EB9E920A89B99642953CC8E702F67A9EE7234257977194EC9EAE275C4EABCCF5EAD5940D4AC6F0E35A568B8F43562CD7046CD199FD07E60174276A7BE677B5EADB0E0D14EEFFB6A31321A0D82627C4084204C3F096B71DD52F6819B16635EADF63F509AF53FA164
310
5DDCD1EDDD17164090FCC8732078B56691CB33A85CD7DCC40F504B0304140006080800CC70623B55019EA25F0000007C00000007000000636E782E786D6C4DCB3B0E80201045D1AD90E915ED2CF8AC45050C11660C8261F98AB1B07AC9C97D42D718D865D3E909258CFD00CCE24AC6E326A164D74DC0B4128928FF32603847
310
2BA13128B1252AC747C6BAB984FC68F0B87FE8960A5C09FE86CFB69FBA01504B0304140006080800CC70623BDBABAAF470010000D40300000C0000006662782F636F72652E786D6CC553D16E823014FD95A6AF4B694182CC941A83FA05FB810A9511A125A5257EFE2E82712ECEB8A7F100CD39F7F69E734AF9FADC366850B6
310
AF8DCE7018308C942E4C59EB2AC3DE1D498AD15A706B8CFB56869196ADCAF00863C12B6B7C374385D14E6907A836A59A41D9F7CA615434B0C8705F7CAA5606D23BA8E84F41278B93AC54100640439DE0BDB320004D43C63716C7C399D30917DCFBBA9CD9BA8469F5B156168B24CED3F7248AC8769F27244EB73B92EED8862C
310
B7F13E0C179B3C8F979C8ECD82BBBABDAA2BAC924E9558448CBD9330242CFA08E3154B5651FCC6D215639C8EE5774DBE2B5F6CF2B5768B68963BB5F5588420E442FC700B1139D4CB01F450C1E918227C2E09DF070D8140C84E1E9AAB8F1340832A9CB13130A5F1376A908D57309505ECF2A0DF179C4E9D30F5B239B87E3823
310
7A79C6F31DE1A8A5AEC08474B03C7837EAE4938639B44E5932B833D2C6B6B279CDC613877FA26EE21F4A2A4C63EC7F29A2F301D1F9F7A0E37D145F504B0304140006080800CC70623B9C113CC27E0000009D0000000B0000006662782F636E782E786D6C4DCCDF0A83201C86E15B91DFB94BFB330DD428C8FB886521330DA7
310
6397BF1A1DECE883878F57749FCDA1B7892F1BBC047A23808C7F84D9FA55424E0BE6803A256208E9EF06C84F9B91703228B1C690F78B66B34CD9A5439DF5CF0BFBF65E35BCA1B8D6A5C6F540381E886698B5741C695F9503EBA150A2F8958E3DC3EA0B504B0304140006080800CC70623B7DF2F77C2A010000120200003100
310
00006662782F41393633353835312D344632462D344230382D423046372D3739314545314133324237412F636F72652E786D6C8D51DB8EC22014FC15C2939B0D2DB4B45643319AE817EC0F6041255A68B86CFCFC856D4D76DF7CE190393373060EDB3DC707F856CE6B6B7A480A0C81328395DA5C7B18C3057510EC3873D686
310
3F34088C18550F330C39BB3A1BA7051AAC09CA84841A2BD5020AEF55806078A44B0FFD7053A328440C89E1EFC52486BBB8AA8214A99D789CF9E05200300FC927E4FB4D5B375D43103D5527440FB843077C5AA3F5861C8F645F5787F59E95B390B318B55CE45AA638FAA2957BD7248B390B7A7CC51F9C124149C82B8C378810
310
84AB2F42B7B8DD56F413775B8C5999E9FF4471926F8AA236A1AE96B8B3CC434E5839373893369E1FAF30EA395917409EB7F26AF8801C171837A4A6AC9C89E9F9C9B1A58BA30FD6A5EF5DDDCF894B9AD9B6A59C957943A9FCAE2FD5BC4DFE03504B0304140006080800CC70623BAD7543B64E01000033030000300000006662
310
782F41393633353835312D344632462D344230382D423046372D3739314545314133324237412F636E782E786D6CD593CD6EC32010845F0571AD6CE3D48AD20813A9873E410FBD12D82434182C7EAAE6EDBB2424CD25871E7B41D6EC30B3FA84F9E67BB2E40B4234DE8DB46F1925E094D7C6ED479AD3AE5951B2113C789FEE
310
6C943839C1488B4C05DF079FE72A69D8C96C13AAD6B8631503449F83828872B949AC57D26200B826A308D316B4064D6E46FCDA41C05550DC9E483A00797BFD207EFB092A45DE9514C1BBD22178396BD39D891265658C238DEA00936C654E5E433CB65A26D9F6EDB5EBC14EBF49A45CB856E66048291F6939A9A81BB5C89177
310
38143CA680F4AA299D66A042CEB3354A2684DC9D8D178FE0D9B8B41CAAD720F880EE7EF93C0C18769E099ECC04D5A102C8049A8A05632F4DDF376CF1DE0F6BB65C2F8627B65A33C6BB62177CEBBDAD973006829F89F22E814B54F4BC2BE347F8AA8F681390B50FA73F804400B5F542E796F19FF974E7F78DB802FE05E20750
310
4B0304140006080800CC70623BE75B7789680500003C100000340000006662782F41393633353835312D344632462D344230382D423046372D3739314545314133324237412F6F626A656374732E786D6CAD575B8F9B3818FD2B887D06C22499CB8AA1CA655245D5B455A356FB305264C061D8018C6C3393D95FBFC7600890
310
A4CD5EF210B0B1BFEBF98E3F7B1FF6596ABC522E1296DF9BAE3D320D9A872C4AF2F8DE2CE5CEBA358D0FBEC719939D65A691938CDE9B6ADAF4BD98B3B2D05311DD91329583D9D5FC0F438434A7A611A644887B5384CF34233629258BA878B12322891DEFF6B66BD70BFB62634E8AE781D082709A4B588AF91C528CDA28B73F
310
1C998EEF39EABBEFA97FBD6A7C7E9553F9D3D79FE442923C3C523610337627CB87ABE99D359D4CC6D6E4FACAB5E6ABF9D2726FC6A3C5F56271377BB88362213924694B38DD99FE47C48627A1E7D49F5A8BB5E1A74C0A599ED3B0F21F1E56366B89112D681E218F0915D0D6F17AD41FBA2A369DCF6335D62ABBD39779D5DDD1
310
11D4D8DE3CBB96B2E04FB8202E41051754A1AA8E8F76B4C6DFE810B580B1547F4B84911149794252234D024EF8BBE963A95AE27B3D310A9D5C215C7960FAEE415ED75694C6AFB17BCACA5D99A60A9AA65F217B0BFC53292ACB92BF283FAD0D3621576592CB5BED907C2FA8E9DF794E35E97BEA31BED21FEB401ABB94C44839
310
DCACBF0E1C5DA8DA5B2F4DFFD32AD86F543D9E565E7056502E157C00AD2671CD534549AB752FCA9CDA00677A313F04E51B22FF19E57B300579E3C97EB29F682D92935CEC18CF901B7B54FD8C51F362B56FC72FE0B3C1EAE335EDCCBF5AEC39ADB17DC238973F804BA5E6F6BFE7AF1FB32E523BE9F3BD571418E3631DCA4D48
310
5250CF639223210A9446CA30052EDF057BD35F8329C1ECD84552BF0DC8D18BE7BCE23BFE6BD960AB4A7DE79923A103BEBD80F911CBAA2C60DB19B01CF164A5583B772EE6D3FFA56666CBCDA74DC97724A48F9A58967497E489C4D979006FD7A05E227A1EBDD0F737C623387A9C844D3709995625106D157315F8B8392CD4E0
310
A0B9A720C4BE9829CEF37EA1E13111214D53925356365ADA634861B52519DD27A00AEB808EAF0628E6F435519D446F45CF2C9CF5214F0A15B2F6D06B79DA3EE3CBF7F56780D2F4E7EF73A0F5E5B02A38D07DC852C6B7C1FBB6664213E0C39E3EBA7FF4E1AD23EA2829407C85E586727488B751B2DB9502BC7B228A3FD68B6E
310
A65A22397E690AA8D158D7E404EC8CDA235CC3B7D1898680131CEC2CDF2638C65196279577750F15884AEE19F94199155B92B13297978469D4F8D358DF0AEF7631E28DC8F0D9F437D5D39A83B2231A1D52D543813A824EF8D44BCFF2FA6A31BD1E8DAD87F1CCB526B3879935BF59CDADD5C37479BB1CDD4CA7B3556B516589
310
EF352754B706114D9C885EC9131DE6EFEB43D99AFE2391C2F958179413D7CFEF6B1B6DB1E7600F00DE6E5C67454A339A4BA2E0FBA85ED26F045D454F463DBFCE484C2F90F2E5E3666003662ED8F755951A7D1BECD5B30B550B2785C8E7320B7292A4838DDA71BBC863ED7613CAF659337A3354231D4FF4A182A54904C2898C
310
98B28C4AD0CE056CCF332A80986E571EE9DBC305BB5FEB7E509220A58D25CF042D712A806AC0AD0C657FDEF80D2D9CEAA2EE4D1C76F60BFE74219A06527D6F82DF6412526107381E55E353090704D085B52408A8913C4ED159D79BDA71BB4BC506F4831350EB6F975CD22D69BF7AC49B91A2C0A9DDA3D5CA36AD20FC478E37
310
E61844E2352865EBCB61A275A65283CAAA9DD27703B4102F5AF51EF5F573B75CBB5AD38BC845F7A49F82A0966A49C2E3EA5EA0ECD326CD965F1DB402C6FA8B51A4658C5C5E2EC9E214602E55810345408596591009A82E7E7FFACA19EEA299B14A0081A705CB3296EBC14CDF658DCD336EA6D1136881AAEB87B81AB9EE53D5
310
F5EB8BC8362082DA24122F98680A4E7930C01A0079749CEA14382A0783E5EBA5A10F8C098456A03D6A4AEB6BB881E2513747552A5DB22C7EDAF83BD5528081A365F7FF06504B0304140006080000CC70623B000000000000000000000000350000006662782F41393633353835312D344632462D344230382D423046372D37
310
39314545314133324237412F76657274696365732E62696E504B0304140006080800CC70623BF270F1330600000004000000360000006662782F41393633353835312D344632462D344230382D423046372D3739314545314133324237412F747269616E676C65732E62696E636660600000504B0304140006080000CC7062
310
3B000000000000000000000000370000006662782F41393633353835312D344632462D344230382D423046372D3739314545314133324237412F617474726962757465732E62696E504B0304140006080800CC70623B08DA0BD19000000041010000360000006662782F41393633353835312D344632462D344230382D4230
310
46372D3739314545314133324237412F6469726563746F72792E786D6C858F410AC3201045AF22B36F53E9A60B35CBEEBAE80D244E44489C6234F4F835464A48035D0DF398FF9F8AF63D0E6CC63039F212F8F9020C7D47C6792B21C5FE7403D62A1188E2E60C98D7234A5830286103A55745067B9D86B8A3CF9C7F90C11DE6
310
07FB144396D7B6A82D282E9A152AD114D5EF2CB866EEE831B8EEA07A7BB5A8D7D61A2BAAEB7FD5F70921FF497D00504B0304140006080800CC70623BEDD1DC58FD000000A00100003B0000006662782F41393633353835312D344632462D344230382D423046372D3739314545314133324237412F7265736F75726365732F
310
636F72652E786D6C8D504B6E833010BD0A9A6D65B00922041947112427E8052C33A156828DFCA97AFC9A40A576D7CDCCE87D344F8F9FBFE667F689CE6B6B3A6039850C8DB2A336530731DC4903D95970676DF82583CCC8193B5861107C72362E3BA4AC096842428D1D7107A5F7182053CF7474E0D507CE32973124857FE48B
310
540F3961CEF244279DE03EB81420DB9EAC1384436FA353E879B1B182C7A8C75DA3C7F453DF353A1075D537A7BA6464B8F535A99AE14A9A2BBD90E350DD183B5CFABE3AF262350B1EF4FC9351399401471025A527C218A1E53BAB5A5AB765F5469B96525EACF23FA6B88CFF34456DC2A1DCE36E360F82A5202F42F062ED2BAD
310
579969AFDD8A6F504B010214000A0000080000CC70623B3DEE336E79000000790000001B00000000000000000000000000000000006175746F6465736B2D64657369676E2D7061636B6167652E786D6C504B01021400140006080800CC70623BD486FD9CA0000000F40000001300000000000000000000000000B20000005B
310
436F6E74656E745F54797065735D2E786D6C504B01021400140006080800CC70623B853B8169EB0000007C010000080000000000000000000000000083010000636F72652E786D6C504B01021400140006080800CC70623B55019EA25F0000007C000000070000000000000000000000000094020000636E782E786D6C504B
310
01021400140006080800CC70623BDBABAAF470010000D40300000C00000000000000000000000000180300006662782F636F72652E786D6C504B01021400140006080800CC70623B9C113CC27E0000009D0000000B00000000000000000000000000B20400006662782F636E782E786D6C504B01021400140006080800CC70
310
623B7DF2F77C2A010000120200003100000000000000000000000000590500006662782F41393633353835312D344632462D344230382D423046372D3739314545314133324237412F636F72652E786D6C504B01021400140006080800CC70623BAD7543B64E010000330300003000000000000000000000000000D2060000
310
6662782F41393633353835312D344632462D344230382D423046372D3739314545314133324237412F636E782E786D6C504B01021400140006080800CC70623BE75B7789680500003C10000034000000000000000000000000006E0800006662782F41393633353835312D344632462D344230382D423046372D3739314545
310
314133324237412F6F626A656374732E786D6C504B01021400140006080000CC70623B0000000000000000000000003500000000000000000000000000280E00006662782F41393633353835312D344632462D344230382D423046372D3739314545314133324237412F76657274696365732E62696E504B01021400140006
310
080800CC70623BF270F133060000000400000036000000000000000000000000007B0E00006662782F41393633353835312D344632462D344230382D423046372D3739314545314133324237412F747269616E676C65732E62696E504B01021400140006080000CC70623B0000000000000000000000003700000000000000
310
000000000000D50E00006662782F41393633353835312D344632462D344230382D423046372D3739314545314133324237412F617474726962757465732E62696E504B01021400140006080800CC70623B08DA0BD1900000004101000036000000000000000000000000002A0F00006662782F41393633353835312D344632
310
462D344230382D423046372D3739314545314133324237412F6469726563746F72792E786D6C504B01021400140006080800CC70623BEDD1DC58FD000000A00100003B000000000000000000000000000E1000006662782F41393633353835312D344632462D344230382D423046372D3739314545314133324237412F7265
310
736F75726365732F636F72652E786D6C504B0506000000000E000E0080040000641100000000
  0
XRECORD
  5
2A26E
102
{ACAD_REACTORS
330
1F7
102
}
330
1F7
100
AcDbXrecord
280
     1
102
MATERIAL
148
0.0
149
0.0
149
0.0
 93
        0
 94
       63
282
     0
 72
     1
 77
     1
171
     1
175
     1
179
     1
273
     0
  0
XRECORD
  5
1F8
102
{ACAD_REACTORS
330
1F7
102
}
330
1F7
100
AcDbXrecord
280
     1
 70
     1
 90
429727718
  1
30362254-06B7-45E0-A893-8CFA70E3D6BC
310
504B03040A0000080000CC70623B3DEE336E79000000790000001B0000006175746F6465736B2D64657369676E2D7061636B6167652E786D6C3C3F786D6C2076657273696F6E3D22312E302220656E636F64696E673D227574662D3822203F3E3C666F726D6174733E3C666F726D61743E687474703A2F2F736368656D612E
310
6175746F6465736B2E636F6D2F64657369676E2D7061636B6167652F323030393C2F666F726D61743E3C2F666F726D6174733E504B0304140006080800CC70623BD486FD9CA0000000F4000000130000005B436F6E74656E745F54797065735D2E786D6C7D8EC10E82300C865F65E91D8A1E8C310C0EEA1BF002731658846E
310
D98AC1B77784ABF1D8FE5FBFBF75BBCE937A534CCEB38643598122B6FEE978D0B0485F9C41B54DDD7D022595594E1A469170414C76A4D9A4D207E29CF43ECE46F218070CC6BECC4078ACAA135ACF422C856C0E68EA1BF5669944DDD7BCDE7B1F8E415D77AECB980613C2E4AC91FC167A2B244592486606FC29C8FD7F045B9A
310
EF7053A7E60B504B0304140006080800CC70623B1EC5D7A3EB0000007C01000008000000636F72652E786D6C8D90416EC3201045AF82665B6103C6756C6122AB4D4ED00B204C5C94182C03558F5F9C3852BBEB6A467FFE9B197D71FC9E6FE8CBACC17AD7032D0820E3B41FAD9B7A48F1820F808E52ACDEC75F36404ECDA687
310
4D0629A6D5A76597B477D1B89855E747B38B2A041301E95B6E7A08FAD3CCAA50296647B8168BD2573599823EBB0CA76447F43862C7BCCF5EAC59410E4DDD9C7973C2755553CCCFA4C603E3040F1565ED3B1FDE4E432BCA0D9622DAF9795FAF464533826484B498524CD807E51D79ED187F21878E10516EF63F505AC67F42C9
310
BA58B1FDDD071640D2FCC87D2045B96591CB3DA85CB7DCE40F504B0304140006080800CC70623B55019EA25F0000007C00000007000000636E782E786D6C4DCB3B0E80201045D1AD90E915ED2CF8AC45050C11660C8261F98AB1B07AC9C97D42D718D865D3E909258CFD00CCE24AC6E326A164D74DC0B4128928FF32603847
310
2BA13128B1252AC747C6BAB984FC68F0B87FE8960A5C09FE86CFB69FBA01504B0304140006080800CC70623B8C9102E971010000D40300000C0000006662782F636F72652E786D6CC5535B6E833010BC8AE5DF0A6C08340F1947A84D4ED00B38C6A128602363A31CBFCB234A53A551FA553EC09AD9F5CE8C31DB9E9B1AF5CA
310
7695D1198E428A91D2D214952E33ECDD315861B4E5CC1AE3BE9561A445A3323CC098B3D21ADFCE9034DA29ED00D5A6503328BA4E398C640D8B0C77F253352214DE4145770A5B214FA2546114020D759C75CE8200340D19DE981F0F6746269C33EFAB6266AB02A655C74A59CCF365BADC27CB5D902ED22848F6340DF238A141
310
BE88E2F57B92BFEDF23523433367AE6A2EEAA455C2A902F398D2751045018D3FA264435F3771F242571B4A1919CA6F9A7C5B3CD9E42BED16F12C776AEB308F40C848FC700B1139D4891EF410CEC810227CC6846F8386402064270EF5C5C709A05E49676C024C61FC95EA45ED154CA5211D1FF4FB8291A913A68E9B83EBBB33
310
E2A7673CDE118E5AE8124C0807CB8377834E366998436B950D7A7746DAD846D4CFD978E0F04FD455FC5D49D2D4C6FE9722321F10997F0F32DC47FE05504B0304140006080800CC70623BFFEA85907E0000009D0000000B0000006662782F636E782E786D6C4DCCD10A83201886E15B91FFDC95D95A811AB6F23E625948A6C3
310
E9D8E5AF46073BFAE0E1E365ED67B3E8ADC3CB78C7815C7240DA3DFC64DCC221C519D7805AC182F7F1EF06C88D9BE6703008B6049F9E274D7A1E938DBB5AE3D6131B2589BA0D3D965551E0B2EA732C9B9A624AAEB41E3A557677029960D9AFB4EF11165F504B0304140006080800CC70623B4FEEA4082C0100001202000031
310
0000006662782F39464131463745442D413632322D343644302D413938332D3331353338454246344243312F636F72652E786D6C8D515B6EC32010BC0AE2AB55850DD871ED0813254D72825EC00192A2C460F1A872FC42ED48ED5F7E00CDCECCCEB26C731F6FE05B39AFADE921293004CA082BB5B9F43086336A21D870E6AC
310
0D7F68109861543DCC30E4ECE26C9C164858139409093556AA051CBC570102714B8F1E7AF1A5C6A11862480C7F2DA6415C878B2A4891CA89C7990F2E050073937C42DE1DB7E4F87ED8A36D4329AA9B3D46DBAEAD504556557BD81DEBDD0761E52CE42C462D17B996298E3E6BE59E35C962CE821E1FF18553435012728A7187
310
0841987E927A8D9B35ADDF70BBC6989599FE4F1427F9A4286A132ABAC49D651EF234CD5CE04CDA78BA3DC2A8FB645D00B9DF8B57E215725C60BCA2A463E54C4CE327C7A65E1C7DB02E7DEFCBF594B864C5CA6CDBD49C957943E9FA5D5FBAF336F90F504B0304140006080800CC70623BAD7543B64E01000033030000300000
310
006662782F39464131463745442D413632322D343644302D413938332D3331353338454246344243312F636E782E786D6CD593CD6EC32010845F0571AD6CE3D48AD20813A9873E410FBD12D82434182C7EAAE6EDBB2424CD25871E7B41D6EC30B3FA84F9E67BB2E40B4234DE8DB46F1925E094D7C6ED479AD3AE5951B2113C
310
789FEE6C943839C1488B4C05DF079FE72A69D8C96C13AAD6B8631503449F83828872B949AC57D26200B826A308D316B4064D6E46FCDA41C05550DC9E483A00797BFD207EFB092A45DE9514C1BBD22178396BD39D891265658C238DEA00936C654E5E433CB65A26D9F6EDB5EBC14EBF49A45CB856E66048291F6939A9A81BB5
310
C8917738143CA680F4AA299D66A042CEB3354A2684DC9D8D178FE0D9B8B41CAAD720F880EE7EF93C0C18769E099ECC04D5A102C8049A8A05632F4DDF376CF1DE0F6BB65C2F8627B65A33C6BB62177CEBBDAD973006829F89F22E814B54F4BC2BE347F8AA8F681390B50FA73F804400B5F542E796F19FF974E7F78DB802FE05
310
E207504B0304140006080800CC70623B16AB87BA640500003C100000340000006662782F39464131463745442D413632322D343644302D413938332D3331353338454246344243312F6F626A656374732E786D6CAD575B6FA33818FD2B887DE6924B3BED8A326A92B68A663B534DD4D13E548A0C38942D60649B369D5FBFC7
310
600890A493BDE42160637FD7F31D7FF63E6FB3D478A55C242CBF3247B66B1A340F5994E4F19559CA8D75611A9F7D8F33263BCB4C232719BD32D5B4E97B316765A1A722BA21652A07B3B7B33F0D11D29C9A46981221AE4C113ED38CD8A4942CA2E2C58E882476BCD9DA23BB5ED8171B73523C0F841684D35CC252CCE79062D4
310
468DFA43D7747CCF51DF7D4FFDEB5593E3AB9CCA9FBEFE241792E4E19EB28198C968BAB8199F5D5A67D3E9C49A9E8F47D6EC76B6B0469F26EEFC7C3EBFBCBEB98462213924694B38DD98FE1D62C393D073EA4FADC5DAF04326852CCF6958F90F0F2B9BB5C48816348F90C7840A68EB78EDF68723159BCEE7891A6B95DDE9D3
310
BCEAEEE8086A6C6F9E5D4B59F0175C10A7A0820BAA5055C7473B5AE3CFDD452D602CD5DF12616444529E90D448938013FE6EFA58AA96F85E4F8C42275708571E98FE6827AF6B2B4AE3D7D83D64E5A64C53054DD3AF90BD06FEA9149565C94FCA0F6B834DC85599E4F2423B24DF0B6AFA979E534DFA9E7A4CC6FA631D486393
310
921829879BF5D781A373557BCB85E97FB90DB62B558F8795179C15944B051F40AB495CF35451D26A4727654E6D8033BD98EF82F21D91FF8AF2DD9982BCF1643BDD4EB516C9492E368C67C88DED563FC36D5EACF66DFF057C3658BDBFA69DF9578B3DA735B64F18C7F20770A9D45CFCF7FCF563D6456A277DBEF78A02637CA2
310
43B90A490AEAB94F72244481D24819A6C0E59B606BFA4B3025981DBB48EAB701D97BF19C577CC77F2D1B6C55A9EF3C732474C0B727303F625995056C3B02963D9EAC146BE78EC5FCEC7FA999EBC5EACBAAE41B12D27B4D2C0BBA49F244E2ECDC81B76B502F113D8F5EE8FB1BE3111CDD4FC2AA9B844CAB1288B68AB90A7CDC
310
1C166AB0D3DC5310625FCC14E779BFD0709F8890A629C9292B1B2DED31A4B0DA928CEE135085754027E3018A397D4D5427D15BD1330B677DC8934285AC3DF45A9EB68FF8F2B8FC0A509AFEECFD0FF2DE25CC6047F7214B195F07EFEB9A094D800F7BFAE8FED187B78EA8A3A400F115961BCAD1215E47C966530AF0EE8128FE
310
58CEBB996A8964FFA529A046635D9353B0336A8F700DDF46271A024E70B0B37C9DE01847591E54DED53D54202AB947E4076556AC49C6CA5C9E1226B7F1A7B1BE15DEED62C41B91E1B3E9AFAAA735036547343A925075041DF0A9979E893B391F8FCFA6967B3EFB644DCF6E5CEBFAE272625DCC6FAF3FB93793C5F90CE1EF57
310
407342756B10D1C489E8953CD1617E5CEECAD6F4EF8914CE5D5D504E5C3F1F9736DA62CFC11E00BCDDB8CC8A9466349744C1F75EBDA4DF09BA8A9E8C7A7E9991989E20E5DBDD6A6003664ED8F7A04A8DBE0DF6EAD9B9AA858342E47399053949D2C146EDB85DE4B176BB0965FBAC19BD19AA918E27FA50C1D22402E144464C
310
59462568E704B6E71915404CB72B8FF4EDE184DDAF753F284990D2C6926782963815403548A70C657FDEF80D2D9CEAA2AE4C1C76F60BFE74219A06527D6582DF6412526107381E55E353090704D085B52408D0933C4ED159D79BDA71BB4BC506F4831350EB6F979CD22D69BF7AC49B91A2C0A9DDA3D5CA36AD20FC478E37E6
310
1844E2352865EBCB6EA275A652E3836BE04EFB400BF1A2556F515F1FBB35B2AB35BD889C744FFA1004B5544B121E57F70215746DD2F5E2C1412B602CBF19455AC6C8E5E9922C4E01E65215385004546899059180EAFCF7A707CE7017CD8CDB0410789AB32C63B91E5CEBBBACB17AC6CD347A022D5075FD106377347AAABA7E
310
7D11590744509B44E205134DC1290F06580320F78E537D3D73540E06CB970B431F185308AD40BBD794D6D77003C5A36E8EAA54BA64597CD8F83BD552A080A365F7FF06504B0304140006080000CC70623B000000000000000000000000350000006662782F39464131463745442D413632322D343644302D413938332D3331
310
353338454246344243312F76657274696365732E62696E504B0304140006080800CC70623BF270F1330600000004000000360000006662782F39464131463745442D413632322D343644302D413938332D3331353338454246344243312F747269616E676C65732E62696E636660600000504B0304140006080000CC70623B
310
000000000000000000000000370000006662782F39464131463745442D413632322D343644302D413938332D3331353338454246344243312F617474726962757465732E62696E504B0304140006080800CC70623B08DA0BD19000000041010000360000006662782F39464131463745442D413632322D343644302D413938
310
332D3331353338454246344243312F6469726563746F72792E786D6C858F410AC3201045AF22B36F53E9A60B35CBEEBAE80D244E44489C6234F4F835464A48035D0DF398FF9F8AF63D0E6CC63039F212F8F9020C7D47C6792B21C5FE7403D62A1188E2E60C98D7234A5830286103A55745067B9D86B8A3CF9C7F90C11DE607
310
FB144396D7B6A82D282E9A152AD114D5EF2CB866EEE831B8EEA07A7BB5A8D7D61A2BAAEB7FD5F70921FF497D00504B0304140006080800CC70623B0D6EF93BFE000000A00100003B0000006662782F39464131463745442D413632322D343644302D413938332D3331353338454246344243312F7265736F75726365732F63
310
6F72652E786D6C8D50596E833010BD0A9ADFCA60B334011947A8694ED00B586642AC041B79A97AFC9A40A5F6AF3F33A3B7689E1E3F7DCD8FEC139DD7D6F4C0720A191A65476DA61E62B892236427C19DB5E1970C322367EC618541F0C9D9B8EC90B226A009093576C41D94DE63804C3DD2D18357379C652E63480A7FCF17A9
310
EE72C29CE5894E3AC17D702940B63D59270887DE46A7D0F36263058F518FBB468FE9A7BE6A7420864373B8D4873369AA8691FA421B3294352543C5CAF65C0F6FEF43CB8BD52C78D0F34F46E550061C419494B6843142CB0F5677F4B52BEB177AEC28E5C52AFF638ACBF84F53D42654E51E77B379102C05791282176B5F693D
310
CB4C7BED567C03504B010214000A0000080000CC70623B3DEE336E79000000790000001B00000000000000000000000000000000006175746F6465736B2D64657369676E2D7061636B6167652E786D6C504B01021400140006080800CC70623BD486FD9CA0000000F40000001300000000000000000000000000B20000005B
310
436F6E74656E745F54797065735D2E786D6C504B01021400140006080800CC70623B1EC5D7A3EB0000007C010000080000000000000000000000000083010000636F72652E786D6C504B01021400140006080800CC70623B55019EA25F0000007C000000070000000000000000000000000094020000636E782E786D6C504B
310
01021400140006080800CC70623B8C9102E971010000D40300000C00000000000000000000000000180300006662782F636F72652E786D6C504B01021400140006080800CC70623BFFEA85907E0000009D0000000B00000000000000000000000000B30400006662782F636E782E786D6C504B01021400140006080800CC70
310
623B4FEEA4082C0100001202000031000000000000000000000000005A0500006662782F39464131463745442D413632322D343644302D413938332D3331353338454246344243312F636F72652E786D6C504B01021400140006080800CC70623BAD7543B64E010000330300003000000000000000000000000000D5060000
310
6662782F39464131463745442D413632322D343644302D413938332D3331353338454246344243312F636E782E786D6C504B01021400140006080800CC70623B16AB87BA640500003C1000003400000000000000000000000000710800006662782F39464131463745442D413632322D343644302D413938332D3331353338
310
454246344243312F6F626A656374732E786D6C504B01021400140006080000CC70623B0000000000000000000000003500000000000000000000000000270E00006662782F39464131463745442D413632322D343644302D413938332D3331353338454246344243312F76657274696365732E62696E504B01021400140006
310
080800CC70623BF270F133060000000400000036000000000000000000000000007A0E00006662782F39464131463745442D413632322D343644302D413938332D3331353338454246344243312F747269616E676C65732E62696E504B01021400140006080000CC70623B0000000000000000000000003700000000000000
310
000000000000D40E00006662782F39464131463745442D413632322D343644302D413938332D3331353338454246344243312F617474726962757465732E62696E504B01021400140006080800CC70623B08DA0BD190000000410100003600000000000000000000000000290F00006662782F39464131463745442D413632
310
322D343644302D413938332D3331353338454246344243312F6469726563746F72792E786D6C504B01021400140006080800CC70623B0D6EF93BFE000000A00100003B000000000000000000000000000D1000006662782F39464131463745442D413632322D343644302D413938332D3331353338454246344243312F7265
310
736F75726365732F636F72652E786D6C504B0506000000000E000E0080040000641100000000
  0
XRECORD
  5
2A270
102
{ACAD_REACTORS
330
173
102
}
330
173
100
AcDbXrecord
280
     1
102
MATERIAL
148
0.0
149
0.0
149
0.0
 93
        0
 94
       63
282
     0
 72
     1
 77
     1
171
     1
175
     1
179
     1
273
     0
  0
XRECORD
  5
175
102
{ACAD_REACTORS
330
173
102
}
330
173
100
AcDbXrecord
280
     1
270
     1
271
     1
  0
XRECORD
  5
174
102
{ACAD_REACTORS
330
173
102
}
330
173
100
AcDbXrecord
280
     1
270
     1
271
     1
  0
XRECORD
  5
1FB
102
{ACAD_REACTORS
330
173
102
}
330
173
100
AcDbXrecord
280
     1
 70
     0
 90
1673772943
  1
ECE7A1D2-D628-4531-984C-D00F80459256
310
504B03040A0000080000CC70623B3DEE336E79000000790000001B0000006175746F6465736B2D64657369676E2D7061636B6167652E786D6C3C3F786D6C2076657273696F6E3D22312E302220656E636F64696E673D227574662D3822203F3E3C666F726D6174733E3C666F726D61743E687474703A2F2F736368656D612E
310
6175746F6465736B2E636F6D2F64657369676E2D7061636B6167652F323030393C2F666F726D61743E3C2F666F726D6174733E504B0304140006080800CC70623BD486FD9CA0000000F4000000130000005B436F6E74656E745F54797065735D2E786D6C7D8EC10E82300C865F65E91D8A1E8C310C0EEA1BF002731658846E
310
D98AC1B77784ABF1D8FE5FBFBF75BBCE937A534CCEB38643598122B6FEE978D0B0485F9C41B54DDD7D022595594E1A469170414C76A4D9A4D207E29CF43ECE46F218070CC6BECC4078ACAA135ACF422C856C0E68EA1BF5669944DDD7BCDE7B1F8E415D77AECB980613C2E4AC91FC167A2B244592486606FC29C8FD7F045B9A
310
EF7053A7E60B504B0304140006080800CC70623BD9DDAED0EC0000007C01000008000000636F72652E786D6C8D90416EC3201045AF82665B61836D9CD8C2444DD39CA01740405C94182C03558F5F9C3852BBEB6A467FFE9B197D7EF89E6EE8CB2CC17A37002D0820E394D7D68D03A478C17B4007C117EFE32F1B20272733C0
310
2A83E0E3E2D3BC49CABB685CCCAAF3DA6CA20CC14440EA969B0182FA34932C648AD911AEC52CD5558EA6A0CF2EC329598D1E47ACCEFBECC59A050463A7EA5833865FEBDD0E37353BE3EE8DBDE3F6786A48D375FBF6CC78B9C282473B3DEFABC5C86834888A900E538A49F5419B9EB47DD5BC907D4F082F57FB1F28CDFA9F50
310
B22ED6D5F6EE030B20687EE43E10BC5CB3C8E51E54AE6B6EE207504B0304140006080800CC70623B55019EA25F0000007C00000007000000636E782E786D6C4DCB3B0E80201045D1AD90E915ED2CF8AC45050C11660C8261F98AB1B07AC9C97D42D718D865D3E909258CFD00CCE24AC6E326A164D74DC0B4128928FF326038
310
472BA13128B1252AC747C6BAB984FC68F0B87FE8960A5C09FE86CFB69FBA01504B0304140006080800CC70623BA24EB22D72010000D40300000C0000006662782F636F72652E786D6CC5535B6E833010BC8AE5DF0A6C5E49888CA3A6694ED00B38E05014B091B1518EDFE511A5A9D228FD2A1F60CDEC7A67C6986DCE4D8D7A
310
69BA4AAB0C073EC548AA5C17952A33ECECD15B61B4E1CC686DBF9561A44423333CC098B3D268D7CE50AE9595CA02AA74216750749DB418E5352C32DCE59FB211BE70162ABA93DF8AFC244AE9073ED050C759670D0840D390E18DF9F1706664C23973AE2A66B62A605A75ACA4C13C4976E1364A12EF355A2EBD384AF65EFA96
310
BC7B8BED2EA6719AAE16FB8491A199335B351775B991C2CA02F390D2D40B028F861F41BCA68B7518BFD0D59A524686F29B26D7164F36B94AD9289CE54E6D1DE6010819891F6E21228B3AD1831EC219194284CF98F06DD01008846CC5A1BEF83801D4CBDC6A1303536877A57A513B0953A94FC707FDBE6064EA84A9E3E6E0FA
310
EE8CF0E9198F7784A316AA0413C2C2F2E0ECA0934D1AE6D05A69BCDE9E91D2A611F573361E38FC1375157F5752AE6B6DFE4B11990F88CCBF0719EE23FF02504B0304140006080800CC70623B408A7D3B7C0000009D0000000B0000006662782F636E782E786D6C4DCCD10A83201886E15B91FFDC552A92A0064DBC8F581632
310
D3703A76F9ABD1C18E3E78F878E5F0D9027ABBFCF2292AE86E2D20171F69F6715550CB827B40839639A5F2770314A7CD293819B45C73AAFB45B35BA61ACAA1C1C7E7855C58C15BC331339661262CC762340413D68D77DA5B42298546CBE6573AF60CEB2F504B0304140006080800CC70623B449FB9BD290100001202000031
310
0000006662782F36394639363044362D344446342D343946362D394244322D3234314243333846323333332F636F72652E786D6C8D515B6EC32010BC0AE22B55850D98B871848994463E412FE002495162B07854397EA176A4F62F3F2C9A9D991D587EB84F37F0AD7D30CEF6905418026DA553C65E7A98E219ED203808EE9D
310
8B7F6810D871D23D2C3014FCE25D9A57483A1BB58D19B54EE9151C43D0110279CB971E06F9A5A7B11A53CC8C70ADE6515EC78BAE4895DB992778883E0700CB907242D17643D7E2538BD869608875438BBAE38922CAC8F1BDD90DB4691A5E2F42C153326A951B95E398B3D1FE599322163C9AE9115F7A3D46ADA0A018778810
310
84E907617BDCEE297BC5BB3DC6BC2EF47FA234AB2745C9D8D8D035EE220B50105E2F0DC1954B9FB747187D9F9D8FA0CCDB042D5FA0C015C65B42DF78BD10F3F3B363CB56C7109DCFDFBBB97E662ED92EB62D13BC2E1BCAE5777DB9966D8A1F504B0304140006080800CC70623BAD7543B64E01000033030000300000006662
310
782F36394639363044362D344446342D343946362D394244322D3234314243333846323333332F636E782E786D6CD593CD6EC32010845F0571AD6CE3D48AD20813A9873E410FBD12D82434182C7EAAE6EDBB2424CD25871E7B41D6EC30B3FA84F9E67BB2E40B4234DE8DB46F1925E094D7C6ED479AD3AE5951B2113C789FEE
310
6C943839C1488B4C05DF079FE72A69D8C96C13AAD6B8631503449F83828872B949AC57D26200B826A308D316B4064D6E46FCDA41C05550DC9E483A00797BFD207EFB092A45DE9514C1BBD22178396BD39D891265658C238DEA00936C654E5E433CB65A26D9F6EDB5EBC14EBF49A45CB856E66048291F6939A9A81BB5C89177
310
38143CA680F4AA299D66A042CEB3354A2684DC9D8D178FE0D9B8B41CAAD720F880EE7EF93C0C18769E099ECC04D5A102C8049A8A05632F4DDF376CF1DE0F6BB65C2F8627B65A33C6BB62177CEBBDAD973006829F89F22E814B54F4BC2BE347F8AA8F681390B50FA73F804400B5F542E796F19FF974E7F78DB802FE05E20750
310
4B0304140006080800CC70623B8D05915C650500003B100000340000006662782F36394639363044362D344446342D343946362D394244322D3234314243333846323333332F6F626A656374732E786D6CAD575B6FA33814FE2B887D06429276DA1565D4266D158D3A339A6846FB502932E050B66023DB74D2FDF5FB190C01
310
9276B2973C046C8ECFF53B17071F77456EBD502133CEAE6CDF9DD81665314F32965ED995DA3A17B6F5310C04E7AA47665B8C14F4CAD6DB7618A48257A5D94AE89654B91AEDDEDDFC61C998326A5B714EA4BCB265FC440BE2924AF184CA6737218AB8E976E7FA6E4338649B0A523E8D98964450A6A029F619B8588D52FE7039
310
B1BD30F0F4F730D0FF866AF6369557DB33949F31A9088B0F848DD8CCFCF9F2767A76E99CCDE733677E3EF59D9BBB9BA5E37F984D16E78BC5E5F5ED25044B25C0C96822E8D60EEFE11B91C581D77CEA34368A1F5329E68CD1B8B61F16D63A1B8E092D294B10C78C4A48EB593D192E7DED9BDEE7995E1B91FDEDD3ACEA9FE831
310
6A756F9F7D4D79F4274C90A7A04248AA51D5F8C718DAE06FB2F75AC4796EBE65D22A88A22223B995679120E2D50E41AA49C260C046A35368846B0BECD0DFF3EBEB8AD4F835768F69B9ADF25C43D30E6B646F807FAA64AD59F61715C7A54127C4AACA98BA3006A9D792DAE165E0D59B61A01FB3A9F9D838D2DAE62445C86166
310
F37564E842E7DE6A69879FEEA2DD5AE7E371E1A5E025154AC307D06A03D73EB5978C58FFA4C8E9033066E0F3BD53BEC1F39F91BE7B55103791EDE6BBB991A2046172CB4581D8B893FA674DDA17A77B3B7C413D1B511FD2743BFF8A38F03A658705E3ADF8015C3A3417FF3D7E439FF591DA0B5F18BC20C1B8981957AE6392A3
310
F43C640C01D1A0B4728E2DD4F26DB4B3C3152A252A3B4E913CEC1C72F012782FF88EFF8637AA552DBEF76408E8A8DE9E50F9E1CB3A2DA0DB1B6039A893B56063DC5B3E3FFB5F72E67AB9FEB4AEC496C4F4C1149625DD662C53E89D7BF0F6151A046260D1337DFDC94502430F83B0EE07A130A224BCAD7DAE1D9FB6CD422FF6
310
920702629C4BB9AE79C12F243C6432A6794E18E5552BA56B431AAB5D91317302B2B071E86C3A42B1A02F999E24061403B5D0EB639195DA655DD3EBEAB4FB862DDF579F014AD0E73C22F99E28DA57FB98E75C6CA2D74D53086D600F4786E0FE3144B771A8A7B900F03594DB8A633CBC49B2EDB69228BB479CF863B5E807AAAB
310
23872F6DFEB4129B949CA33823F58830E86D65621E10047D9DB34D862E8EAC3C2ABC2F7B2C40D67CDFE01F5545B92105AF983AC54D93D69E56FB8E797F88913F898A9FEC705D3F9D1B54EC8426FB500D40A03BD0119B06E1B95DDC7EB8F6975367793EBD70E66733DFB9BC982F9CE564727731999F5D4ECFCE3B8D6A4DC2A0
310
6D50FD148437D110834A64C6CDDF57FBACB5C307A2A477DFE4939736CFEF2B175371E0E10CF0DD1D5C15654E0BCA14D1E87DD02FF93782A162C0A3D95F1524A52770F972BF1EE9809D13CE7DD599467F8ECE9ADD85CE85A34CD45355448C64F9E8A031DC2D596ACC6E5DD93D9B82DE2EF5CAF81363A8E47996A0DE24564A79
310
4115AACE09C55E14540231FDA13C319787134EBF34E3A022514E5B4D9E0826E25C02D5805B15ABE1BEF51B26383D445DD9E875EE33FE4C22DA16427D65A3BCA92CA6D28DD01DF5DC53330704308475351050232CCD31583787BA75774AFB06E5070DD0C8EF484E19968C5D83BA5B90B244D31E54D55A372320FE4786B7EA58
310
44E135AA5467CB7EA333A61683CC6A8C3257034C10CF46F40EF9F5BE59BE5BD30C3C72D235E95D10345C1D45445A5F0BB47E46A5EBE5570F9380B5FA629579952296A773720405982B9DE04011506178964401AA8BDF1FBF0A8EAB6861DD6580C0E38217056766716DAEB2D6FA0917D3E4116581EADB879C4E7CFFB11EFACD
310
3D641311495D92C8676CB409A72D18610D803CE8A626049E8EC1887CB5B44CC39883690DDA8399B4B9855B481E7D71D4A9D22F96E5BB73BF5793020C02137BF837504B0304140006080000CC70623B000000000000000000000000350000006662782F36394639363044362D344446342D343946362D394244322D32343142
310
43333846323333332F76657274696365732E62696E504B0304140006080800CC70623BF270F1330600000004000000360000006662782F36394639363044362D344446342D343946362D394244322D3234314243333846323333332F747269616E676C65732E62696E636660600000504B0304140006080000CC70623B0000
310
00000000000000000000370000006662782F36394639363044362D344446342D343946362D394244322D3234314243333846323333332F617474726962757465732E62696E504B0304140006080800CC70623B08DA0BD19000000041010000360000006662782F36394639363044362D344446342D343946362D394244322D
310
3234314243333846323333332F6469726563746F72792E786D6C858F410AC3201045AF22B36F53E9A60B35CBEEBAE80D244E44489C6234F4F835464A48035D0DF398FF9F8AF63D0E6CC63039F212F8F9020C7D47C6792B21C5FE7403D62A1188E2E60C98D7234A5830286103A55745067B9D86B8A3CF9C7F90C11DE607FB14
310
4396D7B6A82D282E9A152AD114D5EF2CB866EEE831B8EEA07A7BB5A8D7D61A2BAAEB7FD5F70921FF497D00504B0304140006080800CC70623BCA768048FE000000A00100003B0000006662782F36394639363044362D344446342D343946362D394244322D3234314243333846323333332F7265736F75726365732F636F72
310
652E786D6C8D50596E833010BD0A9ADFCA60D600328E9AA639412F609909B1126CE4A5EAF16B0295DABFFECC8CDEA2797AECF8353F924FB44E193D409E5248504B332A3D0D10FC95B4901C39B3C6F85F3248B49871801506CE266BC2B243D2688FDA47549B11775038871E12F988C7004EDE7016A9083E2ADC3D5D84BC8B09
310
D33C8D74D471E6BC8D0192EDC93A815B742658898E651BCB59086ADC356A8C3FD555A1055ED7E7E254D615792D0F075295F585746FF53B694EE78A565DD736979A65AB9933AFE69F8CD2A2F038022F28ED489E135A7CE4554F9BBEA85E68DB53CAB255FEC71496F19FA6A0B42F8B3DEE6673C0F318E4497096AD7DC5F52C33
310
EEB55BFE0D504B010214000A0000080000CC70623B3DEE336E79000000790000001B00000000000000000000000000000000006175746F6465736B2D64657369676E2D7061636B6167652E786D6C504B01021400140006080800CC70623BD486FD9CA0000000F40000001300000000000000000000000000B20000005B436F
310
6E74656E745F54797065735D2E786D6C504B01021400140006080800CC70623BD9DDAED0EC0000007C010000080000000000000000000000000083010000636F72652E786D6C504B01021400140006080800CC70623B55019EA25F0000007C000000070000000000000000000000000095020000636E782E786D6C504B0102
310
1400140006080800CC70623BA24EB22D72010000D40300000C00000000000000000000000000190300006662782F636F72652E786D6C504B01021400140006080800CC70623B408A7D3B7C0000009D0000000B00000000000000000000000000B50400006662782F636E782E786D6C504B01021400140006080800CC70623B
310
449FB9BD290100001202000031000000000000000000000000005A0500006662782F36394639363044362D344446342D343946362D394244322D3234314243333846323333332F636F72652E786D6C504B01021400140006080800CC70623BAD7543B64E010000330300003000000000000000000000000000D20600006662
310
782F36394639363044362D344446342D343946362D394244322D3234314243333846323333332F636E782E786D6C504B01021400140006080800CC70623B8D05915C650500003B10000034000000000000000000000000006E0800006662782F36394639363044362D344446342D343946362D394244322D32343142433338
310
46323333332F6F626A656374732E786D6C504B01021400140006080000CC70623B0000000000000000000000003500000000000000000000000000250E00006662782F36394639363044362D344446342D343946362D394244322D3234314243333846323333332F76657274696365732E62696E504B010214001400060808
310
00CC70623BF270F13306000000040000003600000000000000000000000000780E00006662782F36394639363044362D344446342D343946362D394244322D3234314243333846323333332F747269616E676C65732E62696E504B01021400140006080000CC70623B00000000000000000000000037000000000000000000
310
00000000D20E00006662782F36394639363044362D344446342D343946362D394244322D3234314243333846323333332F617474726962757465732E62696E504B01021400140006080800CC70623B08DA0BD190000000410100003600000000000000000000000000270F00006662782F36394639363044362D344446342D
310
343946362D394244322D3234314243333846323333332F6469726563746F72792E786D6C504B01021400140006080800CC70623BCA768048FE000000A00100003B000000000000000000000000000B1000006662782F36394639363044362D344446342D343946362D394244322D3234314243333846323333332F7265736F
310
75726365732F636F72652E786D6C504B0506000000000E000E0080040000621100000000
  0
XRECORD
  5
176
102
{ACAD_REACTORS
330
173
102
}
330
173
100
AcDbXrecord
280
     1
270
     1
271
     1
  0
XRECORD
  5
177
102
{ACAD_REACTORS
330
173
102
}
330
173
100
AcDbXrecord
280
     1
270
     1
271
     1
  0
XRECORD
  5
2A292
102
{ACAD_REACTORS
330
2A291
102
}
330
2A291
100
AcDbXrecord
280
     1
102
ACAD_ROUNDTRIP_2012_MLEADER_STYLE
298
     1
  0
XRECORD
  5
2A2A4
102
{ACAD_REACTORS
330
2A2A3
102
}
330
2A2A3
100
AcDbXrecord
280
     1
102
DISPLAYNAME
  1
Metric50
102
FLAGS
 90
        0
  0
CELLSTYLEMAP
  5
2A264
102
{ACAD_REACTORS
330
162
102
}
330
162
100
AcDbCellStyleMap
 90
        3
300
CELLSTYLE
  1
TABLEFORMAT_BEGIN
 90
        5
170
     1
 91
        0
 92
    32768
 62
   257
 93
        1
300
CONTENTFORMAT
  1
CONTENTFORMAT_BEGIN
 90
        0
 91
        0
 92
      512
 93
        0
300

 40
0.0
140
1.0
 94
        5
 62
     0
340
11
144
6.0
309
CONTENTFORMAT_END
171
     1
301
MARGIN
  1
CELLMARGIN_BEGIN
 40
1.5
 40
1.5
 40
1.5
 40
1.5
 40
4.5
 40
4.5
309
CELLMARGIN_END
 94
        6
 95
        1
302
GRIDFORMAT
  1
GRIDFORMAT_BEGIN
 90
        0
 91
        1
 62
     0
 92
       -2
340
14
 93
        0
 40
1.125
309
GRIDFORMAT_END
 95
        2
302
GRIDFORMAT
  1
GRIDFORMAT_BEGIN
 90
        0
 91
        1
 62
     0
 92
       -2
340
14
 93
        0
 40
1.125
309
GRIDFORMAT_END
 95
        4
302
GRIDFORMAT
  1
GRIDFORMAT_BEGIN
 90
        0
 91
        1
 62
     0
 92
       -2
340
14
 93
        0
 40
1.125
309
GRIDFORMAT_END
 95
        8
302
GRIDFORMAT
  1
GRIDFORMAT_BEGIN
 90
        0
 91
        1
 62
     0
 92
       -2
340
14
 93
        0
 40
1.125
309
GRIDFORMAT_END
 95
       16
302
GRIDFORMAT
  1
GRIDFORMAT_BEGIN
 90
        0
 91
        1
 62
     0
 92
       -2
340
14
 93
        0
 40
1.125
309
GRIDFORMAT_END
 95
       32
302
GRIDFORMAT
  1
GRIDFORMAT_BEGIN
 90
        0
 91
        1
 62
     0
 92
       -2
340
14
 93
        0
 40
1.125
309
GRIDFORMAT_END
309
TABLEFORMAT_END
  1
CELLSTYLE_BEGIN
 90
        1
 91
        1
300
_TITLE
309
CELLSTYLE_END
300
CELLSTYLE
  1
TABLEFORMAT_BEGIN
 90
        5
170
     1
 91
        0
 92
        0
 62
   257
 93
        1
300
CONTENTFORMAT
  1
CONTENTFORMAT_BEGIN
 90
        0
 91
        0
 92
      512
 93
        0
300

 40
0.0
140
1.0
 94
        5
 62
     0
340
11
144
4.5
309
CONTENTFORMAT_END
171
     1
301
MARGIN
  1
CELLMARGIN_BEGIN
 40
1.5
 40
1.5
 40
1.5
 40
1.5
 40
4.5
 40
4.5
309
CELLMARGIN_END
 94
        6
 95
        1
302
GRIDFORMAT
  1
GRIDFORMAT_BEGIN
 90
        0
 91
        1
 62
     0
 92
       -2
340
14
 93
        0
 40
1.125
309
GRIDFORMAT_END
 95
        2
302
GRIDFORMAT
  1
GRIDFORMAT_BEGIN
 90
        0
 91
        1
 62
     0
 92
       -2
340
14
 93
        0
 40
1.125
309
GRIDFORMAT_END
 95
        4
302
GRIDFORMAT
  1
GRIDFORMAT_BEGIN
 90
        0
 91
        1
 62
     0
 92
       -2
340
14
 93
        0
 40
1.125
309
GRIDFORMAT_END
 95
        8
302
GRIDFORMAT
  1
GRIDFORMAT_BEGIN
 90
        0
 91
        1
 62
     0
 92
       -2
340
14
 93
        0
 40
1.125
309
GRIDFORMAT_END
 95
       16
302
GRIDFORMAT
  1
GRIDFORMAT_BEGIN
 90
        0
 91
        1
 62
     0
 92
       -2
340
14
 93
        0
 40
1.125
309
GRIDFORMAT_END
 95
       32
302
GRIDFORMAT
  1
GRIDFORMAT_BEGIN
 90
        0
 91
        1
 62
     0
 92
       -2
340
14
 93
        0
 40
1.125
309
GRIDFORMAT_END
309
TABLEFORMAT_END
  1
CELLSTYLE_BEGIN
 90
        2
 91
        1
300
_HEADER
309
CELLSTYLE_END
300
CELLSTYLE
  1
TABLEFORMAT_BEGIN
 90
        5
170
     1
 91
        0
 92
        0
 62
   257
 93
        1
300
CONTENTFORMAT
  1
CONTENTFORMAT_BEGIN
 90
        0
 91
        0
 92
      512
 93
        0
300

 40
0.0
140
1.0
 94
        2
 62
     0
340
11
144
4.5
309
CONTENTFORMAT_END
171
     1
301
MARGIN
  1
CELLMARGIN_BEGIN
 40
1.5
 40
1.5
 40
1.5
 40
1.5
 40
4.5
 40
4.5
309
CELLMARGIN_END
 94
        6
 95
        1
302
GRIDFORMAT
  1
GRIDFORMAT_BEGIN
 90
        0
 91
        1
 62
     0
 92
       -2
340
14
 93
        0
 40
1.125
309
GRIDFORMAT_END
 95
        2
302
GRIDFORMAT
  1
GRIDFORMAT_BEGIN
 90
        0
 91
        1
 62
     0
 92
       -2
340
14
 93
        0
 40
1.125
309
GRIDFORMAT_END
 95
        4
302
GRIDFORMAT
  1
GRIDFORMAT_BEGIN
 90
        0
 91
        1
 62
     0
 92
       -2
340
14
 93
        0
 40
1.125
309
GRIDFORMAT_END
 95
        8
302
GRIDFORMAT
  1
GRIDFORMAT_BEGIN
 90
        0
 91
        1
 62
     0
 92
       -2
340
14
 93
        0
 40
1.125
309
GRIDFORMAT_END
 95
       16
302
GRIDFORMAT
  1
GRIDFORMAT_BEGIN
 90
        0
 91
        1
 62
     0
 92
       -2
340
14
 93
        0
 40
1.125
309
GRIDFORMAT_END
 95
       32
302
GRIDFORMAT
  1
GRIDFORMAT_BEGIN
 90
        0
 91
        1
 62
     0
 92
       -2
340
14
 93
        0
 40
1.125
309
GRIDFORMAT_END
309
TABLEFORMAT_END
  1
CELLSTYLE_BEGIN
 90
        3
 91
        2
300
_DATA
309
CELLSTYLE_END
  0
XRECORD
  5
2A269
102
{ACAD_REACTORS
330
162
102
}
330
162
100
AcDbXrecord
280
     1
102
ACAD_ROUNDTRIP_PRE2007_TABLESTYLE
 90
      512
 91
        0
  1

 92
      512
 93
        0
  2

 94
      512
 95
        0
  3

  0
XRECORD
  5
2A27C
102
{ACAD_REACTORS
330
2A27B
102
}
330
2A27B
100
AcDbXrecord
280
     1
102
RTVSPost2010Prop28
280
     1
102
RTVSPost2010PropOp28
 70
     1
102
RTVSPost2010Prop29
280
     1
102
RTVSPost2010PropOp29
 70
     1
102
RTVSPost2010Prop30
280
     0
102
RTVSPost2010PropOp30
 70
     1
102
RTVSPost2010Prop31
280
     0
102
RTVSPost2010PropOp31
 70
     1
102
RTVSPost2010Prop32
280
     0
102
RTVSPost2010PropOp32
 70
     1
102
RTVSPost2010Prop33
280
     0
102
RTVSPost2010PropOp33
 70
     1
102
RTVSPost2010Prop34
280
     0
102
RTVSPost2010PropOp34
 70
     1
102
RTVSPost2010Prop35
280
     0
102
RTVSPost2010PropOp35
 70
     1
102
RTVSPost2010Prop36
280
     0
102
RTVSPost2010PropOp36
 70
     1
102
RTVSPost2010Prop37
 90
       50
102
RTVSPost2010PropOp37
 70
     1
102
RTVSPost2010Prop38
140
0.0
102
RTVSPost2010PropOp38
 70
     1
102
RTVSPost2010Prop39
140
1.0
102
RTVSPost2010PropOp39
 70
     1
102
RTVSPost2010Prop40
 90
        0
102
RTVSPost2010PropOp40
 70
     1
102
RTVSPost2010Prop41ColorIndex
 90
       18
102
RTVSPost2010Prop41ColorRGB
 90
        0
102
RTVSPost2010PropOp41
 70
     1
102
RTVSPost2010Prop42
 90
       50
102
RTVSPost2010PropOp42
 70
     1
102
RTVSPost2010Prop43
 90
        3
102
RTVSPost2010PropOp43
 70
     1
102
RTVSPost2010Prop44ColorIndex
 90
        5
102
RTVSPost2010Prop44ColorRGB
 90
      255
102
RTVSPost2010PropOp44
 70
     1
102
RTVSPost2010Prop45
280
     0
102
RTVSPost2010PropOp45
 70
     1
102
RTVSPost2010Prop46
 90
       50
102
RTVSPost2010PropOp46
 70
     1
102
RTVSPost2010Prop47
 90
       50
102
RTVSPost2010PropOp47
 70
     1
102
RTVSPost2010Prop48
 90
       50
102
RTVSPost2010PropOp48
 70
     1
102
RTVSPost2010Prop49
280
     0
102
RTVSPost2010PropOp49
 70
     1
102
RTVSPost2010Prop50
 90
       50
102
RTVSPost2010PropOp50
 70
     1
102
RTVSPost2010Prop51ColorIndex
 90
      256
102
RTVSPost2010Prop51ColorRGB
 90
-16777216
102
RTVSPost2010PropOp51
 70
     0
102
RTVSPost2010Prop52
140
1.0
102
RTVSPost2010PropOp52
 70
     0
102
RTVSPost2010Prop53
 90
        2
102
RTVSPost2010PropOp53
 70
     1
102
RTVSPost2010Prop54
  1
strokes_ogs.tif
102
RTVSPost2010PropOp54
 70
     1
102
RTVSPost2010Prop55
280
     0
102
RTVSPost2010PropOp55
 70
     1
102
RTVSPost2010Prop56
140
1.0
102
RTVSPost2010PropOp56
 70
     1
102
RTVSPost2010Prop57
140
1.0
102
RTVSPost2010PropOp57
 70
     1
102
RTVSPropertyOp0
 70
     1
102
RTVSPropertyOp1
 70
     1
102
RTVSPropertyOp2
 70
     1
102
RTVSPropertyOp3
 70
     1
102
RTVSPropertyOp4
 70
     1
102
RTVSPropertyOp5
 70
     1
102
RTVSPropertyOp6
 70
     1
102
RTVSPropertyOp7
 70
     1
102
RTVSPropertyOp8
 70
     1
102
RTVSPropertyOp9
 70
     1
102
RTVSPropertyOp10
 70
     1
102
RTVSPropertyOp11
 70
     1
102
RTVSPropertyOp12
 70
     1
102
RTVSPropertyOp13
 70
     1
102
RTVSPropertyOp14
 70
     1
102
RTVSPropertyOp15
 70
     1
102
RTVSPropertyOp16
 70
     1
102
RTVSPropertyOp17
 70
     1
102
RTVSPropertyOp18
 70
     1
102
RTVSPropertyOp19
 70
     1
102
RTVSPropertyOp20
 70
     1
102
RTVSPropertyOp21
 70
     1
102
RTVSPropertyOp22
 70
     1
102
RTVSPropertyOp23
 70
     1
102
RTVSPropertyOp24
 70
     1
102
RTVSPropertyOp25
 70
     1
102
RTVSPropertyOp26
 70
     1
102
RTVSPropertyOp27
 70
     1
102
RTVSPropertyOp28
 70
     1
102
RTVSPropertyOp29
 70
     1
102
RTVSPropertyOp30
 70
     1
102
RTVSPropertyOp31
 70
     1
102
RTVSPropertyOp32
 70
     1
102
RTVSPropertyOp33
 70
     1
102
RTVSPropertyOp34
 70
     1
102
RTVSPropertyOp35
 70
     1
102
RTVSPropertyOp36
 70
     1
102
RTVSPropertyOp37
 70
     1
102
RTVSPropertyOp38
 70
     1
102
RTVSPropertyOp39
 70
     1
102
RTVSPropertyOp40
 70
     1
102
RTVSPropertyOp41
 70
     1
102
RTVSPropertyOp42
 70
     1
102
RTVSPropertyOp43
 70
     1
102
RTVSPropertyOp44
 70
     1
102
RTVSPropertyOp45
 70
     1
102
RTVSPropertyOp46
 70
     1
102
RTVSPropertyOp47
 70
     1
102
RTVSPropertyOp48
 70
     1
102
RTVSPropertyOp49
 70
     1
102
RTVSPropertyOp50
 70
     1
102
RTVSPropertyOp51
 70
     0
102
RTVSPropertyOp52
 70
     0
102
RTVSPropertyOp53
 70
     1
102
RTVSPropertyOp54
 70
     1
102
RTVSPropertyOp55
 70
     1
102
RTVSPropertyOp56
 70
     1
102
RTVSPropertyOp57
 70
     1
102
RTVSPropertyOp58
 70
     1
102
RTVSPropertyOp59
 70
     1
102
RTVSPropertyOp60
 70
     1
102
RTVSPropertyOp61
 70
     1
102
RTVSPropertyOp62
 70
     1
  0
XRECORD
  5
2A27A
102
{ACAD_REACTORS
330
2A279
102
}
330
2A279
100
AcDbXrecord
280
     1
102
RTVSPost2010Prop28
280
     0
102
RTVSPost2010PropOp28
 70
     1
102
RTVSPost2010Prop29
280
     1
102
RTVSPost2010PropOp29
 70
     1
102
RTVSPost2010Prop30
280
     1
102
RTVSPost2010PropOp30
 70
     1
102
RTVSPost2010Prop31
280
     0
102
RTVSPost2010PropOp31
 70
     1
102
RTVSPost2010Prop32
280
     0
102
RTVSPost2010PropOp32
 70
     1
102
RTVSPost2010Prop33
280
     0
102
RTVSPost2010PropOp33
 70
     1
102
RTVSPost2010Prop34
280
     0
102
RTVSPost2010PropOp34
 70
     1
102
RTVSPost2010Prop35
280
     0
102
RTVSPost2010PropOp35
 70
     1
102
RTVSPost2010Prop36
280
     0
102
RTVSPost2010PropOp36
 70
     1
102
RTVSPost2010Prop37
 90
       50
102
RTVSPost2010PropOp37
 70
     1
102
RTVSPost2010Prop38
140
0.0
102
RTVSPost2010PropOp38
 70
     1
102
RTVSPost2010Prop39
140
1.0
102
RTVSPost2010PropOp39
 70
     1
102
RTVSPost2010Prop40
 90
        0
102
RTVSPost2010PropOp40
 70
     1
102
RTVSPost2010Prop41ColorIndex
 90
       18
102
RTVSPost2010Prop41ColorRGB
 90
        0
102
RTVSPost2010PropOp41
 70
     1
102
RTVSPost2010Prop42
 90
       50
102
RTVSPost2010PropOp42
 70
     1
102
RTVSPost2010Prop43
 90
        3
102
RTVSPost2010PropOp43
 70
     1
102
RTVSPost2010Prop44ColorIndex
 90
        5
102
RTVSPost2010Prop44ColorRGB
 90
      255
102
RTVSPost2010PropOp44
 70
     1
102
RTVSPost2010Prop45
280
     0
102
RTVSPost2010PropOp45
 70
     1
102
RTVSPost2010Prop46
 90
       50
102
RTVSPost2010PropOp46
 70
     1
102
RTVSPost2010Prop47
 90
       50
102
RTVSPost2010PropOp47
 70
     1
102
RTVSPost2010Prop48
 90
       50
102
RTVSPost2010PropOp48
 70
     1
102
RTVSPost2010Prop49
280
     0
102
RTVSPost2010PropOp49
 70
     1
102
RTVSPost2010Prop50
 90
       50
102
RTVSPost2010PropOp50
 70
     1
102
RTVSPost2010Prop51ColorIndex
 90
      256
102
RTVSPost2010Prop51ColorRGB
 90
-16777216
102
RTVSPost2010PropOp51
 70
     0
102
RTVSPost2010Prop52
140
1.0
102
RTVSPost2010PropOp52
 70
     0
102
RTVSPost2010Prop53
 90
        2
102
RTVSPost2010PropOp53
 70
     1
102
RTVSPost2010Prop54
  1
strokes_ogs.tif
102
RTVSPost2010PropOp54
 70
     1
102
RTVSPost2010Prop55
280
     0
102
RTVSPost2010PropOp55
 70
     1
102
RTVSPost2010Prop56
140
1.0
102
RTVSPost2010PropOp56
 70
     1
102
RTVSPost2010Prop57
140
1.0
102
RTVSPost2010PropOp57
 70
     1
102
RTVSPropertyOp0
 70
     1
102
RTVSPropertyOp1
 70
     1
102
RTVSPropertyOp2
 70
     1
102
RTVSPropertyOp3
 70
     1
102
RTVSPropertyOp4
 70
     1
102
RTVSPropertyOp5
 70
     1
102
RTVSPropertyOp6
 70
     1
102
RTVSPropertyOp7
 70
     1
102
RTVSPropertyOp8
 70
     1
102
RTVSPropertyOp9
 70
     1
102
RTVSPropertyOp10
 70
     1
102
RTVSPropertyOp11
 70
     1
102
RTVSPropertyOp12
 70
     1
102
RTVSPropertyOp13
 70
     1
102
RTVSPropertyOp14
 70
     1
102
RTVSPropertyOp15
 70
     1
102
RTVSPropertyOp16
 70
     1
102
RTVSPropertyOp17
 70
     1
102
RTVSPropertyOp18
 70
     1
102
RTVSPropertyOp19
 70
     1
102
RTVSPropertyOp20
 70
     1
102
RTVSPropertyOp21
 70
     1
102
RTVSPropertyOp22
 70
     1
102
RTVSPropertyOp23
 70
     1
102
RTVSPropertyOp24
 70
     1
102
RTVSPropertyOp25
 70
     1
102
RTVSPropertyOp26
 70
     1
102
RTVSPropertyOp27
 70
     1
102
RTVSPropertyOp28
 70
     1
102
RTVSPropertyOp29
 70
     1
102
RTVSPropertyOp30
 70
     1
102
RTVSPropertyOp31
 70
     1
102
RTVSPropertyOp32
 70
     1
102
RTVSPropertyOp33
 70
     1
102
RTVSPropertyOp34
 70
     1
102
RTVSPropertyOp35
 70
     1
102
RTVSPropertyOp36
 70
     1
102
RTVSPropertyOp37
 70
     1
102
RTVSPropertyOp38
 70
     1
102
RTVSPropertyOp39
 70
     1
102
RTVSPropertyOp40
 70
     1
102
RTVSPropertyOp41
 70
     1
102
RTVSPropertyOp42
 70
     1
102
RTVSPropertyOp43
 70
     1
102
RTVSPropertyOp44
 70
     1
102
RTVSPropertyOp45
 70
     1
102
RTVSPropertyOp46
 70
     1
102
RTVSPropertyOp47
 70
     1
102
RTVSPropertyOp48
 70
     1
102
RTVSPropertyOp49
 70
     1
102
RTVSPropertyOp50
 70
     1
102
RTVSPropertyOp51
 70
     0
102
RTVSPropertyOp52
 70
     0
102
RTVSPropertyOp53
 70
     1
102
RTVSPropertyOp54
 70
     1
102
RTVSPropertyOp55
 70
     1
102
RTVSPropertyOp56
 70
     1
102
RTVSPropertyOp57
 70
     1
102
RTVSPropertyOp58
 70
     1
102
RTVSPropertyOp59
 70
     1
102
RTVSPropertyOp60
 70
     1
102
RTVSPropertyOp61
 70
     1
102
RTVSPropertyOp62
 70
     1
  0
XRECORD
  5
2A288
102
{ACAD_REACTORS
330
2A287
102
}
330
2A287
100
AcDbXrecord
280
     1
102
RTVSPost2010Prop28
280
     0
102
RTVSPost2010PropOp28
 70
     1
102
RTVSPost2010Prop29
280
     1
102
RTVSPost2010PropOp29
 70
     1
102
RTVSPost2010Prop30
280
     1
102
RTVSPost2010PropOp30
 70
     1
102
RTVSPost2010Prop31
280
     0
102
RTVSPost2010PropOp31
 70
     1
102
RTVSPost2010Prop32
280
     0
102
RTVSPost2010PropOp32
 70
     1
102
RTVSPost2010Prop33
280
     0
102
RTVSPost2010PropOp33
 70
     1
102
RTVSPost2010Prop34
280
     0
102
RTVSPost2010PropOp34
 70
     1
102
RTVSPost2010Prop35
280
     0
102
RTVSPost2010PropOp35
 70
     1
102
RTVSPost2010Prop36
280
     0
102
RTVSPost2010PropOp36
 70
     1
102
RTVSPost2010Prop37
 90
       50
102
RTVSPost2010PropOp37
 70
     1
102
RTVSPost2010Prop38
140
0.0
102
RTVSPost2010PropOp38
 70
     1
102
RTVSPost2010Prop39
140
1.0
102
RTVSPost2010PropOp39
 70
     1
102
RTVSPost2010Prop40
 90
        0
102
RTVSPost2010PropOp40
 70
     1
102
RTVSPost2010Prop41ColorIndex
 90
       18
102
RTVSPost2010Prop41ColorRGB
 90
        0
102
RTVSPost2010PropOp41
 70
     1
102
RTVSPost2010Prop42
 90
       50
102
RTVSPost2010PropOp42
 70
     1
102
RTVSPost2010Prop43
 90
        3
102
RTVSPost2010PropOp43
 70
     1
102
RTVSPost2010Prop44ColorIndex
 90
        5
102
RTVSPost2010Prop44ColorRGB
 90
      255
102
RTVSPost2010PropOp44
 70
     1
102
RTVSPost2010Prop45
280
     0
102
RTVSPost2010PropOp45
 70
     1
102
RTVSPost2010Prop46
 90
       50
102
RTVSPost2010PropOp46
 70
     1
102
RTVSPost2010Prop47
 90
       50
102
RTVSPost2010PropOp47
 70
     1
102
RTVSPost2010Prop48
 90
       50
102
RTVSPost2010PropOp48
 70
     1
102
RTVSPost2010Prop49
280
     0
102
RTVSPost2010PropOp49
 70
     1
102
RTVSPost2010Prop50
 90
       50
102
RTVSPost2010PropOp50
 70
     1
102
RTVSPost2010Prop51ColorIndex
 90
      256
102
RTVSPost2010Prop51ColorRGB
 90
-16777216
102
RTVSPost2010PropOp51
 70
     0
102
RTVSPost2010Prop52
140
1.0
102
RTVSPost2010PropOp52
 70
     0
102
RTVSPost2010Prop53
 90
        2
102
RTVSPost2010PropOp53
 70
     1
102
RTVSPost2010Prop54
  1
strokes_ogs.tif
102
RTVSPost2010PropOp54
 70
     1
102
RTVSPost2010Prop55
280
     0
102
RTVSPost2010PropOp55
 70
     1
102
RTVSPost2010Prop56
140
1.0
102
RTVSPost2010PropOp56
 70
     1
102
RTVSPost2010Prop57
140
1.0
102
RTVSPost2010PropOp57
 70
     1
102
RTVSPropertyOp0
 70
     1
102
RTVSPropertyOp1
 70
     1
102
RTVSPropertyOp2
 70
     1
102
RTVSPropertyOp3
 70
     1
102
RTVSPropertyOp4
 70
     1
102
RTVSPropertyOp5
 70
     1
102
RTVSPropertyOp6
 70
     1
102
RTVSPropertyOp7
 70
     1
102
RTVSPropertyOp8
 70
     1
102
RTVSPropertyOp9
 70
     1
102
RTVSPropertyOp10
 70
     1
102
RTVSPropertyOp11
 70
     1
102
RTVSPropertyOp12
 70
     1
102
RTVSPropertyOp13
 70
     1
102
RTVSPropertyOp14
 70
     1
102
RTVSPropertyOp15
 70
     1
102
RTVSPropertyOp16
 70
     1
102
RTVSPropertyOp17
 70
     1
102
RTVSPropertyOp18
 70
     1
102
RTVSPropertyOp19
 70
     1
102
RTVSPropertyOp20
 70
     1
102
RTVSPropertyOp21
 70
     1
102
RTVSPropertyOp22
 70
     1
102
RTVSPropertyOp23
 70
     1
102
RTVSPropertyOp24
 70
     1
102
RTVSPropertyOp25
 70
     1
102
RTVSPropertyOp26
 70
     1
102
RTVSPropertyOp27
 70
     1
102
RTVSPropertyOp28
 70
     1
102
RTVSPropertyOp29
 70
     1
102
RTVSPropertyOp30
 70
     1
102
RTVSPropertyOp31
 70
     1
102
RTVSPropertyOp32
 70
     1
102
RTVSPropertyOp33
 70
     1
102
RTVSPropertyOp34
 70
     1
102
RTVSPropertyOp35
 70
     1
102
RTVSPropertyOp36
 70
     1
102
RTVSPropertyOp37
 70
     1
102
RTVSPropertyOp38
 70
     1
102
RTVSPropertyOp39
 70
     1
102
RTVSPropertyOp40
 70
     1
102
RTVSPropertyOp41
 70
     1
102
RTVSPropertyOp42
 70
     1
102
RTVSPropertyOp43
 70
     1
102
RTVSPropertyOp44
 70
     1
102
RTVSPropertyOp45
 70
     1
102
RTVSPropertyOp46
 70
     1
102
RTVSPropertyOp47
 70
     1
102
RTVSPropertyOp48
 70
     1
102
RTVSPropertyOp49
 70
     1
102
RTVSPropertyOp50
 70
     1
102
RTVSPropertyOp51
 70
     0
102
RTVSPropertyOp52
 70
     0
102
RTVSPropertyOp53
 70
     1
102
RTVSPropertyOp54
 70
     1
102
RTVSPropertyOp55
 70
     1
102
RTVSPropertyOp56
 70
     1
102
RTVSPropertyOp57
 70
     1
102
RTVSPropertyOp58
 70
     1
102
RTVSPropertyOp59
 70
     1
102
RTVSPropertyOp60
 70
     1
102
RTVSPropertyOp61
 70
     1
102
RTVSPropertyOp62
 70
     1
  0
XRECORD
  5
2A290
102
{ACAD_REACTORS
330
2A28F
102
}
330
2A28F
100
AcDbXrecord
280
     1
102
RTVSPost2010Prop28
280
     0
102
RTVSPost2010PropOp28
 70
     1
102
RTVSPost2010Prop29
280
     1
102
RTVSPost2010PropOp29
 70
     1
102
RTVSPost2010Prop30
280
     1
102
RTVSPost2010PropOp30
 70
     1
102
RTVSPost2010Prop31
280
     0
102
RTVSPost2010PropOp31
 70
     1
102
RTVSPost2010Prop32
280
     0
102
RTVSPost2010PropOp32
 70
     1
102
RTVSPost2010Prop33
280
     0
102
RTVSPost2010PropOp33
 70
     1
102
RTVSPost2010Prop34
280
     0
102
RTVSPost2010PropOp34
 70
     1
102
RTVSPost2010Prop35
280
     0
102
RTVSPost2010PropOp35
 70
     1
102
RTVSPost2010Prop36
280
     0
102
RTVSPost2010PropOp36
 70
     1
102
RTVSPost2010Prop37
 90
       50
102
RTVSPost2010PropOp37
 70
     1
102
RTVSPost2010Prop38
140
0.0
102
RTVSPost2010PropOp38
 70
     1
102
RTVSPost2010Prop39
140
1.0
102
RTVSPost2010PropOp39
 70
     1
102
RTVSPost2010Prop40
 90
        0
102
RTVSPost2010PropOp40
 70
     1
102
RTVSPost2010Prop41ColorIndex
 90
       18
102
RTVSPost2010Prop41ColorRGB
 90
        0
102
RTVSPost2010PropOp41
 70
     1
102
RTVSPost2010Prop42
 90
       50
102
RTVSPost2010PropOp42
 70
     1
102
RTVSPost2010Prop43
 90
        3
102
RTVSPost2010PropOp43
 70
     1
102
RTVSPost2010Prop44ColorIndex
 90
        5
102
RTVSPost2010Prop44ColorRGB
 90
      255
102
RTVSPost2010PropOp44
 70
     1
102
RTVSPost2010Prop45
280
     0
102
RTVSPost2010PropOp45
 70
     1
102
RTVSPost2010Prop46
 90
       50
102
RTVSPost2010PropOp46
 70
     1
102
RTVSPost2010Prop47
 90
       50
102
RTVSPost2010PropOp47
 70
     1
102
RTVSPost2010Prop48
 90
       50
102
RTVSPost2010PropOp48
 70
     1
102
RTVSPost2010Prop49
280
     0
102
RTVSPost2010PropOp49
 70
     1
102
RTVSPost2010Prop50
 90
       50
102
RTVSPost2010PropOp50
 70
     1
102
RTVSPost2010Prop51ColorIndex
 90
      256
102
RTVSPost2010Prop51ColorRGB
 90
-16777216
102
RTVSPost2010PropOp51
 70
     0
102
RTVSPost2010Prop52
140
1.0
102
RTVSPost2010PropOp52
 70
     0
102
RTVSPost2010Prop53
 90
        2
102
RTVSPost2010PropOp53
 70
     1
102
RTVSPost2010Prop54
  1
strokes_ogs.tif
102
RTVSPost2010PropOp54
 70
     1
102
RTVSPost2010Prop55
280
     0
102
RTVSPost2010PropOp55
 70
     1
102
RTVSPost2010Prop56
140
1.0
102
RTVSPost2010PropOp56
 70
     1
102
RTVSPost2010Prop57
140
1.0
102
RTVSPost2010PropOp57
 70
     1
102
RTVSPropertyOp0
 70
     1
102
RTVSPropertyOp1
 70
     1
102
RTVSPropertyOp2
 70
     1
102
RTVSPropertyOp3
 70
     1
102
RTVSPropertyOp4
 70
     1
102
RTVSPropertyOp5
 70
     1
102
RTVSPropertyOp6
 70
     1
102
RTVSPropertyOp7
 70
     1
102
RTVSPropertyOp8
 70
     1
102
RTVSPropertyOp9
 70
     1
102
RTVSPropertyOp10
 70
     1
102
RTVSPropertyOp11
 70
     1
102
RTVSPropertyOp12
 70
     1
102
RTVSPropertyOp13
 70
     1
102
RTVSPropertyOp14
 70
     1
102
RTVSPropertyOp15
 70
     1
102
RTVSPropertyOp16
 70
     1
102
RTVSPropertyOp17
 70
     1
102
RTVSPropertyOp18
 70
     1
102
RTVSPropertyOp19
 70
     1
102
RTVSPropertyOp20
 70
     1
102
RTVSPropertyOp21
 70
     1
102
RTVSPropertyOp22
 70
     1
102
RTVSPropertyOp23
 70
     1
102
RTVSPropertyOp24
 70
     1
102
RTVSPropertyOp25
 70
     1
102
RTVSPropertyOp26
 70
     1
102
RTVSPropertyOp27
 70
     1
102
RTVSPropertyOp28
 70
     1
102
RTVSPropertyOp29
 70
     1
102
RTVSPropertyOp30
 70
     1
102
RTVSPropertyOp31
 70
     1
102
RTVSPropertyOp32
 70
     1
102
RTVSPropertyOp33
 70
     1
102
RTVSPropertyOp34
 70
     1
102
RTVSPropertyOp35
 70
     1
102
RTVSPropertyOp36
 70
     1
102
RTVSPropertyOp37
 70
     1
102
RTVSPropertyOp38
 70
     1
102
RTVSPropertyOp39
 70
     1
102
RTVSPropertyOp40
 70
     1
102
RTVSPropertyOp41
 70
     1
102
RTVSPropertyOp42
 70
     1
102
RTVSPropertyOp43
 70
     1
102
RTVSPropertyOp44
 70
     1
102
RTVSPropertyOp45
 70
     1
102
RTVSPropertyOp46
 70
     1
102
RTVSPropertyOp47
 70
     1
102
RTVSPropertyOp48
 70
     1
102
RTVSPropertyOp49
 70
     1
102
RTVSPropertyOp50
 70
     1
102
RTVSPropertyOp51
 70
     0
102
RTVSPropertyOp52
 70
     0
102
RTVSPropertyOp53
 70
     1
102
RTVSPropertyOp54
 70
     1
102
RTVSPropertyOp55
 70
     1
102
RTVSPropertyOp56
 70
     1
102
RTVSPropertyOp57
 70
     1
102
RTVSPropertyOp58
 70
     1
102
RTVSPropertyOp59
 70
     1
102
RTVSPropertyOp60
 70
     1
102
RTVSPropertyOp61
 70
     1
102
RTVSPropertyOp62
 70
     1
  0
XRECORD
  5
2A282
102
{ACAD_REACTORS
330
2A281
102
}
330
2A281
100
AcDbXrecord
280
     1
102
RTVSPost2010Prop28
280
     0
102
RTVSPost2010PropOp28
 70
     1
102
RTVSPost2010Prop29
280
     1
102
RTVSPost2010PropOp29
 70
     1
102
RTVSPost2010Prop30
280
     1
102
RTVSPost2010PropOp30
 70
     1
102
RTVSPost2010Prop31
280
     0
102
RTVSPost2010PropOp31
 70
     1
102
RTVSPost2010Prop32
280
     0
102
RTVSPost2010PropOp32
 70
     1
102
RTVSPost2010Prop33
280
     0
102
RTVSPost2010PropOp33
 70
     1
102
RTVSPost2010Prop34
280
     0
102
RTVSPost2010PropOp34
 70
     1
102
RTVSPost2010Prop35
280
     0
102
RTVSPost2010PropOp35
 70
     1
102
RTVSPost2010Prop36
280
     0
102
RTVSPost2010PropOp36
 70
     1
102
RTVSPost2010Prop37
 90
       50
102
RTVSPost2010PropOp37
 70
     1
102
RTVSPost2010Prop38
140
0.0
102
RTVSPost2010PropOp38
 70
     1
102
RTVSPost2010Prop39
140
1.0
102
RTVSPost2010PropOp39
 70
     1
102
RTVSPost2010Prop40
 90
        0
102
RTVSPost2010PropOp40
 70
     1
102
RTVSPost2010Prop41ColorIndex
 90
       18
102
RTVSPost2010Prop41ColorRGB
 90
        0
102
RTVSPost2010PropOp41
 70
     1
102
RTVSPost2010Prop42
 90
       50
102
RTVSPost2010PropOp42
 70
     1
102
RTVSPost2010Prop43
 90
        3
102
RTVSPost2010PropOp43
 70
     1
102
RTVSPost2010Prop44ColorIndex
 90
        5
102
RTVSPost2010Prop44ColorRGB
 90
      255
102
RTVSPost2010PropOp44
 70
     1
102
RTVSPost2010Prop45
280
     0
102
RTVSPost2010PropOp45
 70
     1
102
RTVSPost2010Prop46
 90
       50
102
RTVSPost2010PropOp46
 70
     1
102
RTVSPost2010Prop47
 90
       50
102
RTVSPost2010PropOp47
 70
     1
102
RTVSPost2010Prop48
 90
       50
102
RTVSPost2010PropOp48
 70
     1
102
RTVSPost2010Prop49
280
     0
102
RTVSPost2010PropOp49
 70
     1
102
RTVSPost2010Prop50
 90
       50
102
RTVSPost2010PropOp50
 70
     1
102
RTVSPost2010Prop51ColorIndex
 90
      256
102
RTVSPost2010Prop51ColorRGB
 90
-16777216
102
RTVSPost2010PropOp51
 70
     0
102
RTVSPost2010Prop52
140
1.0
102
RTVSPost2010PropOp52
 70
     0
102
RTVSPost2010Prop53
 90
        2
102
RTVSPost2010PropOp53
 70
     1
102
RTVSPost2010Prop54
  1
strokes_ogs.tif
102
RTVSPost2010PropOp54
 70
     1
102
RTVSPost2010Prop55
280
     0
102
RTVSPost2010PropOp55
 70
     1
102
RTVSPost2010Prop56
140
1.0
102
RTVSPost2010PropOp56
 70
     1
102
RTVSPost2010Prop57
140
1.0
102
RTVSPost2010PropOp57
 70
     1
102
RTVSPropertyOp0
 70
     1
102
RTVSPropertyOp1
 70
     1
102
RTVSPropertyOp2
 70
     1
102
RTVSPropertyOp3
 70
     1
102
RTVSPropertyOp4
 70
     1
102
RTVSPropertyOp5
 70
     1
102
RTVSPropertyOp6
 70
     1
102
RTVSPropertyOp7
 70
     1
102
RTVSPropertyOp8
 70
     1
102
RTVSPropertyOp9
 70
     1
102
RTVSPropertyOp10
 70
     1
102
RTVSPropertyOp11
 70
     1
102
RTVSPropertyOp12
 70
     1
102
RTVSPropertyOp13
 70
     1
102
RTVSPropertyOp14
 70
     1
102
RTVSPropertyOp15
 70
     1
102
RTVSPropertyOp16
 70
     1
102
RTVSPropertyOp17
 70
     1
102
RTVSPropertyOp18
 70
     1
102
RTVSPropertyOp19
 70
     1
102
RTVSPropertyOp20
 70
     1
102
RTVSPropertyOp21
 70
     1
102
RTVSPropertyOp22
 70
     1
102
RTVSPropertyOp23
 70
     1
102
RTVSPropertyOp24
 70
     1
102
RTVSPropertyOp25
 70
     1
102
RTVSPropertyOp26
 70
     1
102
RTVSPropertyOp27
 70
     1
102
RTVSPropertyOp28
 70
     1
102
RTVSPropertyOp29
 70
     1
102
RTVSPropertyOp30
 70
     1
102
RTVSPropertyOp31
 70
     1
102
RTVSPropertyOp32
 70
     1
102
RTVSPropertyOp33
 70
     1
102
RTVSPropertyOp34
 70
     1
102
RTVSPropertyOp35
 70
     1
102
RTVSPropertyOp36
 70
     1
102
RTVSPropertyOp37
 70
     1
102
RTVSPropertyOp38
 70
     1
102
RTVSPropertyOp39
 70
     1
102
RTVSPropertyOp40
 70
     1
102
RTVSPropertyOp41
 70
     1
102
RTVSPropertyOp42
 70
     1
102
RTVSPropertyOp43
 70
     1
102
RTVSPropertyOp44
 70
     1
102
RTVSPropertyOp45
 70
     1
102
RTVSPropertyOp46
 70
     1
102
RTVSPropertyOp47
 70
     1
102
RTVSPropertyOp48
 70
     1
102
RTVSPropertyOp49
 70
     1
102
RTVSPropertyOp50
 70
     1
102
RTVSPropertyOp51
 70
     0
102
RTVSPropertyOp52
 70
     0
102
RTVSPropertyOp53
 70
     1
102
RTVSPropertyOp54
 70
     1
102
RTVSPropertyOp55
 70
     1
102
RTVSPropertyOp56
 70
     1
102
RTVSPropertyOp57
 70
     1
102
RTVSPropertyOp58
 70
     1
102
RTVSPropertyOp59
 70
     1
102
RTVSPropertyOp60
 70
     1
102
RTVSPropertyOp61
 70
     1
102
RTVSPropertyOp62
 70
     1
  0
XRECORD
  5
2A286
102
{ACAD_REACTORS
330
2A285
102
}
330
2A285
100
AcDbXrecord
280
     1
102
RTVSPost2010Prop28
280
     0
102
RTVSPost2010PropOp28
 70
     1
102
RTVSPost2010Prop29
280
     1
102
RTVSPost2010PropOp29
 70
     1
102
RTVSPost2010Prop30
280
     1
102
RTVSPost2010PropOp30
 70
     1
102
RTVSPost2010Prop31
280
     0
102
RTVSPost2010PropOp31
 70
     1
102
RTVSPost2010Prop32
280
     0
102
RTVSPost2010PropOp32
 70
     1
102
RTVSPost2010Prop33
280
     0
102
RTVSPost2010PropOp33
 70
     1
102
RTVSPost2010Prop34
280
     0
102
RTVSPost2010PropOp34
 70
     1
102
RTVSPost2010Prop35
280
     0
102
RTVSPost2010PropOp35
 70
     1
102
RTVSPost2010Prop36
280
     0
102
RTVSPost2010PropOp36
 70
     1
102
RTVSPost2010Prop37
 90
       50
102
RTVSPost2010PropOp37
 70
     1
102
RTVSPost2010Prop38
140
0.0
102
RTVSPost2010PropOp38
 70
     1
102
RTVSPost2010Prop39
140
1.0
102
RTVSPost2010PropOp39
 70
     1
102
RTVSPost2010Prop40
 90
        0
102
RTVSPost2010PropOp40
 70
     1
102
RTVSPost2010Prop41ColorIndex
 90
       18
102
RTVSPost2010Prop41ColorRGB
 90
        0
102
RTVSPost2010PropOp41
 70
     1
102
RTVSPost2010Prop42
 90
       50
102
RTVSPost2010PropOp42
 70
     1
102
RTVSPost2010Prop43
 90
        3
102
RTVSPost2010PropOp43
 70
     1
102
RTVSPost2010Prop44ColorIndex
 90
        5
102
RTVSPost2010Prop44ColorRGB
 90
      255
102
RTVSPost2010PropOp44
 70
     1
102
RTVSPost2010Prop45
280
     0
102
RTVSPost2010PropOp45
 70
     1
102
RTVSPost2010Prop46
 90
       50
102
RTVSPost2010PropOp46
 70
     1
102
RTVSPost2010Prop47
 90
       50
102
RTVSPost2010PropOp47
 70
     1
102
RTVSPost2010Prop48
 90
       50
102
RTVSPost2010PropOp48
 70
     1
102
RTVSPost2010Prop49
280
     0
102
RTVSPost2010PropOp49
 70
     1
102
RTVSPost2010Prop50
 90
       50
102
RTVSPost2010PropOp50
 70
     1
102
RTVSPost2010Prop51ColorIndex
 90
      256
102
RTVSPost2010Prop51ColorRGB
 90
-16777216
102
RTVSPost2010PropOp51
 70
     0
102
RTVSPost2010Prop52
140
1.0
102
RTVSPost2010PropOp52
 70
     0
102
RTVSPost2010Prop53
 90
        2
102
RTVSPost2010PropOp53
 70
     1
102
RTVSPost2010Prop54
  1
strokes_ogs.tif
102
RTVSPost2010PropOp54
 70
     1
102
RTVSPost2010Prop55
280
     0
102
RTVSPost2010PropOp55
 70
     1
102
RTVSPost2010Prop56
140
1.0
102
RTVSPost2010PropOp56
 70
     1
102
RTVSPost2010Prop57
140
1.0
102
RTVSPost2010PropOp57
 70
     1
102
RTVSPropertyOp0
 70
     1
102
RTVSPropertyOp1
 70
     1
102
RTVSPropertyOp2
 70
     1
102
RTVSPropertyOp3
 70
     1
102
RTVSPropertyOp4
 70
     1
102
RTVSPropertyOp5
 70
     1
102
RTVSPropertyOp6
 70
     1
102
RTVSPropertyOp7
 70
     1
102
RTVSPropertyOp8
 70
     1
102
RTVSPropertyOp9
 70
     1
102
RTVSPropertyOp10
 70
     1
102
RTVSPropertyOp11
 70
     1
102
RTVSPropertyOp12
 70
     1
102
RTVSPropertyOp13
 70
     1
102
RTVSPropertyOp14
 70
     1
102
RTVSPropertyOp15
 70
     1
102
RTVSPropertyOp16
 70
     1
102
RTVSPropertyOp17
 70
     1
102
RTVSPropertyOp18
 70
     1
102
RTVSPropertyOp19
 70
     1
102
RTVSPropertyOp20
 70
     1
102
RTVSPropertyOp21
 70
     1
102
RTVSPropertyOp22
 70
     1
102
RTVSPropertyOp23
 70
     1
102
RTVSPropertyOp24
 70
     1
102
RTVSPropertyOp25
 70
     1
102
RTVSPropertyOp26
 70
     1
102
RTVSPropertyOp27
 70
     1
102
RTVSPropertyOp28
 70
     1
102
RTVSPropertyOp29
 70
     1
102
RTVSPropertyOp30
 70
     1
102
RTVSPropertyOp31
 70
     1
102
RTVSPropertyOp32
 70
     1
102
RTVSPropertyOp33
 70
     1
102
RTVSPropertyOp34
 70
     1
102
RTVSPropertyOp35
 70
     1
102
RTVSPropertyOp36
 70
     1
102
RTVSPropertyOp37
 70
     1
102
RTVSPropertyOp38
 70
     1
102
RTVSPropertyOp39
 70
     1
102
RTVSPropertyOp40
 70
     1
102
RTVSPropertyOp41
 70
     1
102
RTVSPropertyOp42
 70
     1
102
RTVSPropertyOp43
 70
     1
102
RTVSPropertyOp44
 70
     1
102
RTVSPropertyOp45
 70
     1
102
RTVSPropertyOp46
 70
     1
102
RTVSPropertyOp47
 70
     1
102
RTVSPropertyOp48
 70
     1
102
RTVSPropertyOp49
 70
     1
102
RTVSPropertyOp50
 70
     1
102
RTVSPropertyOp51
 70
     0
102
RTVSPropertyOp52
 70
     0
102
RTVSPropertyOp53
 70
     1
102
RTVSPropertyOp54
 70
     1
102
RTVSPropertyOp55
 70
     1
102
RTVSPropertyOp56
 70
     1
102
RTVSPropertyOp57
 70
     1
102
RTVSPropertyOp58
 70
     1
102
RTVSPropertyOp59
 70
     1
102
RTVSPropertyOp60
 70
     1
102
RTVSPropertyOp61
 70
     1
102
RTVSPropertyOp62
 70
     1
  0
XRECORD
  5
2A298
102
{ACAD_REACTORS
330
2A297
102
}
330
2A297
100
AcDbXrecord
280
     1
102
RTVSPost2010Prop28
280
     0
102
RTVSPost2010PropOp28
 70
     1
102
RTVSPost2010Prop29
280
     1
102
RTVSPost2010PropOp29
 70
     1
102
RTVSPost2010Prop30
280
     1
102
RTVSPost2010PropOp30
 70
     1
102
RTVSPost2010Prop31
280
     0
102
RTVSPost2010PropOp31
 70
     1
102
RTVSPost2010Prop32
280
     0
102
RTVSPost2010PropOp32
 70
     1
102
RTVSPost2010Prop33
280
     0
102
RTVSPost2010PropOp33
 70
     1
102
RTVSPost2010Prop34
280
     0
102
RTVSPost2010PropOp34
 70
     1
102
RTVSPost2010Prop35
280
     0
102
RTVSPost2010PropOp35
 70
     1
102
RTVSPost2010Prop36
280
     0
102
RTVSPost2010PropOp36
 70
     1
102
RTVSPost2010Prop37
 90
       50
102
RTVSPost2010PropOp37
 70
     1
102
RTVSPost2010Prop38
140
0.0
102
RTVSPost2010PropOp38
 70
     1
102
RTVSPost2010Prop39
140
1.0
102
RTVSPost2010PropOp39
 70
     1
102
RTVSPost2010Prop40
 90
        0
102
RTVSPost2010PropOp40
 70
     1
102
RTVSPost2010Prop41ColorIndex
 90
       18
102
RTVSPost2010Prop41ColorRGB
 90
        0
102
RTVSPost2010PropOp41
 70
     1
102
RTVSPost2010Prop42
 90
       50
102
RTVSPost2010PropOp42
 70
     1
102
RTVSPost2010Prop43
 90
        3
102
RTVSPost2010PropOp43
 70
     1
102
RTVSPost2010Prop44ColorIndex
 90
        5
102
RTVSPost2010Prop44ColorRGB
 90
      255
102
RTVSPost2010PropOp44
 70
     1
102
RTVSPost2010Prop45
280
     0
102
RTVSPost2010PropOp45
 70
     1
102
RTVSPost2010Prop46
 90
       50
102
RTVSPost2010PropOp46
 70
     1
102
RTVSPost2010Prop47
 90
       50
102
RTVSPost2010PropOp47
 70
     1
102
RTVSPost2010Prop48
 90
       50
102
RTVSPost2010PropOp48
 70
     1
102
RTVSPost2010Prop49
280
     0
102
RTVSPost2010PropOp49
 70
     1
102
RTVSPost2010Prop50
 90
       50
102
RTVSPost2010PropOp50
 70
     1
102
RTVSPost2010Prop51ColorIndex
 90
      256
102
RTVSPost2010Prop51ColorRGB
 90
-16777216
102
RTVSPost2010PropOp51
 70
     0
102
RTVSPost2010Prop52
140
1.0
102
RTVSPost2010PropOp52
 70
     0
102
RTVSPost2010Prop53
 90
        2
102
RTVSPost2010PropOp53
 70
     1
102
RTVSPost2010Prop54
  1
strokes_ogs.tif
102
RTVSPost2010PropOp54
 70
     1
102
RTVSPost2010Prop55
280
     0
102
RTVSPost2010PropOp55
 70
     1
102
RTVSPost2010Prop56
140
1.0
102
RTVSPost2010PropOp56
 70
     1
102
RTVSPost2010Prop57
140
1.0
102
RTVSPost2010PropOp57
 70
     1
102
RTVSPropertyOp0
 70
     0
102
RTVSPropertyOp1
 70
     0
102
RTVSPropertyOp2
 70
     0
102
RTVSPropertyOp3
 70
     0
102
RTVSPropertyOp4
 70
     0
102
RTVSPropertyOp5
 70
     0
102
RTVSPropertyOp6
 70
     0
102
RTVSPropertyOp7
 70
     0
102
RTVSPropertyOp8
 70
     0
102
RTVSPropertyOp9
 70
     0
102
RTVSPropertyOp10
 70
     0
102
RTVSPropertyOp11
 70
     0
102
RTVSPropertyOp12
 70
     0
102
RTVSPropertyOp13
 70
     0
102
RTVSPropertyOp14
 70
     2
102
RTVSPropertyOp15
 70
     0
102
RTVSPropertyOp16
 70
     0
102
RTVSPropertyOp17
 70
     0
102
RTVSPropertyOp18
 70
     0
102
RTVSPropertyOp19
 70
     0
102
RTVSPropertyOp20
 70
     0
102
RTVSPropertyOp21
 70
     0
102
RTVSPropertyOp22
 70
     0
102
RTVSPropertyOp23
 70
     0
102
RTVSPropertyOp24
 70
     0
102
RTVSPropertyOp25
 70
     0
102
RTVSPropertyOp26
 70
     0
102
RTVSPropertyOp27
 70
     0
102
RTVSPropertyOp28
 70
     1
102
RTVSPropertyOp29
 70
     1
102
RTVSPropertyOp30
 70
     1
102
RTVSPropertyOp31
 70
     1
102
RTVSPropertyOp32
 70
     1
102
RTVSPropertyOp33
 70
     1
102
RTVSPropertyOp34
 70
     1
102
RTVSPropertyOp35
 70
     1
102
RTVSPropertyOp36
 70
     1
102
RTVSPropertyOp37
 70
     1
102
RTVSPropertyOp38
 70
     1
102
RTVSPropertyOp39
 70
     1
102
RTVSPropertyOp40
 70
     1
102
RTVSPropertyOp41
 70
     1
102
RTVSPropertyOp42
 70
     1
102
RTVSPropertyOp43
 70
     1
102
RTVSPropertyOp44
 70
     1
102
RTVSPropertyOp45
 70
     1
102
RTVSPropertyOp46
 70
     1
102
RTVSPropertyOp47
 70
     1
102
RTVSPropertyOp48
 70
     1
102
RTVSPropertyOp49
 70
     1
102
RTVSPropertyOp50
 70
     1
102
RTVSPropertyOp51
 70
     0
102
RTVSPropertyOp52
 70
     0
102
RTVSPropertyOp53
 70
     1
102
RTVSPropertyOp54
 70
     1
102
RTVSPropertyOp55
 70
     1
102
RTVSPropertyOp56
 70
     1
102
RTVSPropertyOp57
 70
     1
102
RTVSPropertyOp58
 70
     1
102
RTVSPropertyOp59
 70
     1
102
RTVSPropertyOp60
 70
     1
102
RTVSPropertyOp61
 70
     1
102
RTVSPropertyOp62
 70
     1
  0
XRECORD
  5
2A28E
102
{ACAD_REACTORS
330
2A28D
102
}
330
2A28D
100
AcDbXrecord
280
     1
102
RTVSPost2010Prop28
280
     0
102
RTVSPost2010PropOp28
 70
     1
102
RTVSPost2010Prop29
280
     1
102
RTVSPost2010PropOp29
 70
     1
102
RTVSPost2010Prop30
280
     1
102
RTVSPost2010PropOp30
 70
     1
102
RTVSPost2010Prop31
280
     0
102
RTVSPost2010PropOp31
 70
     1
102
RTVSPost2010Prop32
280
     0
102
RTVSPost2010PropOp32
 70
     1
102
RTVSPost2010Prop33
280
     0
102
RTVSPost2010PropOp33
 70
     1
102
RTVSPost2010Prop34
280
     0
102
RTVSPost2010PropOp34
 70
     1
102
RTVSPost2010Prop35
280
     0
102
RTVSPost2010PropOp35
 70
     1
102
RTVSPost2010Prop36
280
     0
102
RTVSPost2010PropOp36
 70
     1
102
RTVSPost2010Prop37
 90
       50
102
RTVSPost2010PropOp37
 70
     1
102
RTVSPost2010Prop38
140
0.0
102
RTVSPost2010PropOp38
 70
     1
102
RTVSPost2010Prop39
140
1.0
102
RTVSPost2010PropOp39
 70
     1
102
RTVSPost2010Prop40
 90
        0
102
RTVSPost2010PropOp40
 70
     1
102
RTVSPost2010Prop41ColorIndex
 90
       18
102
RTVSPost2010Prop41ColorRGB
 90
        0
102
RTVSPost2010PropOp41
 70
     1
102
RTVSPost2010Prop42
 90
       50
102
RTVSPost2010PropOp42
 70
     1
102
RTVSPost2010Prop43
 90
        3
102
RTVSPost2010PropOp43
 70
     1
102
RTVSPost2010Prop44ColorIndex
 90
        5
102
RTVSPost2010Prop44ColorRGB
 90
      255
102
RTVSPost2010PropOp44
 70
     1
102
RTVSPost2010Prop45
280
     0
102
RTVSPost2010PropOp45
 70
     1
102
RTVSPost2010Prop46
 90
       50
102
RTVSPost2010PropOp46
 70
     1
102
RTVSPost2010Prop47
 90
       50
102
RTVSPost2010PropOp47
 70
     1
102
RTVSPost2010Prop48
 90
       50
102
RTVSPost2010PropOp48
 70
     1
102
RTVSPost2010Prop49
280
     0
102
RTVSPost2010PropOp49
 70
     1
102
RTVSPost2010Prop50
 90
       50
102
RTVSPost2010PropOp50
 70
     1
102
RTVSPost2010Prop51ColorIndex
 90
      256
102
RTVSPost2010Prop51ColorRGB
 90
-16777216
102
RTVSPost2010PropOp51
 70
     0
102
RTVSPost2010Prop52
140
1.0
102
RTVSPost2010PropOp52
 70
     0
102
RTVSPost2010Prop53
 90
        2
102
RTVSPost2010PropOp53
 70
     1
102
RTVSPost2010Prop54
  1
strokes_ogs.tif
102
RTVSPost2010PropOp54
 70
     1
102
RTVSPost2010Prop55
280
     0
102
RTVSPost2010PropOp55
 70
     1
102
RTVSPost2010Prop56
140
1.0
102
RTVSPost2010PropOp56
 70
     1
102
RTVSPost2010Prop57
140
1.0
102
RTVSPost2010PropOp57
 70
     1
102
RTVSPropertyOp0
 70
     1
102
RTVSPropertyOp1
 70
     1
102
RTVSPropertyOp2
 70
     1
102
RTVSPropertyOp3
 70
     1
102
RTVSPropertyOp4
 70
     1
102
RTVSPropertyOp5
 70
     1
102
RTVSPropertyOp6
 70
     1
102
RTVSPropertyOp7
 70
     1
102
RTVSPropertyOp8
 70
     1
102
RTVSPropertyOp9
 70
     1
102
RTVSPropertyOp10
 70
     1
102
RTVSPropertyOp11
 70
     1
102
RTVSPropertyOp12
 70
     1
102
RTVSPropertyOp13
 70
     1
102
RTVSPropertyOp14
 70
     1
102
RTVSPropertyOp15
 70
     1
102
RTVSPropertyOp16
 70
     1
102
RTVSPropertyOp17
 70
     1
102
RTVSPropertyOp18
 70
     1
102
RTVSPropertyOp19
 70
     1
102
RTVSPropertyOp20
 70
     1
102
RTVSPropertyOp21
 70
     1
102
RTVSPropertyOp22
 70
     1
102
RTVSPropertyOp23
 70
     1
102
RTVSPropertyOp24
 70
     1
102
RTVSPropertyOp25
 70
     1
102
RTVSPropertyOp26
 70
     1
102
RTVSPropertyOp27
 70
     1
102
RTVSPropertyOp28
 70
     1
102
RTVSPropertyOp29
 70
     1
102
RTVSPropertyOp30
 70
     1
102
RTVSPropertyOp31
 70
     1
102
RTVSPropertyOp32
 70
     1
102
RTVSPropertyOp33
 70
     1
102
RTVSPropertyOp34
 70
     1
102
RTVSPropertyOp35
 70
     1
102
RTVSPropertyOp36
 70
     1
102
RTVSPropertyOp37
 70
     1
102
RTVSPropertyOp38
 70
     1
102
RTVSPropertyOp39
 70
     1
102
RTVSPropertyOp40
 70
     1
102
RTVSPropertyOp41
 70
     1
102
RTVSPropertyOp42
 70
     1
102
RTVSPropertyOp43
 70
     1
102
RTVSPropertyOp44
 70
     1
102
RTVSPropertyOp45
 70
     1
102
RTVSPropertyOp46
 70
     1
102
RTVSPropertyOp47
 70
     1
102
RTVSPropertyOp48
 70
     1
102
RTVSPropertyOp49
 70
     1
102
RTVSPropertyOp50
 70
     1
102
RTVSPropertyOp51
 70
     0
102
RTVSPropertyOp52
 70
     0
102
RTVSPropertyOp53
 70
     1
102
RTVSPropertyOp54
 70
     1
102
RTVSPropertyOp55
 70
     1
102
RTVSPropertyOp56
 70
     1
102
RTVSPropertyOp57
 70
     1
102
RTVSPropertyOp58
 70
     1
102
RTVSPropertyOp59
 70
     1
102
RTVSPropertyOp60
 70
     1
102
RTVSPropertyOp61
 70
     1
102
RTVSPropertyOp62
 70
     1
  0
XRECORD
  5
2A272
102
{ACAD_REACTORS
330
2A271
102
}
330
2A271
100
AcDbXrecord
280
     1
102
RTVSPost2010Prop28
280
     0
102
RTVSPost2010PropOp28
 70
     1
102
RTVSPost2010Prop29
280
     1
102
RTVSPost2010PropOp29
 70
     1
102
RTVSPost2010Prop30
280
     1
102
RTVSPost2010PropOp30
 70
     1
102
RTVSPost2010Prop31
280
     0
102
RTVSPost2010PropOp31
 70
     1
102
RTVSPost2010Prop32
280
     0
102
RTVSPost2010PropOp32
 70
     1
102
RTVSPost2010Prop33
280
     0
102
RTVSPost2010PropOp33
 70
     1
102
RTVSPost2010Prop34
280
     0
102
RTVSPost2010PropOp34
 70
     1
102
RTVSPost2010Prop35
280
     0
102
RTVSPost2010PropOp35
 70
     1
102
RTVSPost2010Prop36
280
     0
102
RTVSPost2010PropOp36
 70
     1
102
RTVSPost2010Prop37
 90
       50
102
RTVSPost2010PropOp37
 70
     1
102
RTVSPost2010Prop38
140
0.0
102
RTVSPost2010PropOp38
 70
     1
102
RTVSPost2010Prop39
140
1.0
102
RTVSPost2010PropOp39
 70
     1
102
RTVSPost2010Prop40
 90
        0
102
RTVSPost2010PropOp40
 70
     1
102
RTVSPost2010Prop41ColorIndex
 90
       18
102
RTVSPost2010Prop41ColorRGB
 90
        0
102
RTVSPost2010PropOp41
 70
     1
102
RTVSPost2010Prop42
 90
       50
102
RTVSPost2010PropOp42
 70
     1
102
RTVSPost2010Prop43
 90
        3
102
RTVSPost2010PropOp43
 70
     1
102
RTVSPost2010Prop44ColorIndex
 90
        5
102
RTVSPost2010Prop44ColorRGB
 90
      255
102
RTVSPost2010PropOp44
 70
     1
102
RTVSPost2010Prop45
280
     0
102
RTVSPost2010PropOp45
 70
     1
102
RTVSPost2010Prop46
 90
       50
102
RTVSPost2010PropOp46
 70
     1
102
RTVSPost2010Prop47
 90
       50
102
RTVSPost2010PropOp47
 70
     1
102
RTVSPost2010Prop48
 90
       50
102
RTVSPost2010PropOp48
 70
     1
102
RTVSPost2010Prop49
280
     0
102
RTVSPost2010PropOp49
 70
     1
102
RTVSPost2010Prop50
 90
       50
102
RTVSPost2010PropOp50
 70
     1
102
RTVSPost2010Prop51ColorIndex
 90
      256
102
RTVSPost2010Prop51ColorRGB
 90
-16777216
102
RTVSPost2010PropOp51
 70
     0
102
RTVSPost2010Prop52
140
1.0
102
RTVSPost2010PropOp52
 70
     0
102
RTVSPost2010Prop53
 90
        2
102
RTVSPost2010PropOp53
 70
     1
102
RTVSPost2010Prop54
  1
strokes_ogs.tif
102
RTVSPost2010PropOp54
 70
     1
102
RTVSPost2010Prop55
280
     0
102
RTVSPost2010PropOp55
 70
     1
102
RTVSPost2010Prop56
140
1.0
102
RTVSPost2010PropOp56
 70
     1
102
RTVSPost2010Prop57
140
1.0
102
RTVSPost2010PropOp57
 70
     1
102
RTVSPropertyOp0
 70
     1
102
RTVSPropertyOp1
 70
     1
102
RTVSPropertyOp2
 70
     1
102
RTVSPropertyOp3
 70
     1
102
RTVSPropertyOp4
 70
     1
102
RTVSPropertyOp5
 70
     1
102
RTVSPropertyOp6
 70
     1
102
RTVSPropertyOp7
 70
     1
102
RTVSPropertyOp8
 70
     1
102
RTVSPropertyOp9
 70
     1
102
RTVSPropertyOp10
 70
     1
102
RTVSPropertyOp11
 70
     1
102
RTVSPropertyOp12
 70
     1
102
RTVSPropertyOp13
 70
     1
102
RTVSPropertyOp14
 70
     1
102
RTVSPropertyOp15
 70
     1
102
RTVSPropertyOp16
 70
     1
102
RTVSPropertyOp17
 70
     1
102
RTVSPropertyOp18
 70
     1
102
RTVSPropertyOp19
 70
     1
102
RTVSPropertyOp20
 70
     1
102
RTVSPropertyOp21
 70
     1
102
RTVSPropertyOp22
 70
     1
102
RTVSPropertyOp23
 70
     1
102
RTVSPropertyOp24
 70
     1
102
RTVSPropertyOp25
 70
     1
102
RTVSPropertyOp26
 70
     1
102
RTVSPropertyOp27
 70
     1
102
RTVSPropertyOp28
 70
     1
102
RTVSPropertyOp29
 70
     1
102
RTVSPropertyOp30
 70
     1
102
RTVSPropertyOp31
 70
     1
102
RTVSPropertyOp32
 70
     1
102
RTVSPropertyOp33
 70
     1
102
RTVSPropertyOp34
 70
     1
102
RTVSPropertyOp35
 70
     1
102
RTVSPropertyOp36
 70
     1
102
RTVSPropertyOp37
 70
     1
102
RTVSPropertyOp38
 70
     1
102
RTVSPropertyOp39
 70
     1
102
RTVSPropertyOp40
 70
     1
102
RTVSPropertyOp41
 70
     1
102
RTVSPropertyOp42
 70
     1
102
RTVSPropertyOp43
 70
     1
102
RTVSPropertyOp44
 70
     1
102
RTVSPropertyOp45
 70
     1
102
RTVSPropertyOp46
 70
     1
102
RTVSPropertyOp47
 70
     1
102
RTVSPropertyOp48
 70
     1
102
RTVSPropertyOp49
 70
     1
102
RTVSPropertyOp50
 70
     1
102
RTVSPropertyOp51
 70
     0
102
RTVSPropertyOp52
 70
     0
102
RTVSPropertyOp53
 70
     1
102
RTVSPropertyOp54
 70
     1
102
RTVSPropertyOp55
 70
     1
102
RTVSPropertyOp56
 70
     1
102
RTVSPropertyOp57
 70
     1
102
RTVSPropertyOp58
 70
     1
102
RTVSPropertyOp59
 70
     1
102
RTVSPropertyOp60
 70
     1
102
RTVSPropertyOp61
 70
     1
102
RTVSPropertyOp62
 70
     1
  0
XRECORD
  5
2A274
102
{ACAD_REACTORS
330
2A273
102
}
330
2A273
100
AcDbXrecord
280
     1
102
RTVSPost2010Prop28
280
     0
102
RTVSPost2010PropOp28
 70
     1
102
RTVSPost2010Prop29
280
     1
102
RTVSPost2010PropOp29
 70
     1
102
RTVSPost2010Prop30
280
     1
102
RTVSPost2010PropOp30
 70
     1
102
RTVSPost2010Prop31
280
     0
102
RTVSPost2010PropOp31
 70
     1
102
RTVSPost2010Prop32
280
     0
102
RTVSPost2010PropOp32
 70
     1
102
RTVSPost2010Prop33
280
     0
102
RTVSPost2010PropOp33
 70
     1
102
RTVSPost2010Prop34
280
     0
102
RTVSPost2010PropOp34
 70
     1
102
RTVSPost2010Prop35
280
     0
102
RTVSPost2010PropOp35
 70
     1
102
RTVSPost2010Prop36
280
     0
102
RTVSPost2010PropOp36
 70
     1
102
RTVSPost2010Prop37
 90
       50
102
RTVSPost2010PropOp37
 70
     1
102
RTVSPost2010Prop38
140
0.0
102
RTVSPost2010PropOp38
 70
     1
102
RTVSPost2010Prop39
140
1.0
102
RTVSPost2010PropOp39
 70
     1
102
RTVSPost2010Prop40
 90
        0
102
RTVSPost2010PropOp40
 70
     1
102
RTVSPost2010Prop41ColorIndex
 90
       18
102
RTVSPost2010Prop41ColorRGB
 90
        0
102
RTVSPost2010PropOp41
 70
     1
102
RTVSPost2010Prop42
 90
       50
102
RTVSPost2010PropOp42
 70
     1
102
RTVSPost2010Prop43
 90
        3
102
RTVSPost2010PropOp43
 70
     1
102
RTVSPost2010Prop44ColorIndex
 90
        5
102
RTVSPost2010Prop44ColorRGB
 90
      255
102
RTVSPost2010PropOp44
 70
     1
102
RTVSPost2010Prop45
280
     0
102
RTVSPost2010PropOp45
 70
     1
102
RTVSPost2010Prop46
 90
       50
102
RTVSPost2010PropOp46
 70
     1
102
RTVSPost2010Prop47
 90
       50
102
RTVSPost2010PropOp47
 70
     1
102
RTVSPost2010Prop48
 90
       50
102
RTVSPost2010PropOp48
 70
     1
102
RTVSPost2010Prop49
280
     0
102
RTVSPost2010PropOp49
 70
     1
102
RTVSPost2010Prop50
 90
       50
102
RTVSPost2010PropOp50
 70
     1
102
RTVSPost2010Prop51ColorIndex
 90
      256
102
RTVSPost2010Prop51ColorRGB
 90
-16777216
102
RTVSPost2010PropOp51
 70
     0
102
RTVSPost2010Prop52
140
1.0
102
RTVSPost2010PropOp52
 70
     0
102
RTVSPost2010Prop53
 90
        2
102
RTVSPost2010PropOp53
 70
     1
102
RTVSPost2010Prop54
  1
strokes_ogs.tif
102
RTVSPost2010PropOp54
 70
     1
102
RTVSPost2010Prop55
280
     0
102
RTVSPost2010PropOp55
 70
     1
102
RTVSPost2010Prop56
140
1.0
102
RTVSPost2010PropOp56
 70
     1
102
RTVSPost2010Prop57
140
1.0
102
RTVSPost2010PropOp57
 70
     1
102
RTVSPropertyOp0
 70
     1
102
RTVSPropertyOp1
 70
     1
102
RTVSPropertyOp2
 70
     1
102
RTVSPropertyOp3
 70
     1
102
RTVSPropertyOp4
 70
     1
102
RTVSPropertyOp5
 70
     1
102
RTVSPropertyOp6
 70
     1
102
RTVSPropertyOp7
 70
     1
102
RTVSPropertyOp8
 70
     1
102
RTVSPropertyOp9
 70
     1
102
RTVSPropertyOp10
 70
     1
102
RTVSPropertyOp11
 70
     1
102
RTVSPropertyOp12
 70
     1
102
RTVSPropertyOp13
 70
     1
102
RTVSPropertyOp14
 70
     1
102
RTVSPropertyOp15
 70
     1
102
RTVSPropertyOp16
 70
     1
102
RTVSPropertyOp17
 70
     1
102
RTVSPropertyOp18
 70
     1
102
RTVSPropertyOp19
 70
     1
102
RTVSPropertyOp20
 70
     1
102
RTVSPropertyOp21
 70
     1
102
RTVSPropertyOp22
 70
     1
102
RTVSPropertyOp23
 70
     1
102
RTVSPropertyOp24
 70
     1
102
RTVSPropertyOp25
 70
     1
102
RTVSPropertyOp26
 70
     1
102
RTVSPropertyOp27
 70
     1
102
RTVSPropertyOp28
 70
     1
102
RTVSPropertyOp29
 70
     1
102
RTVSPropertyOp30
 70
     1
102
RTVSPropertyOp31
 70
     1
102
RTVSPropertyOp32
 70
     1
102
RTVSPropertyOp33
 70
     1
102
RTVSPropertyOp34
 70
     1
102
RTVSPropertyOp35
 70
     1
102
RTVSPropertyOp36
 70
     1
102
RTVSPropertyOp37
 70
     1
102
RTVSPropertyOp38
 70
     1
102
RTVSPropertyOp39
 70
     1
102
RTVSPropertyOp40
 70
     1
102
RTVSPropertyOp41
 70
     1
102
RTVSPropertyOp42
 70
     1
102
RTVSPropertyOp43
 70
     1
102
RTVSPropertyOp44
 70
     1
102
RTVSPropertyOp45
 70
     1
102
RTVSPropertyOp46
 70
     1
102
RTVSPropertyOp47
 70
     1
102
RTVSPropertyOp48
 70
     1
102
RTVSPropertyOp49
 70
     1
102
RTVSPropertyOp50
 70
     1
102
RTVSPropertyOp51
 70
     0
102
RTVSPropertyOp52
 70
     0
102
RTVSPropertyOp53
 70
     1
102
RTVSPropertyOp54
 70
     1
102
RTVSPropertyOp55
 70
     1
102
RTVSPropertyOp56
 70
     1
102
RTVSPropertyOp57
 70
     1
102
RTVSPropertyOp58
 70
     1
102
RTVSPropertyOp59
 70
     1
102
RTVSPropertyOp60
 70
     1
102
RTVSPropertyOp61
 70
     1
102
RTVSPropertyOp62
 70
     1
  0
XRECORD
  5
2A276
102
{ACAD_REACTORS
330
2A275
102
}
330
2A275
100
AcDbXrecord
280
     1
102
RTVSPost2010Prop28
280
     0
102
RTVSPost2010PropOp28
 70
     1
102
RTVSPost2010Prop29
280
     1
102
RTVSPost2010PropOp29
 70
     1
102
RTVSPost2010Prop30
280
     1
102
RTVSPost2010PropOp30
 70
     1
102
RTVSPost2010Prop31
280
     0
102
RTVSPost2010PropOp31
 70
     1
102
RTVSPost2010Prop32
280
     0
102
RTVSPost2010PropOp32
 70
     1
102
RTVSPost2010Prop33
280
     0
102
RTVSPost2010PropOp33
 70
     1
102
RTVSPost2010Prop34
280
     0
102
RTVSPost2010PropOp34
 70
     1
102
RTVSPost2010Prop35
280
     0
102
RTVSPost2010PropOp35
 70
     1
102
RTVSPost2010Prop36
280
     0
102
RTVSPost2010PropOp36
 70
     1
102
RTVSPost2010Prop37
 90
       50
102
RTVSPost2010PropOp37
 70
     1
102
RTVSPost2010Prop38
140
0.0
102
RTVSPost2010PropOp38
 70
     1
102
RTVSPost2010Prop39
140
1.0
102
RTVSPost2010PropOp39
 70
     1
102
RTVSPost2010Prop40
 90
        0
102
RTVSPost2010PropOp40
 70
     1
102
RTVSPost2010Prop41ColorIndex
 90
       18
102
RTVSPost2010Prop41ColorRGB
 90
        0
102
RTVSPost2010PropOp41
 70
     1
102
RTVSPost2010Prop42
 90
       50
102
RTVSPost2010PropOp42
 70
     1
102
RTVSPost2010Prop43
 90
        3
102
RTVSPost2010PropOp43
 70
     1
102
RTVSPost2010Prop44ColorIndex
 90
        5
102
RTVSPost2010Prop44ColorRGB
 90
      255
102
RTVSPost2010PropOp44
 70
     1
102
RTVSPost2010Prop45
280
     0
102
RTVSPost2010PropOp45
 70
     1
102
RTVSPost2010Prop46
 90
       50
102
RTVSPost2010PropOp46
 70
     1
102
RTVSPost2010Prop47
 90
       50
102
RTVSPost2010PropOp47
 70
     1
102
RTVSPost2010Prop48
 90
       50
102
RTVSPost2010PropOp48
 70
     1
102
RTVSPost2010Prop49
280
     0
102
RTVSPost2010PropOp49
 70
     1
102
RTVSPost2010Prop50
 90
       50
102
RTVSPost2010PropOp50
 70
     1
102
RTVSPost2010Prop51ColorIndex
 90
      256
102
RTVSPost2010Prop51ColorRGB
 90
-16777216
102
RTVSPost2010PropOp51
 70
     0
102
RTVSPost2010Prop52
140
1.0
102
RTVSPost2010PropOp52
 70
     0
102
RTVSPost2010Prop53
 90
        2
102
RTVSPost2010PropOp53
 70
     1
102
RTVSPost2010Prop54
  1
strokes_ogs.tif
102
RTVSPost2010PropOp54
 70
     1
102
RTVSPost2010Prop55
280
     0
102
RTVSPost2010PropOp55
 70
     1
102
RTVSPost2010Prop56
140
1.0
102
RTVSPost2010PropOp56
 70
     1
102
RTVSPost2010Prop57
140
1.0
102
RTVSPost2010PropOp57
 70
     1
102
RTVSPropertyOp0
 70
     1
102
RTVSPropertyOp1
 70
     1
102
RTVSPropertyOp2
 70
     1
102
RTVSPropertyOp3
 70
     1
102
RTVSPropertyOp4
 70
     1
102
RTVSPropertyOp5
 70
     1
102
RTVSPropertyOp6
 70
     1
102
RTVSPropertyOp7
 70
     1
102
RTVSPropertyOp8
 70
     1
102
RTVSPropertyOp9
 70
     1
102
RTVSPropertyOp10
 70
     1
102
RTVSPropertyOp11
 70
     1
102
RTVSPropertyOp12
 70
     1
102
RTVSPropertyOp13
 70
     1
102
RTVSPropertyOp14
 70
     1
102
RTVSPropertyOp15
 70
     1
102
RTVSPropertyOp16
 70
     1
102
RTVSPropertyOp17
 70
     1
102
RTVSPropertyOp18
 70
     1
102
RTVSPropertyOp19
 70
     1
102
RTVSPropertyOp20
 70
     1
102
RTVSPropertyOp21
 70
     1
102
RTVSPropertyOp22
 70
     1
102
RTVSPropertyOp23
 70
     1
102
RTVSPropertyOp24
 70
     1
102
RTVSPropertyOp25
 70
     1
102
RTVSPropertyOp26
 70
     1
102
RTVSPropertyOp27
 70
     1
102
RTVSPropertyOp28
 70
     1
102
RTVSPropertyOp29
 70
     1
102
RTVSPropertyOp30
 70
     1
102
RTVSPropertyOp31
 70
     1
102
RTVSPropertyOp32
 70
     1
102
RTVSPropertyOp33
 70
     1
102
RTVSPropertyOp34
 70
     1
102
RTVSPropertyOp35
 70
     1
102
RTVSPropertyOp36
 70
     1
102
RTVSPropertyOp37
 70
     1
102
RTVSPropertyOp38
 70
     1
102
RTVSPropertyOp39
 70
     1
102
RTVSPropertyOp40
 70
     1
102
RTVSPropertyOp41
 70
     1
102
RTVSPropertyOp42
 70
     1
102
RTVSPropertyOp43
 70
     1
102
RTVSPropertyOp44
 70
     1
102
RTVSPropertyOp45
 70
     1
102
RTVSPropertyOp46
 70
     1
102
RTVSPropertyOp47
 70
     1
102
RTVSPropertyOp48
 70
     1
102
RTVSPropertyOp49
 70
     1
102
RTVSPropertyOp50
 70
     1
102
RTVSPropertyOp51
 70
     0
102
RTVSPropertyOp52
 70
     0
102
RTVSPropertyOp53
 70
     1
102
RTVSPropertyOp54
 70
     1
102
RTVSPropertyOp55
 70
     1
102
RTVSPropertyOp56
 70
     1
102
RTVSPropertyOp57
 70
     1
102
RTVSPropertyOp58
 70
     1
102
RTVSPropertyOp59
 70
     1
102
RTVSPropertyOp60
 70
     1
102
RTVSPropertyOp61
 70
     1
102
RTVSPropertyOp62
 70
     1
  0
XRECORD
  5
2A278
102
{ACAD_REACTORS
330
2A277
102
}
330
2A277
100
AcDbXrecord
280
     1
102
RTVSPost2010Prop28
280
     0
102
RTVSPost2010PropOp28
 70
     1
102
RTVSPost2010Prop29
280
     1
102
RTVSPost2010PropOp29
 70
     1
102
RTVSPost2010Prop30
280
     1
102
RTVSPost2010PropOp30
 70
     1
102
RTVSPost2010Prop31
280
     0
102
RTVSPost2010PropOp31
 70
     1
102
RTVSPost2010Prop32
280
     0
102
RTVSPost2010PropOp32
 70
     1
102
RTVSPost2010Prop33
280
     0
102
RTVSPost2010PropOp33
 70
     1
102
RTVSPost2010Prop34
280
     0
102
RTVSPost2010PropOp34
 70
     1
102
RTVSPost2010Prop35
280
     0
102
RTVSPost2010PropOp35
 70
     1
102
RTVSPost2010Prop36
280
     0
102
RTVSPost2010PropOp36
 70
     1
102
RTVSPost2010Prop37
 90
       50
102
RTVSPost2010PropOp37
 70
     1
102
RTVSPost2010Prop38
140
0.0
102
RTVSPost2010PropOp38
 70
     1
102
RTVSPost2010Prop39
140
1.0
102
RTVSPost2010PropOp39
 70
     1
102
RTVSPost2010Prop40
 90
        0
102
RTVSPost2010PropOp40
 70
     1
102
RTVSPost2010Prop41ColorIndex
 90
       18
102
RTVSPost2010Prop41ColorRGB
 90
        0
102
RTVSPost2010PropOp41
 70
     1
102
RTVSPost2010Prop42
 90
       50
102
RTVSPost2010PropOp42
 70
     1
102
RTVSPost2010Prop43
 90
        3
102
RTVSPost2010PropOp43
 70
     1
102
RTVSPost2010Prop44ColorIndex
 90
        5
102
RTVSPost2010Prop44ColorRGB
 90
      255
102
RTVSPost2010PropOp44
 70
     1
102
RTVSPost2010Prop45
280
     0
102
RTVSPost2010PropOp45
 70
     1
102
RTVSPost2010Prop46
 90
       50
102
RTVSPost2010PropOp46
 70
     1
102
RTVSPost2010Prop47
 90
       50
102
RTVSPost2010PropOp47
 70
     1
102
RTVSPost2010Prop48
 90
       50
102
RTVSPost2010PropOp48
 70
     1
102
RTVSPost2010Prop49
280
     0
102
RTVSPost2010PropOp49
 70
     1
102
RTVSPost2010Prop50
 90
       50
102
RTVSPost2010PropOp50
 70
     1
102
RTVSPost2010Prop51ColorIndex
 90
      256
102
RTVSPost2010Prop51ColorRGB
 90
-16777216
102
RTVSPost2010PropOp51
 70
     0
102
RTVSPost2010Prop52
140
1.0
102
RTVSPost2010PropOp52
 70
     0
102
RTVSPost2010Prop53
 90
        2
102
RTVSPost2010PropOp53
 70
     1
102
RTVSPost2010Prop54
  1
strokes_ogs.tif
102
RTVSPost2010PropOp54
 70
     1
102
RTVSPost2010Prop55
280
     0
102
RTVSPost2010PropOp55
 70
     1
102
RTVSPost2010Prop56
140
1.0
102
RTVSPost2010PropOp56
 70
     1
102
RTVSPost2010Prop57
140
1.0
102
RTVSPost2010PropOp57
 70
     1
102
RTVSPropertyOp0
 70
     1
102
RTVSPropertyOp1
 70
     1
102
RTVSPropertyOp2
 70
     1
102
RTVSPropertyOp3
 70
     1
102
RTVSPropertyOp4
 70
     1
102
RTVSPropertyOp5
 70
     1
102
RTVSPropertyOp6
 70
     1
102
RTVSPropertyOp7
 70
     1
102
RTVSPropertyOp8
 70
     1
102
RTVSPropertyOp9
 70
     1
102
RTVSPropertyOp10
 70
     1
102
RTVSPropertyOp11
 70
     1
102
RTVSPropertyOp12
 70
     1
102
RTVSPropertyOp13
 70
     1
102
RTVSPropertyOp14
 70
     1
102
RTVSPropertyOp15
 70
     1
102
RTVSPropertyOp16
 70
     1
102
RTVSPropertyOp17
 70
     1
102
RTVSPropertyOp18
 70
     1
102
RTVSPropertyOp19
 70
     1
102
RTVSPropertyOp20
 70
     1
102
RTVSPropertyOp21
 70
     1
102
RTVSPropertyOp22
 70
     1
102
RTVSPropertyOp23
 70
     1
102
RTVSPropertyOp24
 70
     1
102
RTVSPropertyOp25
 70
     1
102
RTVSPropertyOp26
 70
     1
102
RTVSPropertyOp27
 70
     1
102
RTVSPropertyOp28
 70
     1
102
RTVSPropertyOp29
 70
     1
102
RTVSPropertyOp30
 70
     1
102
RTVSPropertyOp31
 70
     1
102
RTVSPropertyOp32
 70
     1
102
RTVSPropertyOp33
 70
     1
102
RTVSPropertyOp34
 70
     1
102
RTVSPropertyOp35
 70
     1
102
RTVSPropertyOp36
 70
     1
102
RTVSPropertyOp37
 70
     1
102
RTVSPropertyOp38
 70
     1
102
RTVSPropertyOp39
 70
     1
102
RTVSPropertyOp40
 70
     1
102
RTVSPropertyOp41
 70
     1
102
RTVSPropertyOp42
 70
     1
102
RTVSPropertyOp43
 70
     1
102
RTVSPropertyOp44
 70
     1
102
RTVSPropertyOp45
 70
     1
102
RTVSPropertyOp46
 70
     1
102
RTVSPropertyOp47
 70
     1
102
RTVSPropertyOp48
 70
     1
102
RTVSPropertyOp49
 70
     1
102
RTVSPropertyOp50
 70
     1
102
RTVSPropertyOp51
 70
     0
102
RTVSPropertyOp52
 70
     0
102
RTVSPropertyOp53
 70
     1
102
RTVSPropertyOp54
 70
     1
102
RTVSPropertyOp55
 70
     1
102
RTVSPropertyOp56
 70
     1
102
RTVSPropertyOp57
 70
     1
102
RTVSPropertyOp58
 70
     1
102
RTVSPropertyOp59
 70
     1
102
RTVSPropertyOp60
 70
     1
102
RTVSPropertyOp61
 70
     1
102
RTVSPropertyOp62
 70
     1
  0
XRECORD
  5
2A280
102
{ACAD_REACTORS
330
2A27F
102
}
330
2A27F
100
AcDbXrecord
280
     1
102
RTVSPost2010Prop28
280
     0
102
RTVSPost2010PropOp28
 70
     1
102
RTVSPost2010Prop29
280
     1
102
RTVSPost2010PropOp29
 70
     1
102
RTVSPost2010Prop30
280
     1
102
RTVSPost2010PropOp30
 70
     1
102
RTVSPost2010Prop31
280
     0
102
RTVSPost2010PropOp31
 70
     1
102
RTVSPost2010Prop32
280
     0
102
RTVSPost2010PropOp32
 70
     1
102
RTVSPost2010Prop33
280
     0
102
RTVSPost2010PropOp33
 70
     1
102
RTVSPost2010Prop34
280
     0
102
RTVSPost2010PropOp34
 70
     1
102
RTVSPost2010Prop35
280
     0
102
RTVSPost2010PropOp35
 70
     1
102
RTVSPost2010Prop36
280
     0
102
RTVSPost2010PropOp36
 70
     1
102
RTVSPost2010Prop37
 90
       50
102
RTVSPost2010PropOp37
 70
     1
102
RTVSPost2010Prop38
140
0.0
102
RTVSPost2010PropOp38
 70
     1
102
RTVSPost2010Prop39
140
1.0
102
RTVSPost2010PropOp39
 70
     1
102
RTVSPost2010Prop40
 90
        0
102
RTVSPost2010PropOp40
 70
     1
102
RTVSPost2010Prop41ColorIndex
 90
       18
102
RTVSPost2010Prop41ColorRGB
 90
        0
102
RTVSPost2010PropOp41
 70
     1
102
RTVSPost2010Prop42
 90
       50
102
RTVSPost2010PropOp42
 70
     1
102
RTVSPost2010Prop43
 90
        3
102
RTVSPost2010PropOp43
 70
     1
102
RTVSPost2010Prop44ColorIndex
 90
        5
102
RTVSPost2010Prop44ColorRGB
 90
      255
102
RTVSPost2010PropOp44
 70
     1
102
RTVSPost2010Prop45
280
     0
102
RTVSPost2010PropOp45
 70
     1
102
RTVSPost2010Prop46
 90
       50
102
RTVSPost2010PropOp46
 70
     1
102
RTVSPost2010Prop47
 90
       50
102
RTVSPost2010PropOp47
 70
     1
102
RTVSPost2010Prop48
 90
       50
102
RTVSPost2010PropOp48
 70
     1
102
RTVSPost2010Prop49
280
     0
102
RTVSPost2010PropOp49
 70
     1
102
RTVSPost2010Prop50
 90
       50
102
RTVSPost2010PropOp50
 70
     1
102
RTVSPost2010Prop51ColorIndex
 90
      256
102
RTVSPost2010Prop51ColorRGB
 90
-16777216
102
RTVSPost2010PropOp51
 70
     0
102
RTVSPost2010Prop52
140
1.0
102
RTVSPost2010PropOp52
 70
     0
102
RTVSPost2010Prop53
 90
        2
102
RTVSPost2010PropOp53
 70
     1
102
RTVSPost2010Prop54
  1
strokes_ogs.tif
102
RTVSPost2010PropOp54
 70
     1
102
RTVSPost2010Prop55
280
     0
102
RTVSPost2010PropOp55
 70
     1
102
RTVSPost2010Prop56
140
1.0
102
RTVSPost2010PropOp56
 70
     1
102
RTVSPost2010Prop57
140
1.0
102
RTVSPost2010PropOp57
 70
     1
102
RTVSPropertyOp0
 70
     1
102
RTVSPropertyOp1
 70
     1
102
RTVSPropertyOp2
 70
     1
102
RTVSPropertyOp3
 70
     1
102
RTVSPropertyOp4
 70
     1
102
RTVSPropertyOp5
 70
     1
102
RTVSPropertyOp6
 70
     1
102
RTVSPropertyOp7
 70
     1
102
RTVSPropertyOp8
 70
     1
102
RTVSPropertyOp9
 70
     1
102
RTVSPropertyOp10
 70
     1
102
RTVSPropertyOp11
 70
     1
102
RTVSPropertyOp12
 70
     1
102
RTVSPropertyOp13
 70
     1
102
RTVSPropertyOp14
 70
     1
102
RTVSPropertyOp15
 70
     1
102
RTVSPropertyOp16
 70
     1
102
RTVSPropertyOp17
 70
     1
102
RTVSPropertyOp18
 70
     1
102
RTVSPropertyOp19
 70
     1
102
RTVSPropertyOp20
 70
     1
102
RTVSPropertyOp21
 70
     1
102
RTVSPropertyOp22
 70
     1
102
RTVSPropertyOp23
 70
     1
102
RTVSPropertyOp24
 70
     1
102
RTVSPropertyOp25
 70
     1
102
RTVSPropertyOp26
 70
     1
102
RTVSPropertyOp27
 70
     1
102
RTVSPropertyOp28
 70
     1
102
RTVSPropertyOp29
 70
     1
102
RTVSPropertyOp30
 70
     1
102
RTVSPropertyOp31
 70
     1
102
RTVSPropertyOp32
 70
     1
102
RTVSPropertyOp33
 70
     1
102
RTVSPropertyOp34
 70
     1
102
RTVSPropertyOp35
 70
     1
102
RTVSPropertyOp36
 70
     1
102
RTVSPropertyOp37
 70
     1
102
RTVSPropertyOp38
 70
     1
102
RTVSPropertyOp39
 70
     1
102
RTVSPropertyOp40
 70
     1
102
RTVSPropertyOp41
 70
     1
102
RTVSPropertyOp42
 70
     1
102
RTVSPropertyOp43
 70
     1
102
RTVSPropertyOp44
 70
     1
102
RTVSPropertyOp45
 70
     1
102
RTVSPropertyOp46
 70
     1
102
RTVSPropertyOp47
 70
     1
102
RTVSPropertyOp48
 70
     1
102
RTVSPropertyOp49
 70
     1
102
RTVSPropertyOp50
 70
     1
102
RTVSPropertyOp51
 70
     0
102
RTVSPropertyOp52
 70
     0
102
RTVSPropertyOp53
 70
     1
102
RTVSPropertyOp54
 70
     1
102
RTVSPropertyOp55
 70
     1
102
RTVSPropertyOp56
 70
     1
102
RTVSPropertyOp57
 70
     1
102
RTVSPropertyOp58
 70
     1
102
RTVSPropertyOp59
 70
     1
102
RTVSPropertyOp60
 70
     1
102
RTVSPropertyOp61
 70
     1
102
RTVSPropertyOp62
 70
     1
  0
XRECORD
  5
2A294
102
{ACAD_REACTORS
330
2A293
102
}
330
2A293
100
AcDbXrecord
280
     1
102
RTVSPost2010Prop28
280
     0
102
RTVSPost2010PropOp28
 70
     1
102
RTVSPost2010Prop29
280
     1
102
RTVSPost2010PropOp29
 70
     1
102
RTVSPost2010Prop30
280
     1
102
RTVSPost2010PropOp30
 70
     1
102
RTVSPost2010Prop31
280
     0
102
RTVSPost2010PropOp31
 70
     1
102
RTVSPost2010Prop32
280
     0
102
RTVSPost2010PropOp32
 70
     1
102
RTVSPost2010Prop33
280
     0
102
RTVSPost2010PropOp33
 70
     1
102
RTVSPost2010Prop34
280
     0
102
RTVSPost2010PropOp34
 70
     1
102
RTVSPost2010Prop35
280
     0
102
RTVSPost2010PropOp35
 70
     1
102
RTVSPost2010Prop36
280
     0
102
RTVSPost2010PropOp36
 70
     1
102
RTVSPost2010Prop37
 90
       50
102
RTVSPost2010PropOp37
 70
     1
102
RTVSPost2010Prop38
140
0.0
102
RTVSPost2010PropOp38
 70
     1
102
RTVSPost2010Prop39
140
1.0
102
RTVSPost2010PropOp39
 70
     1
102
RTVSPost2010Prop40
 90
        0
102
RTVSPost2010PropOp40
 70
     1
102
RTVSPost2010Prop41ColorIndex
 90
       18
102
RTVSPost2010Prop41ColorRGB
 90
        0
102
RTVSPost2010PropOp41
 70
     1
102
RTVSPost2010Prop42
 90
       50
102
RTVSPost2010PropOp42
 70
     1
102
RTVSPost2010Prop43
 90
        3
102
RTVSPost2010PropOp43
 70
     1
102
RTVSPost2010Prop44ColorIndex
 90
        5
102
RTVSPost2010Prop44ColorRGB
 90
      255
102
RTVSPost2010PropOp44
 70
     1
102
RTVSPost2010Prop45
280
     0
102
RTVSPost2010PropOp45
 70
     1
102
RTVSPost2010Prop46
 90
       50
102
RTVSPost2010PropOp46
 70
     1
102
RTVSPost2010Prop47
 90
       50
102
RTVSPost2010PropOp47
 70
     1
102
RTVSPost2010Prop48
 90
       50
102
RTVSPost2010PropOp48
 70
     1
102
RTVSPost2010Prop49
280
     0
102
RTVSPost2010PropOp49
 70
     1
102
RTVSPost2010Prop50
 90
       50
102
RTVSPost2010PropOp50
 70
     1
102
RTVSPost2010Prop51ColorIndex
 90
      256
102
RTVSPost2010Prop51ColorRGB
 90
-16777216
102
RTVSPost2010PropOp51
 70
     0
102
RTVSPost2010Prop52
140
1.0
102
RTVSPost2010PropOp52
 70
     0
102
RTVSPost2010Prop53
 90
        2
102
RTVSPost2010PropOp53
 70
     1
102
RTVSPost2010Prop54
  1
strokes_ogs.tif
102
RTVSPost2010PropOp54
 70
     1
102
RTVSPost2010Prop55
280
     0
102
RTVSPost2010PropOp55
 70
     1
102
RTVSPost2010Prop56
140
1.0
102
RTVSPost2010PropOp56
 70
     1
102
RTVSPost2010Prop57
140
1.0
102
RTVSPost2010PropOp57
 70
     1
102
RTVSPropertyOp0
 70
     0
102
RTVSPropertyOp1
 70
     0
102
RTVSPropertyOp2
 70
     0
102
RTVSPropertyOp3
 70
     0
102
RTVSPropertyOp4
 70
     0
102
RTVSPropertyOp5
 70
     0
102
RTVSPropertyOp6
 70
     0
102
RTVSPropertyOp7
 70
     0
102
RTVSPropertyOp8
 70
     0
102
RTVSPropertyOp9
 70
     0
102
RTVSPropertyOp10
 70
     0
102
RTVSPropertyOp11
 70
     0
102
RTVSPropertyOp12
 70
     0
102
RTVSPropertyOp13
 70
     0
102
RTVSPropertyOp14
 70
     2
102
RTVSPropertyOp15
 70
     0
102
RTVSPropertyOp16
 70
     0
102
RTVSPropertyOp17
 70
     0
102
RTVSPropertyOp18
 70
     0
102
RTVSPropertyOp19
 70
     0
102
RTVSPropertyOp20
 70
     0
102
RTVSPropertyOp21
 70
     0
102
RTVSPropertyOp22
 70
     0
102
RTVSPropertyOp23
 70
     0
102
RTVSPropertyOp24
 70
     0
102
RTVSPropertyOp25
 70
     0
102
RTVSPropertyOp26
 70
     0
102
RTVSPropertyOp27
 70
     0
102
RTVSPropertyOp28
 70
     1
102
RTVSPropertyOp29
 70
     1
102
RTVSPropertyOp30
 70
     1
102
RTVSPropertyOp31
 70
     1
102
RTVSPropertyOp32
 70
     1
102
RTVSPropertyOp33
 70
     1
102
RTVSPropertyOp34
 70
     1
102
RTVSPropertyOp35
 70
     1
102
RTVSPropertyOp36
 70
     1
102
RTVSPropertyOp37
 70
     1
102
RTVSPropertyOp38
 70
     1
102
RTVSPropertyOp39
 70
     1
102
RTVSPropertyOp40
 70
     1
102
RTVSPropertyOp41
 70
     1
102
RTVSPropertyOp42
 70
     1
102
RTVSPropertyOp43
 70
     1
102
RTVSPropertyOp44
 70
     1
102
RTVSPropertyOp45
 70
     1
102
RTVSPropertyOp46
 70
     1
102
RTVSPropertyOp47
 70
     1
102
RTVSPropertyOp48
 70
     1
102
RTVSPropertyOp49
 70
     1
102
RTVSPropertyOp50
 70
     1
102
RTVSPropertyOp51
 70
     0
102
RTVSPropertyOp52
 70
     0
102
RTVSPropertyOp53
 70
     1
102
RTVSPropertyOp54
 70
     1
102
RTVSPropertyOp55
 70
     1
102
RTVSPropertyOp56
 70
     1
102
RTVSPropertyOp57
 70
     1
102
RTVSPropertyOp58
 70
     1
102
RTVSPropertyOp59
 70
     1
102
RTVSPropertyOp60
 70
     1
102
RTVSPropertyOp61
 70
     1
102
RTVSPropertyOp62
 70
     1
  0
XRECORD
  5
2A28C
102
{ACAD_REACTORS
330
2A28B
102
}
330
2A28B
100
AcDbXrecord
280
     1
102
RTVSPost2010Prop28
280
     0
102
RTVSPost2010PropOp28
 70
     1
102
RTVSPost2010Prop29
280
     1
102
RTVSPost2010PropOp29
 70
     1
102
RTVSPost2010Prop30
280
     1
102
RTVSPost2010PropOp30
 70
     1
102
RTVSPost2010Prop31
280
     0
102
RTVSPost2010PropOp31
 70
     1
102
RTVSPost2010Prop32
280
     0
102
RTVSPost2010PropOp32
 70
     1
102
RTVSPost2010Prop33
280
     0
102
RTVSPost2010PropOp33
 70
     1
102
RTVSPost2010Prop34
280
     0
102
RTVSPost2010PropOp34
 70
     1
102
RTVSPost2010Prop35
280
     0
102
RTVSPost2010PropOp35
 70
     1
102
RTVSPost2010Prop36
280
     0
102
RTVSPost2010PropOp36
 70
     1
102
RTVSPost2010Prop37
 90
       50
102
RTVSPost2010PropOp37
 70
     1
102
RTVSPost2010Prop38
140
0.0
102
RTVSPost2010PropOp38
 70
     1
102
RTVSPost2010Prop39
140
1.0
102
RTVSPost2010PropOp39
 70
     1
102
RTVSPost2010Prop40
 90
        0
102
RTVSPost2010PropOp40
 70
     1
102
RTVSPost2010Prop41ColorIndex
 90
       18
102
RTVSPost2010Prop41ColorRGB
 90
        0
102
RTVSPost2010PropOp41
 70
     1
102
RTVSPost2010Prop42
 90
       50
102
RTVSPost2010PropOp42
 70
     1
102
RTVSPost2010Prop43
 90
        3
102
RTVSPost2010PropOp43
 70
     1
102
RTVSPost2010Prop44ColorIndex
 90
        5
102
RTVSPost2010Prop44ColorRGB
 90
      255
102
RTVSPost2010PropOp44
 70
     1
102
RTVSPost2010Prop45
280
     0
102
RTVSPost2010PropOp45
 70
     1
102
RTVSPost2010Prop46
 90
       50
102
RTVSPost2010PropOp46
 70
     1
102
RTVSPost2010Prop47
 90
       50
102
RTVSPost2010PropOp47
 70
     1
102
RTVSPost2010Prop48
 90
       50
102
RTVSPost2010PropOp48
 70
     1
102
RTVSPost2010Prop49
280
     0
102
RTVSPost2010PropOp49
 70
     1
102
RTVSPost2010Prop50
 90
       50
102
RTVSPost2010PropOp50
 70
     1
102
RTVSPost2010Prop51ColorIndex
 90
      256
102
RTVSPost2010Prop51ColorRGB
 90
-16777216
102
RTVSPost2010PropOp51
 70
     0
102
RTVSPost2010Prop52
140
1.0
102
RTVSPost2010PropOp52
 70
     0
102
RTVSPost2010Prop53
 90
        2
102
RTVSPost2010PropOp53
 70
     1
102
RTVSPost2010Prop54
  1
strokes_ogs.tif
102
RTVSPost2010PropOp54
 70
     1
102
RTVSPost2010Prop55
280
     0
102
RTVSPost2010PropOp55
 70
     1
102
RTVSPost2010Prop56
140
1.0
102
RTVSPost2010PropOp56
 70
     1
102
RTVSPost2010Prop57
140
1.0
102
RTVSPost2010PropOp57
 70
     1
102
RTVSPropertyOp0
 70
     1
102
RTVSPropertyOp1
 70
     1
102
RTVSPropertyOp2
 70
     1
102
RTVSPropertyOp3
 70
     1
102
RTVSPropertyOp4
 70
     1
102
RTVSPropertyOp5
 70
     1
102
RTVSPropertyOp6
 70
     1
102
RTVSPropertyOp7
 70
     1
102
RTVSPropertyOp8
 70
     1
102
RTVSPropertyOp9
 70
     1
102
RTVSPropertyOp10
 70
     1
102
RTVSPropertyOp11
 70
     1
102
RTVSPropertyOp12
 70
     1
102
RTVSPropertyOp13
 70
     1
102
RTVSPropertyOp14
 70
     1
102
RTVSPropertyOp15
 70
     1
102
RTVSPropertyOp16
 70
     1
102
RTVSPropertyOp17
 70
     1
102
RTVSPropertyOp18
 70
     1
102
RTVSPropertyOp19
 70
     1
102
RTVSPropertyOp20
 70
     1
102
RTVSPropertyOp21
 70
     1
102
RTVSPropertyOp22
 70
     1
102
RTVSPropertyOp23
 70
     1
102
RTVSPropertyOp24
 70
     1
102
RTVSPropertyOp25
 70
     1
102
RTVSPropertyOp26
 70
     1
102
RTVSPropertyOp27
 70
     1
102
RTVSPropertyOp28
 70
     1
102
RTVSPropertyOp29
 70
     1
102
RTVSPropertyOp30
 70
     1
102
RTVSPropertyOp31
 70
     1
102
RTVSPropertyOp32
 70
     1
102
RTVSPropertyOp33
 70
     1
102
RTVSPropertyOp34
 70
     1
102
RTVSPropertyOp35
 70
     1
102
RTVSPropertyOp36
 70
     1
102
RTVSPropertyOp37
 70
     1
102
RTVSPropertyOp38
 70
     1
102
RTVSPropertyOp39
 70
     1
102
RTVSPropertyOp40
 70
     1
102
RTVSPropertyOp41
 70
     1
102
RTVSPropertyOp42
 70
     1
102
RTVSPropertyOp43
 70
     1
102
RTVSPropertyOp44
 70
     1
102
RTVSPropertyOp45
 70
     1
102
RTVSPropertyOp46
 70
     1
102
RTVSPropertyOp47
 70
     1
102
RTVSPropertyOp48
 70
     1
102
RTVSPropertyOp49
 70
     1
102
RTVSPropertyOp50
 70
     1
102
RTVSPropertyOp51
 70
     0
102
RTVSPropertyOp52
 70
     0
102
RTVSPropertyOp53
 70
     1
102
RTVSPropertyOp54
 70
     1
102
RTVSPropertyOp55
 70
     1
102
RTVSPropertyOp56
 70
     1
102
RTVSPropertyOp57
 70
     1
102
RTVSPropertyOp58
 70
     1
102
RTVSPropertyOp59
 70
     1
102
RTVSPropertyOp60
 70
     1
102
RTVSPropertyOp61
 70
     1
102
RTVSPropertyOp62
 70
     1
  0
XRECORD
  5
2A296
102
{ACAD_REACTORS
330
2A295
102
}
330
2A295
100
AcDbXrecord
280
     1
102
RTVSPost2010Prop28
280
     0
102
RTVSPost2010PropOp28
 70
     1
102
RTVSPost2010Prop29
280
     1
102
RTVSPost2010PropOp29
 70
     1
102
RTVSPost2010Prop30
280
     1
102
RTVSPost2010PropOp30
 70
     1
102
RTVSPost2010Prop31
280
     0
102
RTVSPost2010PropOp31
 70
     1
102
RTVSPost2010Prop32
280
     0
102
RTVSPost2010PropOp32
 70
     1
102
RTVSPost2010Prop33
280
     0
102
RTVSPost2010PropOp33
 70
     1
102
RTVSPost2010Prop34
280
     0
102
RTVSPost2010PropOp34
 70
     1
102
RTVSPost2010Prop35
280
     0
102
RTVSPost2010PropOp35
 70
     1
102
RTVSPost2010Prop36
280
     0
102
RTVSPost2010PropOp36
 70
     1
102
RTVSPost2010Prop37
 90
       50
102
RTVSPost2010PropOp37
 70
     1
102
RTVSPost2010Prop38
140
0.0
102
RTVSPost2010PropOp38
 70
     1
102
RTVSPost2010Prop39
140
1.0
102
RTVSPost2010PropOp39
 70
     1
102
RTVSPost2010Prop40
 90
        0
102
RTVSPost2010PropOp40
 70
     1
102
RTVSPost2010Prop41ColorIndex
 90
       18
102
RTVSPost2010Prop41ColorRGB
 90
        0
102
RTVSPost2010PropOp41
 70
     1
102
RTVSPost2010Prop42
 90
       50
102
RTVSPost2010PropOp42
 70
     1
102
RTVSPost2010Prop43
 90
        3
102
RTVSPost2010PropOp43
 70
     1
102
RTVSPost2010Prop44ColorIndex
 90
        5
102
RTVSPost2010Prop44ColorRGB
 90
      255
102
RTVSPost2010PropOp44
 70
     1
102
RTVSPost2010Prop45
280
     0
102
RTVSPost2010PropOp45
 70
     1
102
RTVSPost2010Prop46
 90
       50
102
RTVSPost2010PropOp46
 70
     1
102
RTVSPost2010Prop47
 90
       50
102
RTVSPost2010PropOp47
 70
     1
102
RTVSPost2010Prop48
 90
       50
102
RTVSPost2010PropOp48
 70
     1
102
RTVSPost2010Prop49
280
     0
102
RTVSPost2010PropOp49
 70
     1
102
RTVSPost2010Prop50
 90
       50
102
RTVSPost2010PropOp50
 70
     1
102
RTVSPost2010Prop51ColorIndex
 90
      256
102
RTVSPost2010Prop51ColorRGB
 90
-16777216
102
RTVSPost2010PropOp51
 70
     0
102
RTVSPost2010Prop52
140
1.0
102
RTVSPost2010PropOp52
 70
     0
102
RTVSPost2010Prop53
 90
        2
102
RTVSPost2010PropOp53
 70
     1
102
RTVSPost2010Prop54
  1
strokes_ogs.tif
102
RTVSPost2010PropOp54
 70
     1
102
RTVSPost2010Prop55
280
     0
102
RTVSPost2010PropOp55
 70
     1
102
RTVSPost2010Prop56
140
1.0
102
RTVSPost2010PropOp56
 70
     1
102
RTVSPost2010Prop57
140
1.0
102
RTVSPost2010PropOp57
 70
     1
102
RTVSPropertyOp0
 70
     0
102
RTVSPropertyOp1
 70
     0
102
RTVSPropertyOp2
 70
     0
102
RTVSPropertyOp3
 70
     0
102
RTVSPropertyOp4
 70
     0
102
RTVSPropertyOp5
 70
     0
102
RTVSPropertyOp6
 70
     0
102
RTVSPropertyOp7
 70
     0
102
RTVSPropertyOp8
 70
     0
102
RTVSPropertyOp9
 70
     0
102
RTVSPropertyOp10
 70
     0
102
RTVSPropertyOp11
 70
     0
102
RTVSPropertyOp12
 70
     0
102
RTVSPropertyOp13
 70
     0
102
RTVSPropertyOp14
 70
     2
102
RTVSPropertyOp15
 70
     0
102
RTVSPropertyOp16
 70
     0
102
RTVSPropertyOp17
 70
     0
102
RTVSPropertyOp18
 70
     0
102
RTVSPropertyOp19
 70
     0
102
RTVSPropertyOp20
 70
     0
102
RTVSPropertyOp21
 70
     0
102
RTVSPropertyOp22
 70
     0
102
RTVSPropertyOp23
 70
     0
102
RTVSPropertyOp24
 70
     0
102
RTVSPropertyOp25
 70
     0
102
RTVSPropertyOp26
 70
     0
102
RTVSPropertyOp27
 70
     0
102
RTVSPropertyOp28
 70
     1
102
RTVSPropertyOp29
 70
     1
102
RTVSPropertyOp30
 70
     1
102
RTVSPropertyOp31
 70
     1
102
RTVSPropertyOp32
 70
     1
102
RTVSPropertyOp33
 70
     1
102
RTVSPropertyOp34
 70
     1
102
RTVSPropertyOp35
 70
     1
102
RTVSPropertyOp36
 70
     1
102
RTVSPropertyOp37
 70
     1
102
RTVSPropertyOp38
 70
     1
102
RTVSPropertyOp39
 70
     1
102
RTVSPropertyOp40
 70
     1
102
RTVSPropertyOp41
 70
     1
102
RTVSPropertyOp42
 70
     1
102
RTVSPropertyOp43
 70
     1
102
RTVSPropertyOp44
 70
     1
102
RTVSPropertyOp45
 70
     1
102
RTVSPropertyOp46
 70
     1
102
RTVSPropertyOp47
 70
     1
102
RTVSPropertyOp48
 70
     1
102
RTVSPropertyOp49
 70
     1
102
RTVSPropertyOp50
 70
     1
102
RTVSPropertyOp51
 70
     0
102
RTVSPropertyOp52
 70
     0
102
RTVSPropertyOp53
 70
     1
102
RTVSPropertyOp54
 70
     1
102
RTVSPropertyOp55
 70
     1
102
RTVSPropertyOp56
 70
     1
102
RTVSPropertyOp57
 70
     1
102
RTVSPropertyOp58
 70
     1
102
RTVSPropertyOp59
 70
     1
102
RTVSPropertyOp60
 70
     1
102
RTVSPropertyOp61
 70
     1
102
RTVSPropertyOp62
 70
     1
  0
XRECORD
  5
2A284
102
{ACAD_REACTORS
330
2A283
102
}
330
2A283
100
AcDbXrecord
280
     1
102
RTVSPost2010Prop28
280
     0
102
RTVSPost2010PropOp28
 70
     1
102
RTVSPost2010Prop29
280
     1
102
RTVSPost2010PropOp29
 70
     1
102
RTVSPost2010Prop30
280
     1
102
RTVSPost2010PropOp30
 70
     1
102
RTVSPost2010Prop31
280
     0
102
RTVSPost2010PropOp31
 70
     1
102
RTVSPost2010Prop32
280
     0
102
RTVSPost2010PropOp32
 70
     1
102
RTVSPost2010Prop33
280
     0
102
RTVSPost2010PropOp33
 70
     1
102
RTVSPost2010Prop34
280
     0
102
RTVSPost2010PropOp34
 70
     1
102
RTVSPost2010Prop35
280
     0
102
RTVSPost2010PropOp35
 70
     1
102
RTVSPost2010Prop36
280
     0
102
RTVSPost2010PropOp36
 70
     1
102
RTVSPost2010Prop37
 90
       50
102
RTVSPost2010PropOp37
 70
     1
102
RTVSPost2010Prop38
140
0.0
102
RTVSPost2010PropOp38
 70
     1
102
RTVSPost2010Prop39
140
1.0
102
RTVSPost2010PropOp39
 70
     1
102
RTVSPost2010Prop40
 90
        0
102
RTVSPost2010PropOp40
 70
     1
102
RTVSPost2010Prop41ColorIndex
 90
       18
102
RTVSPost2010Prop41ColorRGB
 90
        0
102
RTVSPost2010PropOp41
 70
     1
102
RTVSPost2010Prop42
 90
       50
102
RTVSPost2010PropOp42
 70
     1
102
RTVSPost2010Prop43
 90
        3
102
RTVSPost2010PropOp43
 70
     1
102
RTVSPost2010Prop44ColorIndex
 90
        5
102
RTVSPost2010Prop44ColorRGB
 90
      255
102
RTVSPost2010PropOp44
 70
     1
102
RTVSPost2010Prop45
280
     0
102
RTVSPost2010PropOp45
 70
     1
102
RTVSPost2010Prop46
 90
       50
102
RTVSPost2010PropOp46
 70
     1
102
RTVSPost2010Prop47
 90
       50
102
RTVSPost2010PropOp47
 70
     1
102
RTVSPost2010Prop48
 90
       50
102
RTVSPost2010PropOp48
 70
     1
102
RTVSPost2010Prop49
280
     0
102
RTVSPost2010PropOp49
 70
     1
102
RTVSPost2010Prop50
 90
       50
102
RTVSPost2010PropOp50
 70
     1
102
RTVSPost2010Prop51ColorIndex
 90
      256
102
RTVSPost2010Prop51ColorRGB
 90
-16777216
102
RTVSPost2010PropOp51
 70
     0
102
RTVSPost2010Prop52
140
1.0
102
RTVSPost2010PropOp52
 70
     0
102
RTVSPost2010Prop53
 90
        2
102
RTVSPost2010PropOp53
 70
     1
102
RTVSPost2010Prop54
  1
strokes_ogs.tif
102
RTVSPost2010PropOp54
 70
     1
102
RTVSPost2010Prop55
280
     0
102
RTVSPost2010PropOp55
 70
     1
102
RTVSPost2010Prop56
140
1.0
102
RTVSPost2010PropOp56
 70
     1
102
RTVSPost2010Prop57
140
1.0
102
RTVSPost2010PropOp57
 70
     1
102
RTVSPropertyOp0
 70
     1
102
RTVSPropertyOp1
 70
     1
102
RTVSPropertyOp2
 70
     1
102
RTVSPropertyOp3
 70
     1
102
RTVSPropertyOp4
 70
     1
102
RTVSPropertyOp5
 70
     1
102
RTVSPropertyOp6
 70
     1
102
RTVSPropertyOp7
 70
     1
102
RTVSPropertyOp8
 70
     1
102
RTVSPropertyOp9
 70
     1
102
RTVSPropertyOp10
 70
     1
102
RTVSPropertyOp11
 70
     1
102
RTVSPropertyOp12
 70
     1
102
RTVSPropertyOp13
 70
     1
102
RTVSPropertyOp14
 70
     1
102
RTVSPropertyOp15
 70
     1
102
RTVSPropertyOp16
 70
     1
102
RTVSPropertyOp17
 70
     1
102
RTVSPropertyOp18
 70
     1
102
RTVSPropertyOp19
 70
     1
102
RTVSPropertyOp20
 70
     1
102
RTVSPropertyOp21
 70
     1
102
RTVSPropertyOp22
 70
     1
102
RTVSPropertyOp23
 70
     1
102
RTVSPropertyOp24
 70
     1
102
RTVSPropertyOp25
 70
     1
102
RTVSPropertyOp26
 70
     1
102
RTVSPropertyOp27
 70
     1
102
RTVSPropertyOp28
 70
     1
102
RTVSPropertyOp29
 70
     1
102
RTVSPropertyOp30
 70
     1
102
RTVSPropertyOp31
 70
     1
102
RTVSPropertyOp32
 70
     1
102
RTVSPropertyOp33
 70
     1
102
RTVSPropertyOp34
 70
     1
102
RTVSPropertyOp35
 70
     1
102
RTVSPropertyOp36
 70
     1
102
RTVSPropertyOp37
 70
     1
102
RTVSPropertyOp38
 70
     1
102
RTVSPropertyOp39
 70
     1
102
RTVSPropertyOp40
 70
     1
102
RTVSPropertyOp41
 70
     1
102
RTVSPropertyOp42
 70
     1
102
RTVSPropertyOp43
 70
     1
102
RTVSPropertyOp44
 70
     1
102
RTVSPropertyOp45
 70
     1
102
RTVSPropertyOp46
 70
     1
102
RTVSPropertyOp47
 70
     1
102
RTVSPropertyOp48
 70
     1
102
RTVSPropertyOp49
 70
     1
102
RTVSPropertyOp50
 70
     1
102
RTVSPropertyOp51
 70
     0
102
RTVSPropertyOp52
 70
     0
102
RTVSPropertyOp53
 70
     1
102
RTVSPropertyOp54
 70
     1
102
RTVSPropertyOp55
 70
     1
102
RTVSPropertyOp56
 70
     1
102
RTVSPropertyOp57
 70
     1
102
RTVSPropertyOp58
 70
     1
102
RTVSPropertyOp59
 70
     1
102
RTVSPropertyOp60
 70
     1
102
RTVSPropertyOp61
 70
     1
102
RTVSPropertyOp62
 70
     1
  0
XRECORD
  5
2A2A2
102
{ACAD_REACTORS
330
2A2A1
102
}
330
2A2A1
100
AcDbXrecord
280
     1
102
RTVSPost2010Prop28
280
     0
102
RTVSPost2010PropOp28
 70
     1
102
RTVSPost2010Prop29
280
     1
102
RTVSPost2010PropOp29
 70
     1
102
RTVSPost2010Prop30
280
     1
102
RTVSPost2010PropOp30
 70
     1
102
RTVSPost2010Prop31
280
     0
102
RTVSPost2010PropOp31
 70
     1
102
RTVSPost2010Prop32
280
     0
102
RTVSPost2010PropOp32
 70
     1
102
RTVSPost2010Prop33
280
     0
102
RTVSPost2010PropOp33
 70
     1
102
RTVSPost2010Prop34
280
     0
102
RTVSPost2010PropOp34
 70
     1
102
RTVSPost2010Prop35
280
     0
102
RTVSPost2010PropOp35
 70
     1
102
RTVSPost2010Prop36
280
     0
102
RTVSPost2010PropOp36
 70
     1
102
RTVSPost2010Prop37
 90
       50
102
RTVSPost2010PropOp37
 70
     1
102
RTVSPost2010Prop38
140
0.0
102
RTVSPost2010PropOp38
 70
     1
102
RTVSPost2010Prop39
140
1.0
102
RTVSPost2010PropOp39
 70
     1
102
RTVSPost2010Prop40
 90
        0
102
RTVSPost2010PropOp40
 70
     1
102
RTVSPost2010Prop41ColorIndex
 90
       18
102
RTVSPost2010Prop41ColorRGB
 90
        0
102
RTVSPost2010PropOp41
 70
     1
102
RTVSPost2010Prop42
 90
       50
102
RTVSPost2010PropOp42
 70
     1
102
RTVSPost2010Prop43
 90
        3
102
RTVSPost2010PropOp43
 70
     1
102
RTVSPost2010Prop44ColorIndex
 90
        5
102
RTVSPost2010Prop44ColorRGB
 90
      255
102
RTVSPost2010PropOp44
 70
     1
102
RTVSPost2010Prop45
280
     0
102
RTVSPost2010PropOp45
 70
     1
102
RTVSPost2010Prop46
 90
       50
102
RTVSPost2010PropOp46
 70
     1
102
RTVSPost2010Prop47
 90
       50
102
RTVSPost2010PropOp47
 70
     1
102
RTVSPost2010Prop48
 90
       50
102
RTVSPost2010PropOp48
 70
     1
102
RTVSPost2010Prop49
280
     0
102
RTVSPost2010PropOp49
 70
     1
102
RTVSPost2010Prop50
 90
       50
102
RTVSPost2010PropOp50
 70
     1
102
RTVSPost2010Prop51ColorIndex
 90
      256
102
RTVSPost2010Prop51ColorRGB
 90
-16777216
102
RTVSPost2010PropOp51
 70
     0
102
RTVSPost2010Prop52
140
1.0
102
RTVSPost2010PropOp52
 70
     0
102
RTVSPost2010Prop53
 90
        2
102
RTVSPost2010PropOp53
 70
     1
102
RTVSPost2010Prop54
  1
strokes_ogs.tif
102
RTVSPost2010PropOp54
 70
     1
102
RTVSPost2010Prop55
280
     0
102
RTVSPost2010PropOp55
 70
     1
102
RTVSPost2010Prop56
140
1.0
102
RTVSPost2010PropOp56
 70
     1
102
RTVSPost2010Prop57
140
1.0
102
RTVSPost2010PropOp57
 70
     1
102
RTVSPropertyOp0
 70
     1
102
RTVSPropertyOp1
 70
     1
102
RTVSPropertyOp2
 70
     1
102
RTVSPropertyOp3
 70
     1
102
RTVSPropertyOp4
 70
     1
102
RTVSPropertyOp5
 70
     1
102
RTVSPropertyOp6
 70
     1
102
RTVSPropertyOp7
 70
     1
102
RTVSPropertyOp8
 70
     1
102
RTVSPropertyOp9
 70
     1
102
RTVSPropertyOp10
 70
     1
102
RTVSPropertyOp11
 70
     1
102
RTVSPropertyOp12
 70
     1
102
RTVSPropertyOp13
 70
     1
102
RTVSPropertyOp14
 70
     1
102
RTVSPropertyOp15
 70
     1
102
RTVSPropertyOp16
 70
     1
102
RTVSPropertyOp17
 70
     1
102
RTVSPropertyOp18
 70
     1
102
RTVSPropertyOp19
 70
     1
102
RTVSPropertyOp20
 70
     1
102
RTVSPropertyOp21
 70
     1
102
RTVSPropertyOp22
 70
     1
102
RTVSPropertyOp23
 70
     1
102
RTVSPropertyOp24
 70
     1
102
RTVSPropertyOp25
 70
     1
102
RTVSPropertyOp26
 70
     1
102
RTVSPropertyOp27
 70
     1
102
RTVSPropertyOp28
 70
     1
102
RTVSPropertyOp29
 70
     1
102
RTVSPropertyOp30
 70
     1
102
RTVSPropertyOp31
 70
     1
102
RTVSPropertyOp32
 70
     1
102
RTVSPropertyOp33
 70
     1
102
RTVSPropertyOp34
 70
     1
102
RTVSPropertyOp35
 70
     1
102
RTVSPropertyOp36
 70
     1
102
RTVSPropertyOp37
 70
     1
102
RTVSPropertyOp38
 70
     1
102
RTVSPropertyOp39
 70
     1
102
RTVSPropertyOp40
 70
     1
102
RTVSPropertyOp41
 70
     1
102
RTVSPropertyOp42
 70
     1
102
RTVSPropertyOp43
 70
     1
102
RTVSPropertyOp44
 70
     1
102
RTVSPropertyOp45
 70
     1
102
RTVSPropertyOp46
 70
     1
102
RTVSPropertyOp47
 70
     1
102
RTVSPropertyOp48
 70
     1
102
RTVSPropertyOp49
 70
     1
102
RTVSPropertyOp50
 70
     1
102
RTVSPropertyOp51
 70
     0
102
RTVSPropertyOp52
 70
     0
102
RTVSPropertyOp53
 70
     1
102
RTVSPropertyOp54
 70
     1
102
RTVSPropertyOp55
 70
     1
102
RTVSPropertyOp56
 70
     1
102
RTVSPropertyOp57
 70
     1
102
RTVSPropertyOp58
 70
     1
102
RTVSPropertyOp59
 70
     1
102
RTVSPropertyOp60
 70
     1
102
RTVSPropertyOp61
 70
     1
102
RTVSPropertyOp62
 70
     1
  0
XRECORD
  5
2A2A0
102
{ACAD_REACTORS
330
2A29F
102
}
330
2A29F
100
AcDbXrecord
280
     1
102
RTVSPost2010Prop28
280
     0
102
RTVSPost2010PropOp28
 70
     1
102
RTVSPost2010Prop29
280
     1
102
RTVSPost2010PropOp29
 70
     1
102
RTVSPost2010Prop30
280
     1
102
RTVSPost2010PropOp30
 70
     1
102
RTVSPost2010Prop31
280
     0
102
RTVSPost2010PropOp31
 70
     1
102
RTVSPost2010Prop32
280
     0
102
RTVSPost2010PropOp32
 70
     1
102
RTVSPost2010Prop33
280
     0
102
RTVSPost2010PropOp33
 70
     1
102
RTVSPost2010Prop34
280
     0
102
RTVSPost2010PropOp34
 70
     1
102
RTVSPost2010Prop35
280
     0
102
RTVSPost2010PropOp35
 70
     1
102
RTVSPost2010Prop36
280
     0
102
RTVSPost2010PropOp36
 70
     1
102
RTVSPost2010Prop37
 90
       50
102
RTVSPost2010PropOp37
 70
     1
102
RTVSPost2010Prop38
140
0.0
102
RTVSPost2010PropOp38
 70
     1
102
RTVSPost2010Prop39
140
1.0
102
RTVSPost2010PropOp39
 70
     1
102
RTVSPost2010Prop40
 90
        0
102
RTVSPost2010PropOp40
 70
     1
102
RTVSPost2010Prop41ColorIndex
 90
       18
102
RTVSPost2010Prop41ColorRGB
 90
        0
102
RTVSPost2010PropOp41
 70
     1
102
RTVSPost2010Prop42
 90
       50
102
RTVSPost2010PropOp42
 70
     1
102
RTVSPost2010Prop43
 90
        3
102
RTVSPost2010PropOp43
 70
     1
102
RTVSPost2010Prop44ColorIndex
 90
        5
102
RTVSPost2010Prop44ColorRGB
 90
      255
102
RTVSPost2010PropOp44
 70
     1
102
RTVSPost2010Prop45
280
     0
102
RTVSPost2010PropOp45
 70
     1
102
RTVSPost2010Prop46
 90
       50
102
RTVSPost2010PropOp46
 70
     1
102
RTVSPost2010Prop47
 90
       50
102
RTVSPost2010PropOp47
 70
     1
102
RTVSPost2010Prop48
 90
       50
102
RTVSPost2010PropOp48
 70
     1
102
RTVSPost2010Prop49
280
     0
102
RTVSPost2010PropOp49
 70
     1
102
RTVSPost2010Prop50
 90
       50
102
RTVSPost2010PropOp50
 70
     1
102
RTVSPost2010Prop51ColorIndex
 90
      256
102
RTVSPost2010Prop51ColorRGB
 90
-16777216
102
RTVSPost2010PropOp51
 70
     0
102
RTVSPost2010Prop52
140
1.0
102
RTVSPost2010PropOp52
 70
     0
102
RTVSPost2010Prop53
 90
        2
102
RTVSPost2010PropOp53
 70
     1
102
RTVSPost2010Prop54
  1
strokes_ogs.tif
102
RTVSPost2010PropOp54
 70
     1
102
RTVSPost2010Prop55
280
     0
102
RTVSPost2010PropOp55
 70
     1
102
RTVSPost2010Prop56
140
1.0
102
RTVSPost2010PropOp56
 70
     1
102
RTVSPost2010Prop57
140
1.0
102
RTVSPost2010PropOp57
 70
     1
102
RTVSPropertyOp0
 70
     1
102
RTVSPropertyOp1
 70
     1
102
RTVSPropertyOp2
 70
     1
102
RTVSPropertyOp3
 70
     1
102
RTVSPropertyOp4
 70
     1
102
RTVSPropertyOp5
 70
     1
102
RTVSPropertyOp6
 70
     1
102
RTVSPropertyOp7
 70
     1
102
RTVSPropertyOp8
 70
     1
102
RTVSPropertyOp9
 70
     1
102
RTVSPropertyOp10
 70
     1
102
RTVSPropertyOp11
 70
     1
102
RTVSPropertyOp12
 70
     1
102
RTVSPropertyOp13
 70
     1
102
RTVSPropertyOp14
 70
     1
102
RTVSPropertyOp15
 70
     1
102
RTVSPropertyOp16
 70
     1
102
RTVSPropertyOp17
 70
     1
102
RTVSPropertyOp18
 70
     1
102
RTVSPropertyOp19
 70
     1
102
RTVSPropertyOp20
 70
     1
102
RTVSPropertyOp21
 70
     1
102
RTVSPropertyOp22
 70
     1
102
RTVSPropertyOp23
 70
     1
102
RTVSPropertyOp24
 70
     1
102
RTVSPropertyOp25
 70
     1
102
RTVSPropertyOp26
 70
     1
102
RTVSPropertyOp27
 70
     1
102
RTVSPropertyOp28
 70
     1
102
RTVSPropertyOp29
 70
     1
102
RTVSPropertyOp30
 70
     1
102
RTVSPropertyOp31
 70
     1
102
RTVSPropertyOp32
 70
     1
102
RTVSPropertyOp33
 70
     1
102
RTVSPropertyOp34
 70
     1
102
RTVSPropertyOp35
 70
     1
102
RTVSPropertyOp36
 70
     1
102
RTVSPropertyOp37
 70
     1
102
RTVSPropertyOp38
 70
     1
102
RTVSPropertyOp39
 70
     1
102
RTVSPropertyOp40
 70
     1
102
RTVSPropertyOp41
 70
     1
102
RTVSPropertyOp42
 70
     1
102
RTVSPropertyOp43
 70
     1
102
RTVSPropertyOp44
 70
     1
102
RTVSPropertyOp45
 70
     1
102
RTVSPropertyOp46
 70
     1
102
RTVSPropertyOp47
 70
     1
102
RTVSPropertyOp48
 70
     1
102
RTVSPropertyOp49
 70
     1
102
RTVSPropertyOp50
 70
     1
102
RTVSPropertyOp51
 70
     0
102
RTVSPropertyOp52
 70
     0
102
RTVSPropertyOp53
 70
     1
102
RTVSPropertyOp54
 70
     1
102
RTVSPropertyOp55
 70
     1
102
RTVSPropertyOp56
 70
     1
102
RTVSPropertyOp57
 70
     1
102
RTVSPropertyOp58
 70
     1
102
RTVSPropertyOp59
 70
     1
102
RTVSPropertyOp60
 70
     1
102
RTVSPropertyOp61
 70
     1
102
RTVSPropertyOp62
 70
     1
  0
XRECORD
  5
2A29A
102
{ACAD_REACTORS
330
2A299
102
}
330
2A299
100
AcDbXrecord
280
     1
102
RTVSPost2010Prop28
280
     0
102
RTVSPost2010PropOp28
 70
     1
102
RTVSPost2010Prop29
280
     1
102
RTVSPost2010PropOp29
 70
     1
102
RTVSPost2010Prop30
280
     1
102
RTVSPost2010PropOp30
 70
     1
102
RTVSPost2010Prop31
280
     0
102
RTVSPost2010PropOp31
 70
     1
102
RTVSPost2010Prop32
280
     0
102
RTVSPost2010PropOp32
 70
     1
102
RTVSPost2010Prop33
280
     0
102
RTVSPost2010PropOp33
 70
     1
102
RTVSPost2010Prop34
280
     0
102
RTVSPost2010PropOp34
 70
     1
102
RTVSPost2010Prop35
280
     0
102
RTVSPost2010PropOp35
 70
     1
102
RTVSPost2010Prop36
280
     0
102
RTVSPost2010PropOp36
 70
     1
102
RTVSPost2010Prop37
 90
       50
102
RTVSPost2010PropOp37
 70
     1
102
RTVSPost2010Prop38
140
0.0
102
RTVSPost2010PropOp38
 70
     1
102
RTVSPost2010Prop39
140
1.0
102
RTVSPost2010PropOp39
 70
     1
102
RTVSPost2010Prop40
 90
        0
102
RTVSPost2010PropOp40
 70
     1
102
RTVSPost2010Prop41ColorIndex
 90
       18
102
RTVSPost2010Prop41ColorRGB
 90
        0
102
RTVSPost2010PropOp41
 70
     1
102
RTVSPost2010Prop42
 90
       50
102
RTVSPost2010PropOp42
 70
     1
102
RTVSPost2010Prop43
 90
        3
102
RTVSPost2010PropOp43
 70
     1
102
RTVSPost2010Prop44ColorIndex
 90
        5
102
RTVSPost2010Prop44ColorRGB
 90
      255
102
RTVSPost2010PropOp44
 70
     1
102
RTVSPost2010Prop45
280
     0
102
RTVSPost2010PropOp45
 70
     1
102
RTVSPost2010Prop46
 90
       50
102
RTVSPost2010PropOp46
 70
     1
102
RTVSPost2010Prop47
 90
       50
102
RTVSPost2010PropOp47
 70
     1
102
RTVSPost2010Prop48
 90
       50
102
RTVSPost2010PropOp48
 70
     1
102
RTVSPost2010Prop49
280
     0
102
RTVSPost2010PropOp49
 70
     1
102
RTVSPost2010Prop50
 90
       50
102
RTVSPost2010PropOp50
 70
     1
102
RTVSPost2010Prop51ColorIndex
 90
      256
102
RTVSPost2010Prop51ColorRGB
 90
-16777216
102
RTVSPost2010PropOp51
 70
     0
102
RTVSPost2010Prop52
140
1.0
102
RTVSPost2010PropOp52
 70
     0
102
RTVSPost2010Prop53
 90
        2
102
RTVSPost2010PropOp53
 70
     1
102
RTVSPost2010Prop54
  1
strokes_ogs.tif
102
RTVSPost2010PropOp54
 70
     1
102
RTVSPost2010Prop55
280
     0
102
RTVSPost2010PropOp55
 70
     1
102
RTVSPost2010Prop56
140
1.0
102
RTVSPost2010PropOp56
 70
     1
102
RTVSPost2010Prop57
140
1.0
102
RTVSPost2010PropOp57
 70
     1
102
RTVSPropertyOp0
 70
     1
102
RTVSPropertyOp1
 70
     1
102
RTVSPropertyOp2
 70
     1
102
RTVSPropertyOp3
 70
     1
102
RTVSPropertyOp4
 70
     1
102
RTVSPropertyOp5
 70
     1
102
RTVSPropertyOp6
 70
     1
102
RTVSPropertyOp7
 70
     1
102
RTVSPropertyOp8
 70
     1
102
RTVSPropertyOp9
 70
     1
102
RTVSPropertyOp10
 70
     1
102
RTVSPropertyOp11
 70
     1
102
RTVSPropertyOp12
 70
     1
102
RTVSPropertyOp13
 70
     1
102
RTVSPropertyOp14
 70
     1
102
RTVSPropertyOp15
 70
     1
102
RTVSPropertyOp16
 70
     1
102
RTVSPropertyOp17
 70
     1
102
RTVSPropertyOp18
 70
     1
102
RTVSPropertyOp19
 70
     1
102
RTVSPropertyOp20
 70
     1
102
RTVSPropertyOp21
 70
     1
102
RTVSPropertyOp22
 70
     1
102
RTVSPropertyOp23
 70
     1
102
RTVSPropertyOp24
 70
     1
102
RTVSPropertyOp25
 70
     1
102
RTVSPropertyOp26
 70
     1
102
RTVSPropertyOp27
 70
     1
102
RTVSPropertyOp28
 70
     1
102
RTVSPropertyOp29
 70
     1
102
RTVSPropertyOp30
 70
     1
102
RTVSPropertyOp31
 70
     1
102
RTVSPropertyOp32
 70
     1
102
RTVSPropertyOp33
 70
     1
102
RTVSPropertyOp34
 70
     1
102
RTVSPropertyOp35
 70
     1
102
RTVSPropertyOp36
 70
     1
102
RTVSPropertyOp37
 70
     1
102
RTVSPropertyOp38
 70
     1
102
RTVSPropertyOp39
 70
     1
102
RTVSPropertyOp40
 70
     1
102
RTVSPropertyOp41
 70
     1
102
RTVSPropertyOp42
 70
     1
102
RTVSPropertyOp43
 70
     1
102
RTVSPropertyOp44
 70
     1
102
RTVSPropertyOp45
 70
     1
102
RTVSPropertyOp46
 70
     1
102
RTVSPropertyOp47
 70
     1
102
RTVSPropertyOp48
 70
     1
102
RTVSPropertyOp49
 70
     1
102
RTVSPropertyOp50
 70
     1
102
RTVSPropertyOp51
 70
     0
102
RTVSPropertyOp52
 70
     0
102
RTVSPropertyOp53
 70
     1
102
RTVSPropertyOp54
 70
     1
102
RTVSPropertyOp55
 70
     1
102
RTVSPropertyOp56
 70
     1
102
RTVSPropertyOp57
 70
     1
102
RTVSPropertyOp58
 70
     1
102
RTVSPropertyOp59
 70
     1
102
RTVSPropertyOp60
 70
     1
102
RTVSPropertyOp61
 70
     1
102
RTVSPropertyOp62
 70
     1
  0
XRECORD
  5
2A29C
102
{ACAD_REACTORS
330
2A29B
102
}
330
2A29B
100
AcDbXrecord
280
     1
102
RTVSPost2010Prop28
280
     0
102
RTVSPost2010PropOp28
 70
     1
102
RTVSPost2010Prop29
280
     1
102
RTVSPost2010PropOp29
 70
     1
102
RTVSPost2010Prop30
280
     1
102
RTVSPost2010PropOp30
 70
     1
102
RTVSPost2010Prop31
280
     0
102
RTVSPost2010PropOp31
 70
     1
102
RTVSPost2010Prop32
280
     0
102
RTVSPost2010PropOp32
 70
     1
102
RTVSPost2010Prop33
280
     0
102
RTVSPost2010PropOp33
 70
     1
102
RTVSPost2010Prop34
280
     0
102
RTVSPost2010PropOp34
 70
     1
102
RTVSPost2010Prop35
280
     0
102
RTVSPost2010PropOp35
 70
     1
102
RTVSPost2010Prop36
280
     0
102
RTVSPost2010PropOp36
 70
     1
102
RTVSPost2010Prop37
 90
       50
102
RTVSPost2010PropOp37
 70
     1
102
RTVSPost2010Prop38
140
0.0
102
RTVSPost2010PropOp38
 70
     1
102
RTVSPost2010Prop39
140
1.0
102
RTVSPost2010PropOp39
 70
     1
102
RTVSPost2010Prop40
 90
        0
102
RTVSPost2010PropOp40
 70
     1
102
RTVSPost2010Prop41ColorIndex
 90
       18
102
RTVSPost2010Prop41ColorRGB
 90
        0
102
RTVSPost2010PropOp41
 70
     1
102
RTVSPost2010Prop42
 90
       50
102
RTVSPost2010PropOp42
 70
     1
102
RTVSPost2010Prop43
 90
        3
102
RTVSPost2010PropOp43
 70
     1
102
RTVSPost2010Prop44ColorIndex
 90
        5
102
RTVSPost2010Prop44ColorRGB
 90
      255
102
RTVSPost2010PropOp44
 70
     1
102
RTVSPost2010Prop45
280
     0
102
RTVSPost2010PropOp45
 70
     1
102
RTVSPost2010Prop46
 90
       50
102
RTVSPost2010PropOp46
 70
     1
102
RTVSPost2010Prop47
 90
       50
102
RTVSPost2010PropOp47
 70
     1
102
RTVSPost2010Prop48
 90
       50
102
RTVSPost2010PropOp48
 70
     1
102
RTVSPost2010Prop49
280
     0
102
RTVSPost2010PropOp49
 70
     1
102
RTVSPost2010Prop50
 90
       50
102
RTVSPost2010PropOp50
 70
     1
102
RTVSPost2010Prop51ColorIndex
 90
      256
102
RTVSPost2010Prop51ColorRGB
 90
-16777216
102
RTVSPost2010PropOp51
 70
     0
102
RTVSPost2010Prop52
140
1.0
102
RTVSPost2010PropOp52
 70
     0
102
RTVSPost2010Prop53
 90
        2
102
RTVSPost2010PropOp53
 70
     1
102
RTVSPost2010Prop54
  1
strokes_ogs.tif
102
RTVSPost2010PropOp54
 70
     1
102
RTVSPost2010Prop55
280
     0
102
RTVSPost2010PropOp55
 70
     1
102
RTVSPost2010Prop56
140
1.0
102
RTVSPost2010PropOp56
 70
     1
102
RTVSPost2010Prop57
140
1.0
102
RTVSPost2010PropOp57
 70
     1
102
RTVSPropertyOp0
 70
     1
102
RTVSPropertyOp1
 70
     1
102
RTVSPropertyOp2
 70
     1
102
RTVSPropertyOp3
 70
     1
102
RTVSPropertyOp4
 70
     1
102
RTVSPropertyOp5
 70
     1
102
RTVSPropertyOp6
 70
     1
102
RTVSPropertyOp7
 70
     1
102
RTVSPropertyOp8
 70
     1
102
RTVSPropertyOp9
 70
     1
102
RTVSPropertyOp10
 70
     1
102
RTVSPropertyOp11
 70
     1
102
RTVSPropertyOp12
 70
     1
102
RTVSPropertyOp13
 70
     1
102
RTVSPropertyOp14
 70
     1
102
RTVSPropertyOp15
 70
     1
102
RTVSPropertyOp16
 70
     1
102
RTVSPropertyOp17
 70
     1
102
RTVSPropertyOp18
 70
     1
102
RTVSPropertyOp19
 70
     1
102
RTVSPropertyOp20
 70
     1
102
RTVSPropertyOp21
 70
     1
102
RTVSPropertyOp22
 70
     1
102
RTVSPropertyOp23
 70
     1
102
RTVSPropertyOp24
 70
     1
102
RTVSPropertyOp25
 70
     1
102
RTVSPropertyOp26
 70
     1
102
RTVSPropertyOp27
 70
     1
102
RTVSPropertyOp28
 70
     1
102
RTVSPropertyOp29
 70
     1
102
RTVSPropertyOp30
 70
     1
102
RTVSPropertyOp31
 70
     1
102
RTVSPropertyOp32
 70
     1
102
RTVSPropertyOp33
 70
     1
102
RTVSPropertyOp34
 70
     1
102
RTVSPropertyOp35
 70
     1
102
RTVSPropertyOp36
 70
     1
102
RTVSPropertyOp37
 70
     1
102
RTVSPropertyOp38
 70
     1
102
RTVSPropertyOp39
 70
     1
102
RTVSPropertyOp40
 70
     1
102
RTVSPropertyOp41
 70
     1
102
RTVSPropertyOp42
 70
     1
102
RTVSPropertyOp43
 70
     1
102
RTVSPropertyOp44
 70
     1
102
RTVSPropertyOp45
 70
     1
102
RTVSPropertyOp46
 70
     1
102
RTVSPropertyOp47
 70
     1
102
RTVSPropertyOp48
 70
     1
102
RTVSPropertyOp49
 70
     1
102
RTVSPropertyOp50
 70
     1
102
RTVSPropertyOp51
 70
     0
102
RTVSPropertyOp52
 70
     0
102
RTVSPropertyOp53
 70
     1
102
RTVSPropertyOp54
 70
     1
102
RTVSPropertyOp55
 70
     1
102
RTVSPropertyOp56
 70
     1
102
RTVSPropertyOp57
 70
     1
102
RTVSPropertyOp58
 70
     1
102
RTVSPropertyOp59
 70
     1
102
RTVSPropertyOp60
 70
     1
102
RTVSPropertyOp61
 70
     1
102
RTVSPropertyOp62
 70
     1
  0
XRECORD
  5
2A28A
102
{ACAD_REACTORS
330
2A289
102
}
330
2A289
100
AcDbXrecord
280
     1
102
RTVSPost2010Prop28
280
     0
102
RTVSPost2010PropOp28
 70
     1
102
RTVSPost2010Prop29
280
     1
102
RTVSPost2010PropOp29
 70
     1
102
RTVSPost2010Prop30
280
     1
102
RTVSPost2010PropOp30
 70
     1
102
RTVSPost2010Prop31
280
     0
102
RTVSPost2010PropOp31
 70
     1
102
RTVSPost2010Prop32
280
     0
102
RTVSPost2010PropOp32
 70
     1
102
RTVSPost2010Prop33
280
     0
102
RTVSPost2010PropOp33
 70
     1
102
RTVSPost2010Prop34
280
     0
102
RTVSPost2010PropOp34
 70
     1
102
RTVSPost2010Prop35
280
     0
102
RTVSPost2010PropOp35
 70
     1
102
RTVSPost2010Prop36
280
     0
102
RTVSPost2010PropOp36
 70
     1
102
RTVSPost2010Prop37
 90
       50
102
RTVSPost2010PropOp37
 70
     1
102
RTVSPost2010Prop38
140
0.0
102
RTVSPost2010PropOp38
 70
     1
102
RTVSPost2010Prop39
140
1.0
102
RTVSPost2010PropOp39
 70
     1
102
RTVSPost2010Prop40
 90
        0
102
RTVSPost2010PropOp40
 70
     1
102
RTVSPost2010Prop41ColorIndex
 90
       18
102
RTVSPost2010Prop41ColorRGB
 90
        0
102
RTVSPost2010PropOp41
 70
     1
102
RTVSPost2010Prop42
 90
       50
102
RTVSPost2010PropOp42
 70
     1
102
RTVSPost2010Prop43
 90
        3
102
RTVSPost2010PropOp43
 70
     1
102
RTVSPost2010Prop44ColorIndex
 90
        5
102
RTVSPost2010Prop44ColorRGB
 90
      255
102
RTVSPost2010PropOp44
 70
     1
102
RTVSPost2010Prop45
280
     0
102
RTVSPost2010PropOp45
 70
     1
102
RTVSPost2010Prop46
 90
       50
102
RTVSPost2010PropOp46
 70
     1
102
RTVSPost2010Prop47
 90
       50
102
RTVSPost2010PropOp47
 70
     1
102
RTVSPost2010Prop48
 90
       50
102
RTVSPost2010PropOp48
 70
     1
102
RTVSPost2010Prop49
280
     0
102
RTVSPost2010PropOp49
 70
     1
102
RTVSPost2010Prop50
 90
       50
102
RTVSPost2010PropOp50
 70
     1
102
RTVSPost2010Prop51ColorIndex
 90
      256
102
RTVSPost2010Prop51ColorRGB
 90
-16777216
102
RTVSPost2010PropOp51
 70
     0
102
RTVSPost2010Prop52
140
1.0
102
RTVSPost2010PropOp52
 70
     0
102
RTVSPost2010Prop53
 90
        2
102
RTVSPost2010PropOp53
 70
     1
102
RTVSPost2010Prop54
  1
strokes_ogs.tif
102
RTVSPost2010PropOp54
 70
     1
102
RTVSPost2010Prop55
280
     0
102
RTVSPost2010PropOp55
 70
     1
102
RTVSPost2010Prop56
140
1.0
102
RTVSPost2010PropOp56
 70
     1
102
RTVSPost2010Prop57
140
1.0
102
RTVSPost2010PropOp57
 70
     1
102
RTVSPropertyOp0
 70
     1
102
RTVSPropertyOp1
 70
     1
102
RTVSPropertyOp2
 70
     1
102
RTVSPropertyOp3
 70
     1
102
RTVSPropertyOp4
 70
     1
102
RTVSPropertyOp5
 70
     1
102
RTVSPropertyOp6
 70
     1
102
RTVSPropertyOp7
 70
     1
102
RTVSPropertyOp8
 70
     1
102
RTVSPropertyOp9
 70
     1
102
RTVSPropertyOp10
 70
     1
102
RTVSPropertyOp11
 70
     1
102
RTVSPropertyOp12
 70
     1
102
RTVSPropertyOp13
 70
     1
102
RTVSPropertyOp14
 70
     1
102
RTVSPropertyOp15
 70
     1
102
RTVSPropertyOp16
 70
     1
102
RTVSPropertyOp17
 70
     1
102
RTVSPropertyOp18
 70
     1
102
RTVSPropertyOp19
 70
     1
102
RTVSPropertyOp20
 70
     1
102
RTVSPropertyOp21
 70
     1
102
RTVSPropertyOp22
 70
     1
102
RTVSPropertyOp23
 70
     1
102
RTVSPropertyOp24
 70
     1
102
RTVSPropertyOp25
 70
     1
102
RTVSPropertyOp26
 70
     1
102
RTVSPropertyOp27
 70
     1
102
RTVSPropertyOp28
 70
     1
102
RTVSPropertyOp29
 70
     1
102
RTVSPropertyOp30
 70
     1
102
RTVSPropertyOp31
 70
     1
102
RTVSPropertyOp32
 70
     1
102
RTVSPropertyOp33
 70
     1
102
RTVSPropertyOp34
 70
     1
102
RTVSPropertyOp35
 70
     1
102
RTVSPropertyOp36
 70
     1
102
RTVSPropertyOp37
 70
     1
102
RTVSPropertyOp38
 70
     1
102
RTVSPropertyOp39
 70
     1
102
RTVSPropertyOp40
 70
     1
102
RTVSPropertyOp41
 70
     1
102
RTVSPropertyOp42
 70
     1
102
RTVSPropertyOp43
 70
     1
102
RTVSPropertyOp44
 70
     1
102
RTVSPropertyOp45
 70
     1
102
RTVSPropertyOp46
 70
     1
102
RTVSPropertyOp47
 70
     1
102
RTVSPropertyOp48
 70
     1
102
RTVSPropertyOp49
 70
     1
102
RTVSPropertyOp50
 70
     1
102
RTVSPropertyOp51
 70
     0
102
RTVSPropertyOp52
 70
     0
102
RTVSPropertyOp53
 70
     1
102
RTVSPropertyOp54
 70
     1
102
RTVSPropertyOp55
 70
     1
102
RTVSPropertyOp56
 70
     1
102
RTVSPropertyOp57
 70
     1
102
RTVSPropertyOp58
 70
     1
102
RTVSPropertyOp59
 70
     1
102
RTVSPropertyOp60
 70
     1
102
RTVSPropertyOp61
 70
     1
102
RTVSPropertyOp62
 70
     1
  0
XRECORD
  5
2A27E
102
{ACAD_REACTORS
330
2A27D
102
}
330
2A27D
100
AcDbXrecord
280
     1
102
RTVSPost2010Prop28
280
     0
102
RTVSPost2010PropOp28
 70
     1
102
RTVSPost2010Prop29
280
     1
102
RTVSPost2010PropOp29
 70
     1
102
RTVSPost2010Prop30
280
     1
102
RTVSPost2010PropOp30
 70
     1
102
RTVSPost2010Prop31
280
     0
102
RTVSPost2010PropOp31
 70
     1
102
RTVSPost2010Prop32
280
     0
102
RTVSPost2010PropOp32
 70
     1
102
RTVSPost2010Prop33
280
     0
102
RTVSPost2010PropOp33
 70
     1
102
RTVSPost2010Prop34
280
     0
102
RTVSPost2010PropOp34
 70
     1
102
RTVSPost2010Prop35
280
     0
102
RTVSPost2010PropOp35
 70
     1
102
RTVSPost2010Prop36
280
     0
102
RTVSPost2010PropOp36
 70
     1
102
RTVSPost2010Prop37
 90
       50
102
RTVSPost2010PropOp37
 70
     1
102
RTVSPost2010Prop38
140
0.0
102
RTVSPost2010PropOp38
 70
     1
102
RTVSPost2010Prop39
140
1.0
102
RTVSPost2010PropOp39
 70
     1
102
RTVSPost2010Prop40
 90
        0
102
RTVSPost2010PropOp40
 70
     1
102
RTVSPost2010Prop41ColorIndex
 90
       18
102
RTVSPost2010Prop41ColorRGB
 90
        0
102
RTVSPost2010PropOp41
 70
     1
102
RTVSPost2010Prop42
 90
       50
102
RTVSPost2010PropOp42
 70
     1
102
RTVSPost2010Prop43
 90
        3
102
RTVSPost2010PropOp43
 70
     1
102
RTVSPost2010Prop44ColorIndex
 90
        5
102
RTVSPost2010Prop44ColorRGB
 90
      255
102
RTVSPost2010PropOp44
 70
     1
102
RTVSPost2010Prop45
280
     0
102
RTVSPost2010PropOp45
 70
     1
102
RTVSPost2010Prop46
 90
       50
102
RTVSPost2010PropOp46
 70
     1
102
RTVSPost2010Prop47
 90
       50
102
RTVSPost2010PropOp47
 70
     1
102
RTVSPost2010Prop48
 90
       50
102
RTVSPost2010PropOp48
 70
     1
102
RTVSPost2010Prop49
280
     0
102
RTVSPost2010PropOp49
 70
     1
102
RTVSPost2010Prop50
 90
       50
102
RTVSPost2010PropOp50
 70
     1
102
RTVSPost2010Prop51ColorIndex
 90
      256
102
RTVSPost2010Prop51ColorRGB
 90
-16777216
102
RTVSPost2010PropOp51
 70
     0
102
RTVSPost2010Prop52
140
1.0
102
RTVSPost2010PropOp52
 70
     0
102
RTVSPost2010Prop53
 90
        2
102
RTVSPost2010PropOp53
 70
     1
102
RTVSPost2010Prop54
  1
strokes_ogs.tif
102
RTVSPost2010PropOp54
 70
     1
102
RTVSPost2010Prop55
280
     0
102
RTVSPost2010PropOp55
 70
     1
102
RTVSPost2010Prop56
140
1.0
102
RTVSPost2010PropOp56
 70
     1
102
RTVSPost2010Prop57
140
1.0
102
RTVSPost2010PropOp57
 70
     1
102
RTVSPropertyOp0
 70
     1
102
RTVSPropertyOp1
 70
     1
102
RTVSPropertyOp2
 70
     1
102
RTVSPropertyOp3
 70
     1
102
RTVSPropertyOp4
 70
     1
102
RTVSPropertyOp5
 70
     1
102
RTVSPropertyOp6
 70
     1
102
RTVSPropertyOp7
 70
     1
102
RTVSPropertyOp8
 70
     1
102
RTVSPropertyOp9
 70
     1
102
RTVSPropertyOp10
 70
     1
102
RTVSPropertyOp11
 70
     1
102
RTVSPropertyOp12
 70
     1
102
RTVSPropertyOp13
 70
     1
102
RTVSPropertyOp14
 70
     1
102
RTVSPropertyOp15
 70
     1
102
RTVSPropertyOp16
 70
     1
102
RTVSPropertyOp17
 70
     1
102
RTVSPropertyOp18
 70
     1
102
RTVSPropertyOp19
 70
     1
102
RTVSPropertyOp20
 70
     1
102
RTVSPropertyOp21
 70
     1
102
RTVSPropertyOp22
 70
     1
102
RTVSPropertyOp23
 70
     1
102
RTVSPropertyOp24
 70
     1
102
RTVSPropertyOp25
 70
     1
102
RTVSPropertyOp26
 70
     1
102
RTVSPropertyOp27
 70
     1
102
RTVSPropertyOp28
 70
     1
102
RTVSPropertyOp29
 70
     1
102
RTVSPropertyOp30
 70
     1
102
RTVSPropertyOp31
 70
     1
102
RTVSPropertyOp32
 70
     1
102
RTVSPropertyOp33
 70
     1
102
RTVSPropertyOp34
 70
     1
102
RTVSPropertyOp35
 70
     1
102
RTVSPropertyOp36
 70
     1
102
RTVSPropertyOp37
 70
     1
102
RTVSPropertyOp38
 70
     1
102
RTVSPropertyOp39
 70
     1
102
RTVSPropertyOp40
 70
     1
102
RTVSPropertyOp41
 70
     1
102
RTVSPropertyOp42
 70
     1
102
RTVSPropertyOp43
 70
     1
102
RTVSPropertyOp44
 70
     1
102
RTVSPropertyOp45
 70
     1
102
RTVSPropertyOp46
 70
     1
102
RTVSPropertyOp47
 70
     1
102
RTVSPropertyOp48
 70
     1
102
RTVSPropertyOp49
 70
     1
102
RTVSPropertyOp50
 70
     1
102
RTVSPropertyOp51
 70
     0
102
RTVSPropertyOp52
 70
     0
102
RTVSPropertyOp53
 70
     1
102
RTVSPropertyOp54
 70
     1
102
RTVSPropertyOp55
 70
     1
102
RTVSPropertyOp56
 70
     1
102
RTVSPropertyOp57
 70
     1
102
RTVSPropertyOp58
 70
     1
102
RTVSPropertyOp59
 70
     1
102
RTVSPropertyOp60
 70
     1
102
RTVSPropertyOp61
 70
     1
102
RTVSPropertyOp62
 70
     1
  0
XRECORD
  5
2A29E
102
{ACAD_REACTORS
330
2A29D
102
}
330
2A29D
100
AcDbXrecord
280
     1
102
RTVSPost2010Prop28
280
     0
102
RTVSPost2010PropOp28
 70
     1
102
RTVSPost2010Prop29
280
     1
102
RTVSPost2010PropOp29
 70
     1
102
RTVSPost2010Prop30
280
     1
102
RTVSPost2010PropOp30
 70
     1
102
RTVSPost2010Prop31
280
     0
102
RTVSPost2010PropOp31
 70
     1
102
RTVSPost2010Prop32
280
     0
102
RTVSPost2010PropOp32
 70
     1
102
RTVSPost2010Prop33
280
     0
102
RTVSPost2010PropOp33
 70
     1
102
RTVSPost2010Prop34
280
     0
102
RTVSPost2010PropOp34
 70
     1
102
RTVSPost2010Prop35
280
     0
102
RTVSPost2010PropOp35
 70
     1
102
RTVSPost2010Prop36
280
     0
102
RTVSPost2010PropOp36
 70
     1
102
RTVSPost2010Prop37
 90
       50
102
RTVSPost2010PropOp37
 70
     1
102
RTVSPost2010Prop38
140
0.0
102
RTVSPost2010PropOp38
 70
     1
102
RTVSPost2010Prop39
140
1.0
102
RTVSPost2010PropOp39
 70
     1
102
RTVSPost2010Prop40
 90
        0
102
RTVSPost2010PropOp40
 70
     1
102
RTVSPost2010Prop41ColorIndex
 90
       18
102
RTVSPost2010Prop41ColorRGB
 90
        0
102
RTVSPost2010PropOp41
 70
     1
102
RTVSPost2010Prop42
 90
       50
102
RTVSPost2010PropOp42
 70
     1
102
RTVSPost2010Prop43
 90
        3
102
RTVSPost2010PropOp43
 70
     1
102
RTVSPost2010Prop44ColorIndex
 90
        5
102
RTVSPost2010Prop44ColorRGB
 90
      255
102
RTVSPost2010PropOp44
 70
     1
102
RTVSPost2010Prop45
280
     0
102
RTVSPost2010PropOp45
 70
     1
102
RTVSPost2010Prop46
 90
       50
102
RTVSPost2010PropOp46
 70
     1
102
RTVSPost2010Prop47
 90
       50
102
RTVSPost2010PropOp47
 70
     1
102
RTVSPost2010Prop48
 90
       50
102
RTVSPost2010PropOp48
 70
     1
102
RTVSPost2010Prop49
280
     0
102
RTVSPost2010PropOp49
 70
     1
102
RTVSPost2010Prop50
 90
       50
102
RTVSPost2010PropOp50
 70
     1
102
RTVSPost2010Prop51ColorIndex
 90
      256
102
RTVSPost2010Prop51ColorRGB
 90
-16777216
102
RTVSPost2010PropOp51
 70
     0
102
RTVSPost2010Prop52
140
1.0
102
RTVSPost2010PropOp52
 70
     0
102
RTVSPost2010Prop53
 90
        2
102
RTVSPost2010PropOp53
 70
     1
102
RTVSPost2010Prop54
  1
strokes_ogs.tif
102
RTVSPost2010PropOp54
 70
     1
102
RTVSPost2010Prop55
280
     0
102
RTVSPost2010PropOp55
 70
     1
102
RTVSPost2010Prop56
140
1.0
102
RTVSPost2010PropOp56
 70
     1
102
RTVSPost2010Prop57
140
1.0
102
RTVSPost2010PropOp57
 70
     1
102
RTVSPropertyOp0
 70
     1
102
RTVSPropertyOp1
 70
     1
102
RTVSPropertyOp2
 70
     1
102
RTVSPropertyOp3
 70
     1
102
RTVSPropertyOp4
 70
     1
102
RTVSPropertyOp5
 70
     1
102
RTVSPropertyOp6
 70
     1
102
RTVSPropertyOp7
 70
     1
102
RTVSPropertyOp8
 70
     1
102
RTVSPropertyOp9
 70
     1
102
RTVSPropertyOp10
 70
     1
102
RTVSPropertyOp11
 70
     1
102
RTVSPropertyOp12
 70
     1
102
RTVSPropertyOp13
 70
     1
102
RTVSPropertyOp14
 70
     1
102
RTVSPropertyOp15
 70
     1
102
RTVSPropertyOp16
 70
     1
102
RTVSPropertyOp17
 70
     1
102
RTVSPropertyOp18
 70
     1
102
RTVSPropertyOp19
 70
     1
102
RTVSPropertyOp20
 70
     1
102
RTVSPropertyOp21
 70
     1
102
RTVSPropertyOp22
 70
     1
102
RTVSPropertyOp23
 70
     1
102
RTVSPropertyOp24
 70
     1
102
RTVSPropertyOp25
 70
     1
102
RTVSPropertyOp26
 70
     1
102
RTVSPropertyOp27
 70
     1
102
RTVSPropertyOp28
 70
     1
102
RTVSPropertyOp29
 70
     1
102
RTVSPropertyOp30
 70
     1
102
RTVSPropertyOp31
 70
     1
102
RTVSPropertyOp32
 70
     1
102
RTVSPropertyOp33
 70
     1
102
RTVSPropertyOp34
 70
     1
102
RTVSPropertyOp35
 70
     1
102
RTVSPropertyOp36
 70
     1
102
RTVSPropertyOp37
 70
     1
102
RTVSPropertyOp38
 70
     1
102
RTVSPropertyOp39
 70
     1
102
RTVSPropertyOp40
 70
     1
102
RTVSPropertyOp41
 70
     1
102
RTVSPropertyOp42
 70
     1
102
RTVSPropertyOp43
 70
     1
102
RTVSPropertyOp44
 70
     1
102
RTVSPropertyOp45
 70
     1
102
RTVSPropertyOp46
 70
     1
102
RTVSPropertyOp47
 70
     1
102
RTVSPropertyOp48
 70
     1
102
RTVSPropertyOp49
 70
     1
102
RTVSPropertyOp50
 70
     1
102
RTVSPropertyOp51
 70
     0
102
RTVSPropertyOp52
 70
     0
102
RTVSPropertyOp53
 70
     1
102
RTVSPropertyOp54
 70
     1
102
RTVSPropertyOp55
 70
     1
102
RTVSPropertyOp56
 70
     1
102
RTVSPropertyOp57
 70
     1
102
RTVSPropertyOp58
 70
     1
102
RTVSPropertyOp59
 70
     1
102
RTVSPropertyOp60
 70
     1
102
RTVSPropertyOp61
 70
     1
102
RTVSPropertyOp62
 70
     1
  0
ENDSEC
  0
EOF
